  0
SECTION
  2
HEADER
  9
$ACADVER
  1
AC1009
  9
$INSBASE
 10
0.0
 20
0.0
 30
0.0
  9
$EXTMIN
 10
135.125
 20
125.34999999999999
 30
0.0
  9
$EXTMAX
 10
374.37499999999989
 20
216.52629374337201
 30
0.0
  9
$LIMMIN
 10
135.125
 20
125.34999999999999
  9
$LIMMAX
 10
374.37499999999977
 20
216.52629374337201
  9
$ORTHOMODE
 70
     0
  9
$REGENMODE
 70
     1
  9
$FILLMODE
 70
     1
  9
$QTEXTMODE
 70
     0
  9
$MIRRTEXT
 70
     1
  9
$DRAGMODE
 70
     2
  9
$LTSCALE
 40
1.0
  9
$OSMODE
 70
    37
  9
$ATTMODE
 70
     1
  9
$TEXTSIZE
 40
3.5
  9
$TRACEWID
 40
0.5
  9
$TEXTSTYLE
  7
STANDARD
  9
$CLAYER
  8
0
  9
$CELTYPE
  6
BYLAYER
  9
$CECOLOR
 62
   256
  9
$DIMSCALE
 40
1.0
  9
$DIMASZ
 40
0.18
  9
$DIMEXO
 40
0.0625
  9
$DIMDLI
 40
0.38
  9
$DIMRND
 40
0.0
  9
$DIMDLE
 40
0.0
  9
$DIMEXE
 40
0.18
  9
$DIMTP
 40
0.0
  9
$DIMTM
 40
0.0
  9
$DIMTXT
 40
0.18
  9
$DIMCEN
 40
0.09
  9
$DIMTSZ
 40
0.0
  9
$DIMTOL
 70
     0
  9
$DIMLIM
 70
     0
  9
$DIMTIH
 70
     1
  9
$DIMTOH
 70
     1
  9
$DIMSE1
 70
     0
  9
$DIMSE2
 70
     0
  9
$DIMTAD
 70
     0
  9
$DIMZIN
 70
     0
  9
$DIMBLK
  1

  9
$DIMASO
 70
     1
  9
$DIMSHO
 70
     1
  9
$DIMPOST
  1

  9
$DIMAPOST
  1

  9
$DIMALT
 70
     0
  9
$DIMALTD
 70
     2
  9
$DIMALTF
 40
25.399999999999999
  9
$DIMLFAC
 40
1.0
  9
$DIMTOFL
 70
     0
  9
$DIMTVP
 40
0.0
  9
$DIMTIX
 70
     0
  9
$DIMSOXD
 70
     0
  9
$DIMSAH
 70
     0
  9
$DIMBLK1
  1

  9
$DIMBLK2
  1

  9
$DIMSTYLE
  2
STANDARD
  9
$DIMCLRD
 70
     0
  9
$DIMCLRE
 70
     0
  9
$DIMCLRT
 70
     0
  9
$DIMTFAC
 40
1.0
  9
$DIMGAP
 40
0.09
  9
$LUNITS
 70
     2
  9
$LUPREC
 70
     4
  9
$SKETCHINC
 40
0.1
  9
$FILLETRAD
 40
2.0
  9
$AUNITS
 70
     0
  9
$AUPREC
 70
     0
  9
$MENU
  1
ACAD
  9
$ELEVATION
 40
0.0
  9
$PELEVATION
 40
0.0
  9
$THICKNESS
 40
0.0
  9
$LIMCHECK
 70
     0
  9
$BLIPMODE
 70
     0
  9
$CHAMFERA
 40
0.0
  9
$CHAMFERB
 40
0.0
  9
$SKPOLY
 70
     0
  9
$TDCREATE
 40
2452093.8974723369
  9
$TDUPDATE
 40
2452093.8979039351
  9
$TDINDWG
 40
0.0004354167
  9
$TDUSRTIMER
 40
0.0004354167
  9
$USRTIMER
 70
     1
  9
$ANGBASE
 50
0.0
  9
$ANGDIR
 70
     0
  9
$PDMODE
 70
     0
  9
$PDSIZE
 40
0.0
  9
$PLINEWID
 40
0.0
  9
$COORDS
 70
     1
  9
$SPLFRAME
 70
     0
  9
$SPLINETYPE
 70
     6
  9
$SPLINESEGS
 70
     8
  9
$ATTDIA
 70
     0
  9
$ATTREQ
 70
     1
  9
$HANDLING
 70
 10241
  9
$HANDSEED
  5
134
  9
$SURFTAB1
 70
     6
  9
$SURFTAB2
 70
     6
  9
$SURFTYPE
 70
     6
  9
$SURFU
 70
     6
  9
$SURFV
 70
     6
  9
$UCSNAME
  2

  9
$UCSORG
 10
0.0
 20
0.0
 30
0.0
  9
$UCSXDIR
 10
1.0
 20
0.0
 30
0.0
  9
$UCSYDIR
 10
0.0
 20
1.0
 30
0.0
  9
$PUCSNAME
  2

  9
$PUCSORG
 10
0.0
 20
0.0
 30
0.0
  9
$PUCSXDIR
 10
1.0
 20
0.0
 30
0.0
  9
$PUCSYDIR
 10
0.0
 20
1.0
 30
0.0
  9
$USERI1
 70
     0
  9
$USERI2
 70
     0
  9
$USERI3
 70
     0
  9
$USERI4
 70
     0
  9
$USERI5
 70
     0
  9
$USERR1
 40
0.0
  9
$USERR2
 40
0.0
  9
$USERR3
 40
0.0
  9
$USERR4
 40
0.0
  9
$USERR5
 40
0.0
  9
$WORLDVIEW
 70
     1
  9
$SHADEDGE
 70
     3
  9
$SHADEDIF
 70
    70
  9
$TILEMODE
 70
     1
  9
$MAXACTVP
 70
    64
  9
$PLIMCHECK
 70
     0
  9
$PEXTMIN
 10
1.0000000000000000E+020
 20
1.0000000000000000E+020
 30
1.0000000000000000E+020
  9
$PEXTMAX
 10
-1.0000000000000000E+020
 20
-1.0000000000000000E+020
 30
-1.0000000000000000E+020
  9
$PLIMMIN
 10
0.0
 20
0.0
  9
$PLIMMAX
 10
12.0
 20
9.0
  9
$UNITMODE
 70
     0
  9
$VISRETAIN
 70
     1
  9
$PLINEGEN
 70
     0
  9
$PSLTSCALE
 70
     1
  0
ENDSEC
  0
SECTION
  2
TABLES
  0
TABLE
  2
VPORT
 70
     2
  0
VPORT
  2
*ACTIVE
 70
     0
 10
0.0
 20
0.0
 11
1.0
 21
1.0
 12
156.5846828727237
 22
210.57344573561889
 13
0.0
 23
0.0
 14
1.0
 24
1.0
 15
0.0
 25
0.0
 16
0.0
 26
0.0
 36
1.0
 17
0.0
 27
0.0
 37
0.0
 40
8.9999998180176242
 41
2.5693779904306222
 42
50.0
 43
0.0
 44
0.0
 50
0.0
 51
0.0
 71
     0
 72
   100
 73
     1
 74
     1
 75
     0
 76
     0
 77
     0
 78
     0
  0
ENDTAB
  0
TABLE
  2
LTYPE
 70
     9
  0
LTYPE
  2
CONTINUOUS
 70
     0
  3
Solid line
 72
    65
 73
     0
 40
0.0
  0
LTYPE
  2
BORDER
 70
     0
  3
__ __ . __ __ .
 72
    65
 73
     6
 40
11.01809210526315
 49
3.1480263157894708
 49
-1.5740131578947349
 49
3.1480263157894708
 49
-1.5740131578947349
 49
0.0
 49
-1.5740131578947349
  0
LTYPE
  2
CENTER
 70
     0
  3
____ _ ____ _
 72
    65
 73
     4
 40
12.59210526315789
 49
7.8700657894736814
 49
-1.5740131578947349
 49
1.5740131578947349
 49
-1.5740131578947349
  0
LTYPE
  2
DASHDOT
 70
     0
  3
__ . __ . __ .
 72
    65
 73
     4
 40
6.2960526315789433
 49
3.1480263157894708
 49
-1.5740131578947349
 49
0.0
 49
-1.5740131578947349
  0
LTYPE
  2
DASHED
 70
     0
  3
__ __ __ __ __
 72
    65
 73
     2
 40
4.7220394736842071
 49
3.1480263157894708
 49
-1.5740131578947349
  0
LTYPE
  2
DIVIDE
 70
     0
  3
__ . . __ . . 
 72
    65
 73
     6
 40
7.8700657894736814
 49
3.1480263157894708
 49
-1.5740131578947349
 49
0.0
 49
-1.5740131578947349
 49
0.0
 49
-1.5740131578947349
  0
LTYPE
  2
DOT
 70
     0
  3
..............
 72
    65
 73
     4
 40
3.1480263157894708
 49
0.0
 49
-1.5740131578947349
 49
0.0
 49
-1.5740131578947349
  0
LTYPE
  2
HIDDEN
 70
     0
  3
_ _ _ _ _ _ _
 72
    65
 73
     2
 40
2.3610197368421031
 49
1.5740131578947349
 49
-0.787006578947368
  0
LTYPE
  2
PHANTOM
 70
     0
  3
_____ _ _ _____ _ _ 
 72
    65
 73
     6
 40
15.740131578947359
 49
7.8700657894736814
 49
-1.5740131578947349
 49
1.5740131578947349
 49
-1.5740131578947349
 49
1.5740131578947349
 49
-1.5740131578947349
  0
ENDTAB
  0
TABLE
  2
LAYER
 70
     2
  0
LAYER
  2
0
 70
     0
 62
     7
  6
CONTINUOUS
  0
LAYER
  2
1
 70
     0
 62
     7
  6
CONTINUOUS
  0
ENDTAB
  0
TABLE
  2
STYLE
 70
     4
  0
STYLE
  2
STANDARD
 70
     0
 40
0.0
 41
1.0
 50
0.0
 71
     0
 42
3.5
  3
txt
  4

  0
STYLE
  2
SIMPLEX
 70
     0
 40
0.0
 41
1.0
 50
0.0
 71
     0
 42
3.5
  3
simplex
  4

  0
STYLE
  2
COMPLEX
 70
     0
 40
0.0
 41
1.0
 50
0.0
 71
     0
 42
3.5
  3
complex
  4

  0
STYLE
  2
ITALIC
 70
     0
 40
0.0
 41
1.0
 50
0.0
 71
     0
 42
3.5
  3
italic
  4

  0
ENDTAB
  0
TABLE
  2
VIEW
 70
     0
  0
ENDTAB
  0
TABLE
  2
UCS
 70
     0
  0
ENDTAB
  0
TABLE
  2
APPID
 70
     1
  0
APPID
  2
ACAD
 70
     0
  0
ENDTAB
  0
TABLE
  2
DIMSTYLE
 70
     1
  0
DIMSTYLE
  2
STANDARD
 70
     0
  3

  4

  5

  6

  7

 40
1.0
 41
0.18
 42
0.0625
 43
0.38
 44
0.18
 45
0.0
 46
0.0
 47
0.0
 48
0.0
140
0.18
141
0.09
142
0.0
143
25.399999999999999
144
1.0
145
0.0
146
1.0
147
0.09
 71
     0
 72
     0
 73
     1
 74
     1
 75
     0
 76
     0
 77
     0
 78
     0
170
     0
171
     2
172
     0
173
     0
174
     0
175
     0
176
     0
177
     0
178
     0
  0
ENDTAB
  0
ENDSEC
  0
SECTION
  2
BLOCKS
  0
BLOCK
  8
0
  2
$MODEL_SPACE
 70
     0
 10
0.0
 20
0.0
 30
0.0
  3
$MODEL_SPACE
  1

  0
ENDBLK
  5
20
  8
0
  0
BLOCK
 67
     1
  8
0
  2
$PAPER_SPACE
 70
     0
 10
0.0
 20
0.0
 30
0.0
  3
$PAPER_SPACE
  1

  0
ENDBLK
  5
1C
 67
     1
  8
0
  0
ENDSEC
  0
SECTION
  2
ENTITIES
  0
LINE
  5
33
  8
1
 62
     3
 10
261.48232442107542
 20
157.24999999999989
 30
0.0
 11
261.95084416452272
 21
157.52049999999991
 31
0.0
  0
LINE
  5
34
  8
1
 62
     3
 10
261.95084416452272
 20
157.52049999999991
 30
0.0
 11
266.875
 21
157.52049999999991
 31
0.0
  0
LINE
  5
35
  8
1
 62
     7
 10
266.875
 20
157.52049999999991
 30
0.0
 11
270.37499999999989
 21
157.52049999999991
 31
0.0
  0
LINE
  5
36
  8
1
 62
     7
 10
266.60449999999992
 20
160.25
 30
0.0
 11
266.875
 21
159.9795
 31
0.0
  0
LINE
  5
37
  8
1
 62
     7
 10
266.875
 20
157.52049999999991
 30
0.0
 11
266.60449999999992
 21
157.24999999999989
 31
0.0
  0
LINE
  5
38
  8
1
 62
     7
 10
348.22500000000002
 20
171.59999999999999
 30
0.0
 11
328.72050044990988
 21
171.59999999999999
 31
0.0
  0
LINE
  5
39
  8
1
 62
     7
 10
348.22500000000002
 20
172.0
 30
0.0
 11
354.22500000000002
 21
172.0
 31
0.0
  0
LINE
  5
3A
  8
1
 62
     7
 10
354.22500000000002
 20
172.0
 30
0.0
 11
353.72500000000002
 21
172.5
 31
0.0
  0
LINE
  5
3B
  8
1
 62
     7
 10
348.72500000000002
 20
172.5
 30
0.0
 11
348.22500000000002
 21
172.0
 31
0.0
  0
LINE
  5
3C
  8
1
 62
     7
 10
348.72500000000002
 20
172.5
 30
0.0
 11
353.72500000000002
 21
172.5
 31
0.0
  0
LINE
  5
3D
  8
1
 62
     7
 10
143.02500000000001
 20
172.0
 30
0.0
 11
149.02500000000001
 21
172.0
 31
0.0
  0
LINE
  5
3E
  8
1
 62
     7
 10
149.02500000000001
 20
172.0
 30
0.0
 11
148.52500000000001
 21
172.5
 31
0.0
  0
LINE
  5
3F
  8
1
 62
     7
 10
143.52500000000001
 20
172.5
 30
0.0
 11
143.02500000000001
 21
172.0
 31
0.0
  0
LINE
  5
40
  8
1
 62
     7
 10
149.02500000000001
 20
171.5
 30
0.0
 11
149.02500000000001
 21
172.0
 31
0.0
  0
LINE
  5
41
  8
1
 62
     7
 10
143.52500000000001
 20
172.5
 30
0.0
 11
148.52500000000001
 21
172.5
 31
0.0
  0
LINE
  5
42
  8
1
 62
     7
 10
143.02500000000001
 20
171.5
 30
0.0
 11
143.02500000000001
 21
172.0
 31
0.0
  0
LINE
  5
43
  8
1
  6
DASHDOT
 62
     3
 10
180.875
 20
148.5
 30
0.0
 11
177.875
 21
148.5
 31
0.0
  0
LINE
  5
44
  8
1
 62
     7
 10
177.875
 20
135.49999999999989
 30
0.0
 11
168.67500000000001
 21
135.49999999999989
 31
0.0
  0
LINE
  5
45
  8
1
 62
     7
 10
168.67500000000001
 20
161.5
 30
0.0
 11
177.875
 21
161.5
 31
0.0
  0
LINE
  5
46
  8
1
 62
     7
 10
352.47500000000002
 20
153.39999999999989
 30
0.0
 11
352.47500000000002
 21
152.2996710383926
 31
0.0
  0
LINE
  5
47
  8
1
 62
     7
 10
349.97500000000002
 20
153.39999999999989
 30
0.0
 11
352.47500000000002
 21
153.39999999999989
 31
0.0
  0
LINE
  5
48
  8
1
 62
     7
 10
349.97500000000002
 20
152.2996710383926
 30
0.0
 11
349.97500000000002
 21
153.39999999999989
 31
0.0
  0
LINE
  5
49
  8
1
 62
     7
 10
169.17500000000001
 20
130.4499999999999
 30
0.0
 11
168.67500000000001
 21
130.4499999999999
 31
0.0
  0
LINE
  5
4A
  8
1
 62
     7
 10
169.17500000000001
 20
130.4499999999999
 30
0.0
 11
169.17500000000001
 21
126.0499999999999
 31
0.0
  0
LINE
  5
4B
  8
1
 62
     7
 10
169.17500000000001
 20
126.0499999999999
 30
0.0
 11
168.67500000000001
 21
126.0499999999999
 31
0.0
  0
LINE
  5
4C
  8
1
 62
     7
 10
168.375
 20
171.0
 30
0.0
 11
168.67500000000001
 21
171.0
 31
0.0
  0
LINE
  5
4D
  8
1
 62
     7
 10
168.67500000000001
 20
171.0
 30
0.0
 11
168.67500000000001
 21
126.0
 31
0.0
  0
LINE
  5
4E
  8
1
 62
     7
 10
168.67500000000001
 20
126.0
 30
0.0
 11
168.375
 21
126.0
 31
0.0
  0
LINE
  5
4F
  8
1
 62
     7
 10
348.72500000000002
 20
162.0554417117259
 30
0.0
 11
348.72500000000002
 21
165.13580475961399
 31
0.0
  0
LINE
  5
50
  8
1
 62
     7
 10
335.56797046577611
 20
142.34716112965401
 30
0.0
 11
338.23564311812612
 21
143.8873426535981
 31
0.0
  0
LINE
  5
51
  8
1
 62
     7
 10
364.21435688187381
 20
143.8873426535981
 30
0.0
 11
366.88202953422382
 21
142.34716112965401
 31
0.0
  0
LINE
  5
52
  8
1
 62
     7
 10
340.73564311812612
 20
139.55721563467591
 30
0.0
 11
338.06797046577611
 21
138.0170341107318
 31
0.0
  0
LINE
  5
53
  8
1
 62
     7
 10
353.72500000000002
 20
165.13580475961399
 30
0.0
 11
353.72500000000002
 21
162.0554417117259
 31
0.0
  0
LINE
  5
54
  8
1
 62
     7
 10
364.38202953422382
 20
138.01703411073191
 30
0.0
 11
361.71435688187381
 21
139.55721563467591
 31
0.0
  0
LINE
  5
55
  8
1
 62
     7
 10
165.92500000000001
 20
171.65000000000001
 30
0.0
 11
165.92500000000001
 21
125.34999999999999
 31
0.0
  0
LINE
  5
56
  8
1
 62
     7
 10
168.375
 20
171.65000000000001
 30
0.0
 11
168.375
 21
125.34999999999999
 31
0.0
  0
LINE
  5
57
  8
1
 62
     7
 10
165.92500000000001
 20
171.65000000000001
 30
0.0
 11
168.375
 21
171.65000000000001
 31
0.0
  0
LINE
  5
58
  8
1
 62
     7
 10
168.375
 20
125.34999999999999
 30
0.0
 11
165.92500000000001
 21
125.34999999999999
 31
0.0
  0
LINE
  5
59
  8
1
 62
     7
 10
165.67500000000001
 20
125.5
 30
0.0
 11
141.52500000000001
 21
125.5
 31
0.0
  0
LINE
  5
5A
  8
1
 62
     7
 10
165.67500000000001
 20
171.5
 30
0.0
 11
165.67500000000001
 21
125.5
 31
0.0
  0
LINE
  5
5B
  8
1
 62
     7
 10
373.72949955008983
 20
125.40000000000001
 30
0.0
 11
352.74569063257462
 21
125.40000000000001
 31
0.0
  0
LINE
  5
5C
  8
1
 62
     7
 10
374.32499999999987
 20
171.00449955009
 30
0.0
 11
374.32499999999987
 21
150.02069063257451
 31
0.0
  0
LINE
  5
5D
  8
1
 62
     7
 10
373.72949955008983
 20
171.59999999999999
 30
0.0
 11
354.22500000000002
 21
171.59999999999999
 31
0.0
  0
LINE
  5
5E
  8
1
 62
     7
 10
138.125
 20
125.40000000000001
 30
0.0
 11
138.125
 21
171.59999999999999
 31
0.0
  0
LINE
  5
5F
  8
1
 62
     7
 10
139.52500000000001
 20
125.40000000000001
 30
0.0
 11
139.52500000000001
 21
171.59999999999999
 31
0.0
  0
LINE
  5
60
  8
1
 62
     7
 10
138.125
 20
125.40000000000001
 30
0.0
 11
139.52500000000001
 21
125.40000000000001
 31
0.0
  0
LINE
  5
61
  8
1
 62
     7
 10
139.52500000000001
 20
171.59999999999999
 30
0.0
 11
138.125
 21
171.59999999999999
 31
0.0
  0
LINE
  5
62
  8
1
 62
     7
 10
139.52500000000001
 20
169.5
 30
0.0
 11
141.52500000000001
 21
171.5
 31
0.0
  0
LINE
  5
63
  8
1
 62
     7
 10
139.52500000000001
 20
127.5
 30
0.0
 11
141.52500000000001
 21
125.5
 31
0.0
  0
LINE
  5
64
  8
1
 62
     7
 10
328.125
 20
125.99550044991
 30
0.0
 11
328.125
 21
146.97930936742529
 31
0.0
  0
LINE
  5
65
  8
1
 62
     7
 10
349.47500000000002
 20
172.5
 30
0.0
 11
349.47500000000002
 21
187.49999999999989
 31
0.0
  0
LINE
  5
66
  8
1
 62
     7
 10
352.97500000000002
 20
172.5
 30
0.0
 11
352.97500000000002
 21
187.5
 31
0.0
  0
LINE
  5
67
  8
1
 62
     7
 10
351.22500000000002
 20
172.5
 30
0.0
 11
351.22500000000002
 21
187.49999999999989
 31
0.0
  0
LINE
  5
68
  8
1
 62
     7
 10
146.90000000000001
 20
187.49999999999989
 30
0.0
 11
146.90000000000001
 21
172.5
 31
0.0
  0
LINE
  5
69
  8
1
 62
     7
 10
145.15000000000001
 20
187.49999999999989
 30
0.0
 11
145.15000000000001
 21
172.5
 31
0.0
  0
LINE
  5
6A
  8
1
 62
     7
 10
141.52500000000001
 20
125.5
 30
0.0
 11
141.52500000000001
 21
171.5
 31
0.0
  0
LINE
  5
6B
  8
1
 62
     7
 10
165.67500000000001
 20
171.5
 30
0.0
 11
141.52500000000001
 21
171.5
 31
0.0
  0
LINE
  5
6C
  8
1
 62
     7
 10
177.875
 20
135.49999999999989
 30
0.0
 11
177.875
 21
161.5
 31
0.0
  0
LINE
  5
6D
  8
1
 62
     7
 10
234.125
 20
160.0
 30
0.0
 11
234.125
 21
159.49999999999989
 31
0.0
  0
LINE
  5
6E
  8
1
 62
     7
 10
237.65000000000001
 20
187.49999999999989
 30
0.0
 11
239.40000000000001
 21
187.49999999999989
 31
0.0
  0
LINE
  5
6F
  8
1
 62
     3
 10
238.18999999999991
 20
187.49999999999989
 30
0.0
 11
238.18999999999991
 21
190.49999999999989
 31
0.0
  0
LINE
  5
70
  8
1
 62
     3
 10
238.86000000000001
 20
190.49999999999989
 30
0.0
 11
238.86000000000001
 21
187.49999999999989
 31
0.0
  0
LINE
  5
71
  8
1
 62
     7
 10
232.02500000000001
 20
127.5
 30
0.0
 11
234.02500000000001
 21
125.5
 31
0.0
  0
LINE
  5
72
  8
1
 62
     7
 10
232.02500000000001
 20
169.5
 30
0.0
 11
234.02500000000001
 21
171.5
 31
0.0
  0
LINE
  5
73
  8
1
 62
     7
 10
252.42500000000001
 20
170.1999999999999
 30
0.0
 11
252.42500000000001
 21
159.1999999999999
 31
0.0
  0
LINE
  5
74
  8
1
 62
     7
 10
232.02500000000001
 20
171.59999999999999
 30
0.0
 11
230.62499999999989
 21
171.59999999999999
 31
0.0
  0
LINE
  5
75
  8
1
 62
     7
 10
230.62499999999989
 20
125.40000000000001
 30
0.0
 11
232.02500000000001
 21
125.40000000000001
 31
0.0
  0
LINE
  5
76
  8
1
 62
     7
 10
234.125
 20
160.0
 30
0.0
 11
232.97499999999999
 21
160.0
 31
0.0
  0
LINE
  5
77
  8
1
 62
     7
 10
232.97499999999999
 20
160.0
 30
0.0
 11
232.97499999999999
 21
159.49999999999989
 31
0.0
  0
LINE
  5
78
  8
1
 62
     7
 10
230.62499999999989
 20
159.49999999999989
 30
0.0
 11
232.97499999999999
 21
159.49999999999989
 31
0.0
  0
LINE
  5
79
  8
1
 62
     7
 10
232.02500000000001
 20
125.40000000000001
 30
0.0
 11
232.02500000000001
 21
137.5
 31
0.0
  0
LINE
  5
7A
  8
1
 62
     7
 10
230.62499999999989
 20
125.40000000000001
 30
0.0
 11
230.62499999999989
 21
137.5
 31
0.0
  0
LINE
  5
7B
  8
1
 62
     7
 10
234.125
 20
159.49999999999989
 30
0.0
 11
252.42500000000001
 21
159.49999999999989
 31
0.0
  0
LINE
  5
7C
  8
1
 62
     7
 10
234.02500000000001
 20
171.5
 30
0.0
 11
258.1749999999999
 21
171.5
 31
0.0
  0
LINE
  5
7D
  8
1
 62
     7
 10
252.42500000000001
 20
165.0
 30
0.0
 11
252.72499999999991
 21
165.0
 31
0.0
  0
LINE
  5
7E
  8
1
 62
     7
 10
252.72499999999991
 20
159.1999999999999
 30
0.0
 11
252.72499999999991
 21
170.1999999999999
 31
0.0
  0
LINE
  5
7F
  8
1
 62
     7
 10
252.42500000000001
 20
159.25
 30
0.0
 11
252.72499999999991
 21
159.25
 31
0.0
  0
LINE
  5
80
  8
1
 62
     7
 10
250.72499999999991
 20
159.1999999999999
 30
0.0
 11
250.72499999999991
 21
157.5
 31
0.0
  0
LINE
  5
81
  8
1
 62
     7
 10
250.72499999999991
 20
159.1999999999999
 30
0.0
 11
252.72499999999991
 21
159.1999999999999
 31
0.0
  0
LINE
  5
82
  8
1
 62
     7
 10
252.72499999999991
 20
164.5
 30
0.0
 11
258.1749999999999
 21
164.5
 31
0.0
  0
LINE
  5
83
  8
1
 62
     7
 10
257.32499999999987
 20
161.15000000000001
 30
0.0
 11
257.32499999999987
 21
157.5
 31
0.0
  0
LINE
  5
84
  8
1
 62
     7
 10
257.02499999999992
 20
164.5
 30
0.0
 11
257.02499999999992
 21
170.1999999999999
 31
0.0
  0
LINE
  5
85
  8
1
 62
     7
 10
258.1749999999999
 20
171.5
 30
0.0
 11
258.1749999999999
 21
157.5
 31
0.0
  0
LINE
  5
86
  8
1
 62
     7
 10
258.1749999999999
 20
125.5
 30
0.0
 11
234.02500000000001
 21
125.5
 31
0.0
  0
LINE
  5
87
  8
1
 62
     7
 10
258.1749999999999
 20
170.1999999999999
 30
0.0
 11
252.42500000000001
 21
170.1999999999999
 31
0.0
  0
LINE
  5
88
  8
1
 62
     7
 10
260.875
 20
125.34999999999999
 30
0.0
 11
258.42500000000001
 21
125.34999999999999
 31
0.0
  0
LINE
  5
89
  8
1
 62
     7
 10
260.875
 20
125.34999999999999
 30
0.0
 11
260.875
 21
126.84999999999989
 31
0.0
  0
LINE
  5
8A
  8
1
 62
     7
 10
258.42500000000001
 20
171.65000000000001
 30
0.0
 11
260.875
 21
171.65000000000001
 31
0.0
  0
LINE
  5
8B
  8
1
 62
     7
 10
260.875
 20
171.65000000000001
 30
0.0
 11
260.875
 21
156.0
 31
0.0
  0
LINE
  5
8C
  8
1
 62
     7
 10
258.42500000000001
 20
171.65000000000001
 30
0.0
 11
258.42500000000001
 21
157.5
 31
0.0
  0
LINE
  5
8D
  8
1
 62
     7
 10
260.875
 20
162.05000000000001
 30
0.0
 11
258.42500000000001
 21
162.05000000000001
 31
0.0
  0
LINE
  5
8E
  8
1
 62
     7
 10
261.17500000000001
 20
126.0
 30
0.0
 11
260.875
 21
126.0
 31
0.0
  0
LINE
  5
8F
  8
1
 62
     7
 10
261.17500000000001
 20
171.0
 30
0.0
 11
261.17500000000001
 21
160.25
 31
0.0
  0
LINE
  5
90
  8
1
 62
     7
 10
260.875
 20
171.0
 30
0.0
 11
261.17500000000001
 21
171.0
 31
0.0
  0
LINE
  5
91
  8
1
 62
     7
 10
261.67500000000001
 20
126.0499999999999
 30
0.0
 11
261.17500000000001
 21
126.0499999999999
 31
0.0
  0
LINE
  5
92
  8
1
 62
     7
 10
261.67500000000001
 20
130.4499999999999
 30
0.0
 11
261.67500000000001
 21
126.0499999999999
 31
0.0
  0
LINE
  5
93
  8
1
 62
     7
 10
261.67500000000001
 20
130.4499999999999
 30
0.0
 11
261.17500000000001
 21
130.4499999999999
 31
0.0
  0
LINE
  5
94
  8
1
 62
     7
 10
258.47500000000002
 20
153.39999999999989
 30
0.0
 11
270.37499999999989
 21
153.39999999999989
 31
0.0
  0
LINE
  5
95
  8
1
 62
     7
 10
258.47500000000002
 20
152.2996710383926
 30
0.0
 11
270.37499999999989
 21
152.2996710383926
 31
0.0
  0
LINE
  5
96
  8
1
 62
     7
 10
258.47500000000002
 20
156.0
 30
0.0
 11
261.17500000000001
 21
156.0
 31
0.0
  0
LINE
  5
97
  8
1
 62
     7
 10
261.17500000000001
 20
161.5
 30
0.0
 11
270.37499999999989
 21
161.5
 31
0.0
  0
LINE
  5
98
  8
1
 62
     7
 10
270.37499999999989
 20
161.5
 30
0.0
 11
270.37499999999989
 21
152.2996710383926
 31
0.0
  0
LINE
  5
99
  8
1
 62
     7
 10
270.37499999999989
 20
135.49999999999989
 30
0.0
 11
261.17500000000001
 21
135.49999999999989
 31
0.0
  0
LINE
  5
9A
  8
1
 62
     3
 10
270.37499999999989
 20
160.25
 30
0.0
 11
266.60449999999992
 21
160.25
 31
0.0
  0
LINE
  5
9B
  8
1
 62
     3
 10
270.37499999999989
 20
157.24999999999989
 30
0.0
 11
266.60449999999992
 21
157.24999999999989
 31
0.0
  0
LINE
  5
9C
  8
1
 62
     7
 10
270.37499999999989
 20
159.9795
 30
0.0
 11
266.875
 21
159.9795
 31
0.0
  0
LINE
  5
9D
  8
1
 62
     7
 10
260.13587985837552
 20
161.5
 30
0.0
 11
260.57499999999999
 21
161.5
 31
0.0
  0
LINE
  5
9E
  8
1
 62
     7
 10
260.875
 20
160.25
 30
0.0
 11
266.60449999999992
 21
160.25
 31
0.0
  0
LINE
  5
9F
  8
1
 62
     7
 10
266.875
 20
159.9795
 30
0.0
 11
266.875
 21
157.52049999999991
 31
0.0
  0
LINE
  5
A0
  8
1
 62
     7
 10
266.60449999999992
 20
157.24999999999989
 30
0.0
 11
260.875
 21
157.24999999999989
 31
0.0
  0
LINE
  5
A1
  8
1
 62
     7
 10
266.60449999999992
 20
160.25
 30
0.0
 11
266.60449999999992
 21
157.24999999999989
 31
0.0
  0
LINE
  5
A2
  8
1
 62
     7
 10
261.95084416452272
 20
160.25
 30
0.0
 11
261.95084416452272
 21
157.24999999999989
 31
0.0
  0
LINE
  5
A3
  8
1
 62
     3
 10
266.875
 20
159.9795
 30
0.0
 11
261.95084416452272
 21
159.9795
 31
0.0
  0
LINE
  5
A4
  8
1
 62
     3
 10
261.95084416452272
 20
159.9795
 30
0.0
 11
261.48232442107542
 21
160.25
 31
0.0
  0
LINE
  5
A5
  8
1
 62
     7
 10
261.17500000000001
 20
157.24999999999989
 30
0.0
 11
261.17500000000001
 21
156.0
 31
0.0
  0
LINE
  5
A6
  8
1
 62
     7
 10
258.47500000000002
 20
156.0
 30
0.0
 11
258.47500000000002
 21
152.2996710383926
 31
0.0
  0
LINE
  5
A7
  8
1
 62
     7
 10
235.52500000000001
 20
171.5
 30
0.0
 11
235.52500000000001
 21
172.0
 31
0.0
  0
LINE
  5
A8
  8
1
 62
     7
 10
236.02500000000001
 20
172.5
 30
0.0
 11
241.02500000000001
 21
172.5
 31
0.0
  0
LINE
  5
A9
  8
1
 62
     7
 10
241.52499999999989
 20
171.5
 30
0.0
 11
241.52499999999989
 21
172.0
 31
0.0
  0
LINE
  5
AA
  8
1
 62
     7
 10
236.02500000000001
 20
172.5
 30
0.0
 11
235.52500000000001
 21
172.0
 31
0.0
  0
LINE
  5
AB
  8
1
 62
     7
 10
241.52499999999989
 20
172.0
 30
0.0
 11
241.02500000000001
 21
172.5
 31
0.0
  0
LINE
  5
AC
  8
1
  6
DASHDOT
 62
     3
 10
351.22500000000002
 20
150.0
 30
0.0
 11
351.22500000000002
 21
147.0
 31
0.0
  0
LINE
  5
AD
  8
1
  6
DASHDOT
 62
     3
 10
349.72500000000002
 20
148.5
 30
0.0
 11
352.72500000000002
 21
148.5
 31
0.0
  0
LINE
  5
AE
  8
1
  6
DASHDOT
 62
     3
 10
368.72589283436702
 20
166.00089283436699
 30
0.0
 11
373.3220869120795
 21
170.5970869120795
 31
0.0
  0
LINE
  5
AF
  8
1
  6
DASHDOT
 62
     3
 10
333.7241071656328
 20
166.00089283436699
 30
0.0
 11
329.12791308792032
 21
170.5970869120795
 31
0.0
  0
LINE
  5
B0
  8
1
  6
DASHDOT
 62
     3
 10
333.7241071656328
 20
130.99910716563289
 30
0.0
 11
329.12791308792032
 21
126.4029130879203
 31
0.0
  0
LINE
  5
B1
  8
1
  6
DASHDOT
 62
     3
 10
368.72589283436702
 20
130.99910716563289
 30
0.0
 11
373.3220869120795
 21
126.4029130879203
 31
0.0
  0
LINE
  5
B2
  8
1
  6
DASHDOT
 62
     3
 10
138.125
 20
148.5
 30
0.0
 11
135.125
 21
148.5
 31
0.0
  0
LINE
  5
B3
  8
1
 62
     7
 10
349.70430936742508
 20
125.40000000000001
 30
0.0
 11
328.72050044990988
 21
125.40000000000001
 31
0.0
  0
LINE
  5
B4
  8
1
 62
     7
 10
328.125
 20
150.0206906325746
 30
0.0
 11
328.125
 21
171.00449955009
 31
0.0
  0
LINE
  5
B5
  8
1
 62
     7
 10
374.32499999999987
 20
146.9793093674254
 30
0.0
 11
374.32499999999987
 21
125.99550044991
 31
0.0
  0
LINE
  5
B6
  8
1
 62
     7
 10
348.22500000000002
 20
171.4547925279231
 30
0.0
 11
348.22500000000002
 21
172.0
 31
0.0
  0
LINE
  5
B7
  8
1
 62
     7
 10
354.22500000000002
 20
171.4547925279231
 30
0.0
 11
354.22500000000002
 21
172.0
 31
0.0
  0
LINE
  5
B8
  8
1
 62
     7
 10
138.125
 20
125.99550044991
 30
0.0
 11
139.52500000000001
 21
125.99550044991
 31
0.0
  0
LINE
  5
B9
  8
1
 62
     7
 10
138.125
 20
171.00449955009
 30
0.0
 11
139.52500000000001
 21
171.00449955009
 31
0.0
  0
LINE
  5
BA
  8
1
 62
     7
 10
239.40000000000001
 20
172.5
 30
0.0
 11
239.40000000000001
 21
187.49999999999989
 31
0.0
  0
LINE
  5
BB
  8
1
 62
     7
 10
237.65000000000001
 20
172.5
 30
0.0
 11
237.65000000000001
 21
187.49999999999989
 31
0.0
  0
LINE
  5
BC
  8
1
 62
     7
 10
270.37499999999989
 20
144.5
 30
0.0
 11
258.47500000000002
 21
144.5
 31
0.0
  0
LINE
  5
BD
  8
1
 62
     7
 10
232.97499999999999
 20
137.0
 30
0.0
 11
234.125
 21
137.0
 31
0.0
  0
LINE
  5
BE
  8
1
 62
     7
 10
232.97499999999999
 20
137.5
 30
0.0
 11
230.62499999999989
 21
137.5
 31
0.0
  0
LINE
  5
BF
  8
1
 62
     7
 10
252.42500000000001
 20
137.5
 30
0.0
 11
234.125
 21
137.5
 31
0.0
  0
LINE
  5
C0
  8
1
 62
     7
 10
257.32499999999987
 20
135.84999999999999
 30
0.0
 11
258.1749999999999
 21
135.0
 31
0.0
  0
LINE
  5
C1
  8
1
 62
     7
 10
258.1749999999999
 20
132.49999999999989
 30
0.0
 11
252.72499999999991
 21
132.49999999999989
 31
0.0
  0
LINE
  5
C2
  8
1
 62
     7
 10
257.02499999999992
 20
126.8
 30
0.0
 11
257.02499999999992
 21
132.49999999999989
 31
0.0
  0
LINE
  5
C3
  8
1
 62
     7
 10
252.42500000000001
 20
137.80000000000001
 30
0.0
 11
252.42500000000001
 21
126.8
 31
0.0
  0
LINE
  5
C4
  8
1
 62
     7
 10
252.72499999999991
 20
132.0
 30
0.0
 11
252.42500000000001
 21
132.0
 31
0.0
  0
LINE
  5
C5
  8
1
 62
     7
 10
252.72499999999991
 20
137.74999999999989
 30
0.0
 11
252.42500000000001
 21
137.74999999999989
 31
0.0
  0
LINE
  5
C6
  8
1
 62
     7
 10
252.72499999999991
 20
137.80000000000001
 30
0.0
 11
250.72499999999991
 21
137.80000000000001
 31
0.0
  0
LINE
  5
C7
  8
1
 62
     7
 10
252.42500000000001
 20
126.8
 30
0.0
 11
258.1749999999999
 21
126.8
 31
0.0
  0
LINE
  5
C8
  8
1
 62
     7
 10
252.72499999999991
 20
137.80000000000001
 30
0.0
 11
252.72499999999991
 21
126.8
 31
0.0
  0
LINE
  5
C9
  8
1
 62
     7
 10
261.17500000000001
 20
141.0
 30
0.0
 11
258.47500000000002
 21
141.0
 31
0.0
  0
LINE
  5
CA
  8
1
 62
     7
 10
261.17500000000001
 20
141.0
 30
0.0
 11
261.17500000000001
 21
129.64999999999989
 31
0.0
  0
LINE
  5
CB
  8
1
 62
     3
 10
268.37499999999989
 20
144.5
 30
0.0
 11
268.37499999999989
 21
135.49999999999989
 31
0.0
  0
LINE
  5
CC
  8
1
 62
     7
 10
267.99599999999992
 20
144.5
 30
0.0
 11
267.99599999999992
 21
135.49999999999989
 31
0.0
  0
LINE
  5
CD
  8
1
 62
     7
 10
264.75400000000002
 20
135.49999999999989
 30
0.0
 11
264.75400000000002
 21
144.5
 31
0.0
  0
LINE
  5
CE
  8
1
 62
     3
 10
264.375
 20
144.5
 30
0.0
 11
264.375
 21
135.49999999999989
 31
0.0
  0
LINE
  5
CF
  8
1
  6
CENTER
 62
     3
 10
266.37499999999989
 20
151.5
 30
0.0
 11
266.37499999999989
 21
134.49999999999989
 31
0.0
  0
LINE
  5
D0
  8
1
  6
DASHDOT
 62
     3
 10
273.375
 20
148.5
 30
0.0
 11
263.375
 21
148.5
 31
0.0
  0
LINE
  5
D1
  8
1
  6
DASHDOT
 62
     3
 10
230.62499999999989
 20
148.5
 30
0.0
 11
227.625
 21
148.5
 31
0.0
  0
LINE
  5
D2
  8
1
 62
     7
 10
168.67500000000001
 20
160.8249999999999
 30
0.0
 11
169.17500000000001
 21
160.8249999999999
 31
0.0
  0
LINE
  5
D3
  8
1
 62
     7
 10
168.67500000000001
 20
156.42500000000001
 30
0.0
 11
169.17500000000001
 21
156.42500000000001
 31
0.0
  0
LINE
  5
D4
  8
1
 62
     7
 10
169.17500000000001
 20
160.8249999999999
 30
0.0
 11
169.17500000000001
 21
156.42500000000001
 31
0.0
  0
LINE
  5
D5
  8
1
 62
     7
 10
258.1749999999999
 20
162.0
 30
0.0
 11
257.32499999999987
 21
161.15000000000001
 31
0.0
  0
LINE
  5
D6
  8
1
 62
     7
 10
250.72499999999991
 20
157.5
 30
0.0
 11
257.32499999999987
 21
157.5
 31
0.0
  0
LINE
  5
D7
  8
1
 62
     7
 10
257.32499999999987
 20
139.5
 30
0.0
 11
250.72499999999991
 21
139.5
 31
0.0
  0
LINE
  5
D8
  8
1
 62
     7
 10
260.875
 20
129.64999999999989
 30
0.0
 11
261.17500000000001
 21
129.64999999999989
 31
0.0
  0
LINE
  5
D9
  8
1
 62
     7
 10
260.875
 20
126.84999999999989
 30
0.0
 11
261.17500000000001
 21
126.84999999999989
 31
0.0
  0
LINE
  5
DA
  8
1
 62
     7
 10
260.875
 20
129.64999999999989
 30
0.0
 11
260.875
 21
141.0
 31
0.0
  0
LINE
  5
DB
  8
1
 62
     7
 10
261.17500000000001
 20
126.84999999999989
 30
0.0
 11
261.17500000000001
 21
126.0
 31
0.0
  0
LINE
  5
DC
  8
1
 62
     7
 10
258.42500000000001
 20
138.25
 30
0.0
 11
260.875
 21
138.25
 31
0.0
  0
LINE
  5
DD
  8
1
 62
     7
 10
230.62499999999989
 20
159.49999999999989
 30
0.0
 11
230.62499999999989
 21
171.59999999999999
 31
0.0
  0
LINE
  5
DE
  8
1
 62
     7
 10
230.62499999999989
 20
137.5
 30
0.0
 11
230.62499999999989
 21
159.49999999999989
 31
0.0
  0
LINE
  5
DF
  8
1
 62
     7
 10
232.02500000000001
 20
137.5
 30
0.0
 11
232.02500000000001
 21
159.49999999999989
 31
0.0
  0
LINE
  5
E0
  8
1
 62
     7
 10
232.02500000000001
 20
159.49999999999989
 30
0.0
 11
232.02500000000001
 21
171.59999999999999
 31
0.0
  0
LINE
  5
E1
  8
1
 62
     7
 10
232.97499999999999
 20
159.49999999999989
 30
0.0
 11
232.97499999999999
 21
137.5
 31
0.0
  0
LINE
  5
E2
  8
1
 62
     7
 10
232.97499999999999
 20
137.5
 30
0.0
 11
232.97499999999999
 21
137.0
 31
0.0
  0
LINE
  5
E3
  8
1
 62
     7
 10
234.125
 20
159.49999999999989
 30
0.0
 11
234.125
 21
137.5
 31
0.0
  0
LINE
  5
E4
  8
1
 62
     7
 10
234.125
 20
137.5
 30
0.0
 11
234.125
 21
137.0
 31
0.0
  0
LINE
  5
E5
  8
1
 62
     7
 10
250.72499999999991
 20
157.5
 30
0.0
 11
250.72499999999991
 21
139.5
 31
0.0
  0
LINE
  5
E6
  8
1
 62
     7
 10
250.72499999999991
 20
139.5
 30
0.0
 11
250.72499999999991
 21
137.80000000000001
 31
0.0
  0
LINE
  5
E7
  8
1
 62
     7
 10
257.32499999999987
 20
157.5
 30
0.0
 11
257.32499999999987
 21
139.5
 31
0.0
  0
LINE
  5
E8
  8
1
 62
     7
 10
257.32499999999987
 20
139.5
 30
0.0
 11
257.32499999999987
 21
135.84999999999999
 31
0.0
  0
LINE
  5
E9
  8
1
 62
     7
 10
258.1749999999999
 20
157.5
 30
0.0
 11
258.1749999999999
 21
139.5
 31
0.0
  0
LINE
  5
EA
  8
1
 62
     7
 10
258.42500000000001
 20
157.5
 30
0.0
 11
258.42500000000001
 21
139.5
 31
0.0
  0
LINE
  5
EB
  8
1
 62
     7
 10
258.1749999999999
 20
139.5
 30
0.0
 11
258.1749999999999
 21
125.5
 31
0.0
  0
LINE
  5
EC
  8
1
 62
     7
 10
258.42500000000001
 20
139.5
 30
0.0
 11
258.42500000000001
 21
125.34999999999999
 31
0.0
  0
LINE
  5
ED
  8
1
 62
     7
 10
258.47500000000002
 20
144.5
 30
0.0
 11
258.47500000000002
 21
141.0
 31
0.0
  0
LINE
  5
EE
  8
1
 62
     7
 10
258.47500000000002
 20
152.2996710383926
 30
0.0
 11
258.47500000000002
 21
144.5
 31
0.0
  0
LINE
  5
EF
  8
1
 62
     7
 10
270.37499999999989
 20
152.2996710383926
 30
0.0
 11
270.37499999999989
 21
144.5
 31
0.0
  0
LINE
  5
F0
  8
1
 62
     7
 10
270.37499999999989
 20
144.5
 30
0.0
 11
270.37499999999989
 21
135.49999999999989
 31
0.0
  0
LINE
  5
F1
  8
1
 62
     3
 10
238.52500000000001
 20
187.49999999999989
 30
0.0
 11
238.52500000000001
 21
190.49999999999989
 31
0.0
  0
LINE
  5
F2
  8
1
 62
     7
 10
145.15000000000001
 20
187.49999999999989
 30
0.0
 11
146.90000000000001
 21
187.49999999999989
 31
0.0
  0
LINE
  5
F3
  8
1
 62
     3
 10
145.69
 20
187.49999999999989
 30
0.0
 11
145.69
 21
190.49999999999989
 31
0.0
  0
LINE
  5
F4
  8
1
 62
     3
 10
146.36000000000001
 20
190.49999999999989
 30
0.0
 11
146.36000000000001
 21
187.49999999999989
 31
0.0
  0
LINE
  5
F5
  8
1
 62
     3
 10
146.02500000000001
 20
187.49999999999989
 30
0.0
 11
146.02500000000001
 21
190.49999999999989
 31
0.0
  0
LINE
  5
F6
  8
1
 62
     7
 10
349.47500000000002
 20
187.49999999999989
 30
0.0
 11
352.97500000000002
 21
187.5
 31
0.0
  0
LINE
  5
F7
  8
1
 62
     3
 10
350.01499999999999
 20
187.49999999999989
 30
0.0
 11
350.01499999999999
 21
190.49999999999989
 31
0.0
  0
LINE
  5
F8
  8
1
 62
     3
 10
350.68500000000012
 20
190.49999999999989
 30
0.0
 11
350.68500000000012
 21
187.49999999999989
 31
0.0
  0
LINE
  5
F9
  8
1
 62
     3
 10
350.35000000000002
 20
187.49999999999989
 30
0.0
 11
350.35000000000002
 21
190.49999999999989
 31
0.0
  0
LINE
  5
FA
  8
1
 62
     3
 10
351.76499999999987
 20
187.49999999999989
 30
0.0
 11
351.76499999999987
 21
190.49999999999989
 31
0.0
  0
LINE
  5
FB
  8
1
 62
     3
 10
352.43499999999977
 20
190.49999999999989
 30
0.0
 11
352.43500000000012
 21
187.49999999999989
 31
0.0
  0
LINE
  5
FC
  8
1
 62
     3
 10
352.10000000000002
 20
187.49999999999989
 30
0.0
 11
352.10000000000002
 21
190.49999999999989
 31
0.0
  0
ARC
  5
FD
  8
1
 62
     7
 10
347.72500000000002
 20
165.13580475961399
 30
0.0
 40
1.0
 50
0.0
 51
101.88115602100579
  0
ARC
  5
FE
  8
1
 62
     7
 10
347.72500000000002
 20
162.0554417117259
 30
0.0
 40
1.0000000000000311
 50
284.47751218592941
 51
0.0
  0
ARC
  5
FF
  8
1
 62
     7
 10
337.73564311812612
 20
144.7533680573826
 30
0.0
 40
1.0000000000000571
 50
299.99999999999812
 51
15.522487814068359
  0
ARC
  5
100
  8
1
 62
     7
 10
335.067970465776
 20
143.2131865334384
 30
0.0
 40
1.000000000000012
 50
198.11884397898791
 51
299.99999999999892
  0
ARC
  5
101
  8
1
 62
     7
 10
364.71435688187381
 20
144.7533680573826
 30
0.0
 40
1.0000000000000251
 50
164.47751218593081
 51
240.0000000000019
  0
ARC
  5
102
  8
1
 62
     7
 10
367.38202953422382
 20
143.2131865334384
 30
0.0
 40
1.000000000000032
 50
240.00000000000111
 51
341.88115602101311
  0
ARC
  5
103
  8
1
 62
     7
 10
341.23564311812612
 20
138.69119023089141
 30
0.0
 40
1.0000000000000491
 50
44.477512185925789
 51
120.0000000000005
  0
ARC
  5
104
  8
1
 62
     7
 10
338.56797046577611
 20
137.15100870694741
 30
0.0
 40
0.9999999999999593
 50
120.00000000000141
 51
221.88115602100771
  0
ARC
  5
105
  8
1
 62
     7
 10
354.72500000000002
 20
165.13580475961399
 30
0.0
 40
1.0000000000000511
 50
78.11884397899091
 51
180.0
  0
ARC
  5
106
  8
1
 62
     7
 10
354.72500000000002
 20
162.0554417117259
 30
0.0
 40
1.0
 50
180.0
 51
255.5224878140705
  0
ARC
  5
107
  8
1
 62
     7
 10
363.88202953422382
 20
137.15100870694741
 30
0.0
 40
1.000000000000087
 50
318.11884397899672
 51
60.000000000001897
  0
ARC
  5
108
  8
1
 62
     7
 10
361.21435688187381
 20
138.69119023089141
 30
0.0
 40
0.9999999999999836
 50
59.999999999999439
 51
135.52248781407201
  0
ARC
  5
109
  8
1
 62
     7
 10
260.13587985837552
 20
160.49999999999989
 30
0.0
 40
1.0
 50
90.0
 51
163.042236699992
  0
ARC
  5
10A
  8
1
 62
     7
 10
260.13587985837552
 20
157.0
 30
0.0
 40
1.0000000000000571
 50
196.95776330000589
 51
270.0
  0
ARC
  5
10B
  8
1
 62
     7
 10
260.57499999999999
 20
161.1999999999999
 30
0.0
 40
0.3000000000000114
 50
0.0
 51
90.0
  0
ARC
  5
10C
  8
1
 62
     7
 10
351.22500000000002
 20
148.5
 30
0.0
 40
4.0000000000000213
 50
108.2099568642829
 51
71.790043135717085
  0
ARC
  5
10D
  8
1
 62
     7
 10
351.22500000000002
 20
148.5
 30
0.0
 40
18.000000000000011
 50
101.8811560210103
 51
198.11884397898919
  0
ARC
  5
10E
  8
1
 62
     7
 10
351.22500000000002
 20
148.5
 30
0.0
 40
18.000000000000011
 50
341.88115602101078
 51
78.118843978989361
  0
ARC
  5
10F
  8
1
 62
     7
 10
351.22500000000002
 20
148.5
 30
0.0
 40
18.0
 50
221.8811560210105
 51
318.11884397898962
  0
ARC
  5
110
  8
1
 62
     7
 10
351.22500000000213
 20
148.4999999999979
 30
0.0
 40
32.249999999999957
 50
44.251878131115816
 51
45.74812186889497
  0
ARC
  5
111
  8
1
 62
     7
 10
351.22500000000213
 20
148.50000000000199
 30
0.0
 40
32.24999999999995
 50
314.251878131105
 51
315.74812186888431
  0
ARC
  5
112
  8
1
 62
     7
 10
351.22500000000002
 20
148.5
 30
0.0
 40
32.250000000000028
 50
224.25187813111049
 51
225.74812186888951
  0
ARC
  5
113
  8
1
 62
     7
 10
351.22500000000002
 20
148.5
 30
0.0
 40
32.250000000000028
 50
134.2518781311104
 51
135.74812186888951
  0
ARC
  5
114
  8
1
 62
     7
 10
265.87499999999989
 20
158.75
 30
0.0
 40
6.9999999999999307
 50
163.0422366999953
 51
196.95776330000439
  0
ARC
  5
115
  8
1
  6
DASHDOT
 62
     3
 10
351.22500000000002
 20
148.5
 30
0.0
 40
27.999999999999972
 50
38.345858098443962
 51
51.654141901556358
  0
ARC
  5
116
  8
1
  6
DASHDOT
 62
     3
 10
351.22500000000002
 20
148.5
 30
0.0
 40
28.00000000000005
 50
128.34585809844381
 51
141.6541419015561
  0
ARC
  5
117
  8
1
  6
DASHDOT
 62
     3
 10
351.22500000000002
 20
148.5
 30
0.0
 40
28.00000000000006
 50
218.3458580984437
 51
231.6541419015561
  0
ARC
  5
118
  8
1
  6
DASHDOT
 62
     3
 10
351.22500000000002
 20
148.5
 30
0.0
 40
27.999999999999879
 50
308.34585809844361
 51
321.65414190155587
  0
CIRCLE
  5
119
  8
1
 62
     7
 10
266.37499999999989
 20
148.5
 30
0.0
 40
1.62099999999998
  0
CIRCLE
  5
11A
  8
1
 62
     7
 10
360.10176038879052
 20
143.375
 30
0.0
 40
1.2294999999998599
  0
CIRCLE
  5
11B
  8
1
 62
     7
 10
342.34823961120941
 20
143.375
 30
0.0
 40
1.2294999999998599
  0
CIRCLE
  5
11C
  8
1
 62
     7
 10
351.22500000000002
 20
158.75
 30
0.0
 40
1.2294999999999721
  0
CIRCLE
  5
11D
  8
1
 62
     3
 10
360.10176038879052
 20
143.375
 30
0.0
 40
1.500000000000056
  0
CIRCLE
  5
11E
  8
1
 62
     3
 10
342.34823961120941
 20
143.375
 30
0.0
 40
1.500000000000056
  0
CIRCLE
  5
11F
  8
1
 62
     3
 10
351.22500000000002
 20
158.75
 30
0.0
 40
1.5
  0
CIRCLE
  5
120
  8
1
 62
     7
 10
368.76201442663478
 20
158.62499999999989
 30
0.0
 40
2.1999999999999309
  0
CIRCLE
  5
121
  8
1
 62
     7
 10
333.6879855733651
 20
158.62499999999989
 30
0.0
 40
2.1999999999999891
  0
CIRCLE
  5
122
  8
1
 62
     7
 10
351.22500000000002
 20
128.24999999999989
 30
0.0
 40
2.1999999999999891
  0
CIRCLE
  5
123
  8
1
 62
     7
 10
351.22500000000002
 20
148.5
 30
0.0
 40
22.5
  0
CIRCLE
  5
124
  8
1
 62
     7
 10
371.02398987322329
 20
168.29898987322321
 30
0.0
 40
2.25
  0
CIRCLE
  5
125
  8
1
 62
     7
 10
371.02398987322329
 20
128.70101012677671
 30
0.0
 40
2.25
  0
CIRCLE
  5
126
  8
1
 62
     7
 10
331.42601012677659
 20
128.70101012677671
 30
0.0
 40
2.25
  0
CIRCLE
  5
127
  8
1
 62
     7
 10
331.42601012677659
 20
168.29898987322321
 30
0.0
 40
2.25
  0
CIRCLE
  5
128
  8
1
 62
     7
 10
351.22500000000002
 20
148.5
 30
0.0
 40
23.14999999999986
  0
CIRCLE
  5
129
  8
1
 62
     3
 10
266.37499999999989
 20
148.5
 30
0.0
 40
2.0
  0
CIRCLE
  5
12A
  8
1
 62
     7
 10
351.22500000000002
 20
148.5
 30
0.0
 40
13.0
  0
TEXT
  5
12C
  8
1
 62
     7
 10
146.72897957986191
 20
213.02629374337201
 30
0.0
 40
3.5
  1
AMB 10
 41
0.9
  7
SIMPLEX
  0
ENDSEC
  0
EOF
