  0
SECTION
  2
HEADER
  9
$ACADVER
  1
AC1009
  9
$INSBASE
 10
0.0
 20
0.0
 30
0.0
  9
$EXTMIN
 10
140.0749999999999
 20
121.9948165226767
 30
0.0
  9
$EXTMAX
 10
372.48018347732301
 20
222.05428419936399
 30
0.0
  9
$LIMMIN
 10
140.0749999999999
 20
122.0
  9
$LIMMAX
 10
372.4749999999998
 20
222.05428419936399
  9
$ORTHOMODE
 70
     0
  9
$REGENMODE
 70
     1
  9
$FILLMODE
 70
     1
  9
$QTEXTMODE
 70
     0
  9
$MIRRTEXT
 70
     1
  9
$DRAGMODE
 70
     2
  9
$LTSCALE
 40
1.0
  9
$OSMODE
 70
    37
  9
$ATTMODE
 70
     1
  9
$TEXTSIZE
 40
3.5
  9
$TRACEWID
 40
0.5
  9
$TEXTSTYLE
  7
STANDARD
  9
$CLAYER
  8
0
  9
$CELTYPE
  6
BYLAYER
  9
$CECOLOR
 62
   256
  9
$DIMSCALE
 40
1.0
  9
$DIMASZ
 40
0.18
  9
$DIMEXO
 40
0.0625
  9
$DIMDLI
 40
0.38
  9
$DIMRND
 40
0.0
  9
$DIMDLE
 40
0.0
  9
$DIMEXE
 40
0.18
  9
$DIMTP
 40
0.0
  9
$DIMTM
 40
0.0
  9
$DIMTXT
 40
0.18
  9
$DIMCEN
 40
0.09
  9
$DIMTSZ
 40
0.0
  9
$DIMTOL
 70
     0
  9
$DIMLIM
 70
     0
  9
$DIMTIH
 70
     1
  9
$DIMTOH
 70
     1
  9
$DIMSE1
 70
     0
  9
$DIMSE2
 70
     0
  9
$DIMTAD
 70
     0
  9
$DIMZIN
 70
     0
  9
$DIMBLK
  1

  9
$DIMASO
 70
     1
  9
$DIMSHO
 70
     1
  9
$DIMPOST
  1

  9
$DIMAPOST
  1

  9
$DIMALT
 70
     0
  9
$DIMALTD
 70
     2
  9
$DIMALTF
 40
25.399999999999999
  9
$DIMLFAC
 40
1.0
  9
$DIMTOFL
 70
     0
  9
$DIMTVP
 40
0.0
  9
$DIMTIX
 70
     0
  9
$DIMSOXD
 70
     0
  9
$DIMSAH
 70
     0
  9
$DIMBLK1
  1

  9
$DIMBLK2
  1

  9
$DIMSTYLE
  2
STANDARD
  9
$DIMCLRD
 70
     0
  9
$DIMCLRE
 70
     0
  9
$DIMCLRT
 70
     0
  9
$DIMTFAC
 40
1.0
  9
$DIMGAP
 40
0.09
  9
$LUNITS
 70
     2
  9
$LUPREC
 70
     4
  9
$SKETCHINC
 40
0.1
  9
$FILLETRAD
 40
2.0
  9
$AUNITS
 70
     0
  9
$AUPREC
 70
     0
  9
$MENU
  1
ACAD
  9
$ELEVATION
 40
0.0
  9
$PELEVATION
 40
0.0
  9
$THICKNESS
 40
0.0
  9
$LIMCHECK
 70
     0
  9
$BLIPMODE
 70
     0
  9
$CHAMFERA
 40
0.0
  9
$CHAMFERB
 40
0.0
  9
$SKPOLY
 70
     0
  9
$TDCREATE
 40
2452093.8982777782
  9
$TDUPDATE
 40
2452093.8987240731
  9
$TDINDWG
 40
0.0004494213
  9
$TDUSRTIMER
 40
0.0004494213
  9
$USRTIMER
 70
     1
  9
$ANGBASE
 50
0.0
  9
$ANGDIR
 70
     0
  9
$PDMODE
 70
     0
  9
$PDSIZE
 40
0.0
  9
$PLINEWID
 40
0.0
  9
$COORDS
 70
     1
  9
$SPLFRAME
 70
     0
  9
$SPLINETYPE
 70
     6
  9
$SPLINESEGS
 70
     8
  9
$ATTDIA
 70
     0
  9
$ATTREQ
 70
     1
  9
$HANDLING
 70
 10241
  9
$HANDSEED
  5
12E
  9
$SURFTAB1
 70
     6
  9
$SURFTAB2
 70
     6
  9
$SURFTYPE
 70
     6
  9
$SURFU
 70
     6
  9
$SURFV
 70
     6
  9
$UCSNAME
  2

  9
$UCSORG
 10
0.0
 20
0.0
 30
0.0
  9
$UCSXDIR
 10
1.0
 20
0.0
 30
0.0
  9
$UCSYDIR
 10
0.0
 20
1.0
 30
0.0
  9
$PUCSNAME
  2

  9
$PUCSORG
 10
0.0
 20
0.0
 30
0.0
  9
$PUCSXDIR
 10
1.0
 20
0.0
 30
0.0
  9
$PUCSYDIR
 10
0.0
 20
1.0
 30
0.0
  9
$USERI1
 70
     0
  9
$USERI2
 70
     0
  9
$USERI3
 70
     0
  9
$USERI4
 70
     0
  9
$USERI5
 70
     0
  9
$USERR1
 40
0.0
  9
$USERR2
 40
0.0
  9
$USERR3
 40
0.0
  9
$USERR4
 40
0.0
  9
$USERR5
 40
0.0
  9
$WORLDVIEW
 70
     1
  9
$SHADEDGE
 70
     3
  9
$SHADEDIF
 70
    70
  9
$TILEMODE
 70
     1
  9
$MAXACTVP
 70
    64
  9
$PLIMCHECK
 70
     0
  9
$PEXTMIN
 10
1.0000000000000000E+020
 20
1.0000000000000000E+020
 30
1.0000000000000000E+020
  9
$PEXTMAX
 10
-1.0000000000000000E+020
 20
-1.0000000000000000E+020
 30
-1.0000000000000000E+020
  9
$PLIMMIN
 10
0.0
 20
0.0
  9
$PLIMMAX
 10
12.0
 20
9.0
  9
$UNITMODE
 70
     0
  9
$VISRETAIN
 70
     1
  9
$PLINEGEN
 70
     0
  9
$PSLTSCALE
 70
     1
  0
ENDSEC
  0
SECTION
  2
TABLES
  0
TABLE
  2
VPORT
 70
     2
  0
VPORT
  2
*ACTIVE
 70
     0
 10
0.0
 20
0.0
 11
1.0
 21
1.0
 12
161.2138223409226
 22
215.4714368298026
 13
0.0
 23
0.0
 14
1.0
 24
1.0
 15
0.0
 25
0.0
 16
0.0
 26
0.0
 36
1.0
 17
0.0
 27
0.0
 37
0.0
 40
9.0000000237953373
 41
2.5693779904306222
 42
50.0
 43
0.0
 44
0.0
 50
0.0
 51
0.0
 71
     0
 72
   100
 73
     1
 74
     1
 75
     0
 76
     0
 77
     0
 78
     0
  0
ENDTAB
  0
TABLE
  2
LTYPE
 70
     9
  0
LTYPE
  2
CONTINUOUS
 70
     0
  3
Solid line
 72
    65
 73
     0
 40
0.0
  0
LTYPE
  2
BORDER
 70
     0
  3
__ __ . __ __ .
 72
    65
 73
     6
 40
10.70263157894736
 49
3.057894736842103
 49
-1.5289473684210511
 49
3.057894736842103
 49
-1.5289473684210511
 49
0.0
 49
-1.5289473684210511
  0
LTYPE
  2
CENTER
 70
     0
  3
____ _ ____ _
 72
    65
 73
     4
 40
12.23157894736841
 49
7.6447368421052611
 49
-1.5289473684210511
 49
1.5289473684210511
 49
-1.5289473684210511
  0
LTYPE
  2
DASHDOT
 70
     0
  3
__ . __ . __ .
 72
    65
 73
     4
 40
6.1157894736842078
 49
3.057894736842103
 49
-1.5289473684210511
 49
0.0
 49
-1.5289473684210511
  0
LTYPE
  2
DASHED
 70
     0
  3
__ __ __ __ __
 72
    65
 73
     2
 40
4.5868421052631563
 49
3.057894736842103
 49
-1.5289473684210511
  0
LTYPE
  2
DIVIDE
 70
     0
  3
__ . . __ . . 
 72
    65
 73
     6
 40
7.6447368421052611
 49
3.057894736842103
 49
-1.5289473684210511
 49
0.0
 49
-1.5289473684210511
 49
0.0
 49
-1.5289473684210511
  0
LTYPE
  2
DOT
 70
     0
  3
..............
 72
    65
 73
     4
 40
3.057894736842103
 49
0.0
 49
-1.5289473684210511
 49
0.0
 49
-1.5289473684210511
  0
LTYPE
  2
HIDDEN
 70
     0
  3
_ _ _ _ _ _ _
 72
    65
 73
     2
 40
2.2934210526315781
 49
1.5289473684210511
 49
-0.7644736842105261
  0
LTYPE
  2
PHANTOM
 70
     0
  3
_____ _ _ _____ _ _ 
 72
    65
 73
     6
 40
15.28947368421052
 49
7.6447368421052611
 49
-1.5289473684210511
 49
1.5289473684210511
 49
-1.5289473684210511
 49
1.5289473684210511
 49
-1.5289473684210511
  0
ENDTAB
  0
TABLE
  2
LAYER
 70
     2
  0
LAYER
  2
0
 70
     0
 62
     7
  6
CONTINUOUS
  0
LAYER
  2
1
 70
     0
 62
     7
  6
CONTINUOUS
  0
ENDTAB
  0
TABLE
  2
STYLE
 70
     4
  0
STYLE
  2
STANDARD
 70
     0
 40
0.0
 41
1.0
 50
0.0
 71
     0
 42
3.5
  3
txt
  4

  0
STYLE
  2
SIMPLEX
 70
     0
 40
0.0
 41
1.0
 50
0.0
 71
     0
 42
3.5
  3
simplex
  4

  0
STYLE
  2
COMPLEX
 70
     0
 40
0.0
 41
1.0
 50
0.0
 71
     0
 42
3.5
  3
complex
  4

  0
STYLE
  2
ITALIC
 70
     0
 40
0.0
 41
1.0
 50
0.0
 71
     0
 42
3.5
  3
italic
  4

  0
ENDTAB
  0
TABLE
  2
VIEW
 70
     0
  0
ENDTAB
  0
TABLE
  2
UCS
 70
     0
  0
ENDTAB
  0
TABLE
  2
APPID
 70
     1
  0
APPID
  2
ACAD
 70
     0
  0
ENDTAB
  0
TABLE
  2
DIMSTYLE
 70
     1
  0
DIMSTYLE
  2
STANDARD
 70
     0
  3

  4

  5

  6

  7

 40
1.0
 41
0.18
 42
0.0625
 43
0.38
 44
0.18
 45
0.0
 46
0.0
 47
0.0
 48
0.0
140
0.18
141
0.09
142
0.0
143
25.399999999999999
144
1.0
145
0.0
146
1.0
147
0.09
 71
     0
 72
     0
 73
     1
 74
     1
 75
     0
 76
     0
 77
     0
 78
     0
170
     0
171
     2
172
     0
173
     0
174
     0
175
     0
176
     0
177
     0
178
     0
  0
ENDTAB
  0
ENDSEC
  0
SECTION
  2
BLOCKS
  0
BLOCK
  8
0
  2
$MODEL_SPACE
 70
     0
 10
0.0
 20
0.0
 30
0.0
  3
$MODEL_SPACE
  1

  0
ENDBLK
  5
20
  8
0
  0
BLOCK
 67
     1
  8
0
  2
$PAPER_SPACE
 70
     0
 10
0.0
 20
0.0
 30
0.0
  3
$PAPER_SPACE
  1

  0
ENDBLK
  5
1C
 67
     1
  8
0
  0
ENDSEC
  0
SECTION
  2
ENTITIES
  0
LINE
  5
33
  8
1
 62
     7
 10
262.92500000000001
 20
136.49999999999989
 30
0.0
 11
265.92500000000001
 21
136.49999999999989
 31
0.0
  0
LINE
  5
34
  8
1
 62
     7
 10
276.9249999999999
 20
153.08257569495581
 30
0.0
 11
276.9249999999999
 21
143.5
 31
0.0
  0
LINE
  5
35
  8
1
 62
     7
 10
276.9249999999999
 20
143.5
 30
0.0
 11
276.9249999999999
 21
133.0
 31
0.0
  0
LINE
  5
36
  8
1
 62
     7
 10
262.67500000000001
 20
137.5
 30
0.0
 11
262.67500000000001
 21
123.0
 31
0.0
  0
LINE
  5
37
  8
1
 62
     7
 10
262.92500000000001
 20
137.5
 30
0.0
 11
262.92500000000001
 21
143.5
 31
0.0
  0
LINE
  5
38
  8
1
 62
     7
 10
262.92500000000001
 20
159.49999999999989
 30
0.0
 11
262.92500000000001
 21
174.15000000000001
 31
0.0
  0
LINE
  5
39
  8
1
 62
     7
 10
262.67500000000001
 20
159.49999999999989
 30
0.0
 11
262.67500000000001
 21
137.5
 31
0.0
  0
LINE
  5
3A
  8
1
 62
     7
 10
262.92500000000001
 20
143.5
 30
0.0
 11
262.92500000000001
 21
153.08257569495581
 31
0.0
  0
LINE
  5
3B
  8
1
 62
     7
 10
262.92500000000001
 20
153.08257569495581
 30
0.0
 11
262.92500000000001
 21
159.49999999999989
 31
0.0
  0
LINE
  5
3C
  8
1
 62
     7
 10
261.82499999999987
 20
159.49999999999989
 30
0.0
 11
261.82499999999987
 21
137.5
 31
0.0
  0
LINE
  5
3D
  8
1
 62
     7
 10
261.82499999999987
 20
137.5
 30
0.0
 11
261.82499999999987
 21
133.1999999999999
 31
0.0
  0
LINE
  5
3E
  8
1
 62
     7
 10
254.32499999999999
 20
137.5
 30
0.0
 11
254.32499999999999
 21
136.05000000000001
 31
0.0
  0
LINE
  5
3F
  8
1
 62
     7
 10
254.32499999999999
 20
159.49999999999989
 30
0.0
 11
254.32499999999999
 21
137.5
 31
0.0
  0
LINE
  5
40
  8
1
 62
     7
 10
236.8249999999999
 20
161.5
 30
0.0
 11
236.8249999999999
 21
135.49999999999989
 31
0.0
  0
LINE
  5
41
  8
1
 62
     7
 10
235.47499999999999
 20
161.5
 30
0.0
 11
235.47499999999999
 21
135.49999999999989
 31
0.0
  0
LINE
  5
42
  8
1
 62
     7
 10
236.8249999999999
 20
135.49999999999989
 30
0.0
 11
236.8249999999999
 21
134.89999999999989
 31
0.0
  0
LINE
  5
43
  8
1
 62
     7
 10
235.47499999999999
 20
135.49999999999989
 30
0.0
 11
235.47499999999999
 21
134.89999999999989
 31
0.0
  0
LINE
  5
44
  8
1
 62
     7
 10
234.02500000000001
 20
161.5
 30
0.0
 11
234.02500000000001
 21
135.49999999999989
 31
0.0
  0
LINE
  5
45
  8
1
 62
     7
 10
234.02500000000001
 20
135.49999999999989
 30
0.0
 11
234.02500000000001
 21
122.0
 31
0.0
  0
LINE
  5
46
  8
1
 62
     7
 10
232.62499999999989
 20
135.49999999999989
 30
0.0
 11
232.62499999999989
 21
122.0
 31
0.0
  0
LINE
  5
47
  8
1
 62
     7
 10
232.62499999999989
 20
161.5
 30
0.0
 11
232.62499999999989
 21
135.49999999999989
 31
0.0
  0
LINE
  5
48
  8
1
 62
     7
 10
273.54599999999988
 20
162.5
 30
0.0
 11
273.92500000000001
 21
162.12100000000001
 31
0.0
  0
LINE
  5
49
  8
1
 62
     3
 10
266.80778322847277
 20
158.49999999999989
 30
0.0
 11
267.46423048454142
 21
158.87899999999991
 31
0.0
  0
LINE
  5
4A
  8
1
 62
     3
 10
266.80778322847277
 20
162.5
 30
0.0
 11
267.46423048454142
 21
162.12100000000001
 31
0.0
  0
LINE
  5
4B
  8
1
 62
     3
 10
269.92500000000001
 20
143.5
 30
0.0
 11
269.92500000000001
 21
133.0
 31
0.0
  0
LINE
  5
4C
  8
1
 62
     7
 10
270.30399999999997
 20
143.5
 30
0.0
 11
270.30399999999997
 21
133.0
 31
0.0
  0
LINE
  5
4D
  8
1
 62
     7
 10
273.54599999999988
 20
143.5
 30
0.0
 11
273.54599999999988
 21
133.0
 31
0.0
  0
LINE
  5
4E
  8
1
 62
     3
 10
273.92500000000001
 20
143.5
 30
0.0
 11
273.92500000000001
 21
133.0
 31
0.0
  0
LINE
  5
4F
  8
1
 62
     7
 10
265.92500000000001
 20
140.0
 30
0.0
 11
265.92500000000001
 21
127.75
 31
0.0
  0
LINE
  5
50
  8
1
 62
     7
 10
262.92500000000001
 20
140.0
 30
0.0
 11
266.22500000000002
 21
140.0
 31
0.0
  0
LINE
  5
51
  8
1
 62
     7
 10
276.9249999999999
 20
143.5
 30
0.0
 11
262.92500000000001
 21
143.5
 31
0.0
  0
LINE
  5
52
  8
1
  6
DASHDOT
 62
     3
 10
268.92500000000001
 20
148.5
 30
0.0
 11
279.92500000000001
 21
148.5
 31
0.0
  0
LINE
  5
53
  8
1
  6
CENTER
 62
     3
 10
271.92500000000001
 20
151.5
 30
0.0
 11
271.92500000000001
 21
132.0
 31
0.0
  0
LINE
  5
54
  8
1
 62
     7
 10
256.22500000000002
 20
124.55
 30
0.0
 11
256.22500000000002
 21
136.05000000000001
 31
0.0
  0
LINE
  5
55
  8
1
 62
     7
 10
256.22500000000002
 20
124.55
 30
0.0
 11
262.67500000000001
 21
124.55
 31
0.0
  0
LINE
  5
56
  8
1
 62
     7
 10
256.625
 20
124.55
 30
0.0
 11
256.625
 21
136.05000000000001
 31
0.0
  0
LINE
  5
57
  8
1
 62
     7
 10
254.32499999999999
 20
136.05000000000001
 30
0.0
 11
256.625
 21
136.05000000000001
 31
0.0
  0
LINE
  5
58
  8
1
 62
     7
 10
256.625
 20
135.74999999999989
 30
0.0
 11
256.22500000000002
 21
135.74999999999989
 31
0.0
  0
LINE
  5
59
  8
1
 62
     7
 10
256.625
 20
129.49999999999989
 30
0.0
 11
256.22500000000002
 21
129.49999999999989
 31
0.0
  0
LINE
  5
5A
  8
1
 62
     7
 10
262.67500000000001
 20
132.34999999999991
 30
0.0
 11
261.82499999999987
 21
133.1999999999999
 31
0.0
  0
LINE
  5
5B
  8
1
 62
     7
 10
261.22500000000002
 20
130.49999999999989
 30
0.0
 11
261.22500000000002
 21
124.55
 31
0.0
  0
LINE
  5
5C
  8
1
 62
     7
 10
256.625
 20
130.49999999999989
 30
0.0
 11
262.67500000000001
 21
130.49999999999989
 31
0.0
  0
LINE
  5
5D
  8
1
 62
     7
 10
261.82499999999987
 20
137.5
 30
0.0
 11
254.32499999999999
 21
137.5
 31
0.0
  0
LINE
  5
5E
  8
1
 62
     7
 10
256.22500000000002
 20
135.49999999999989
 30
0.0
 11
236.8249999999999
 21
135.49999999999989
 31
0.0
  0
LINE
  5
5F
  8
1
 62
     7
 10
236.8249999999999
 20
134.89999999999989
 30
0.0
 11
235.47499999999999
 21
134.89999999999989
 31
0.0
  0
LINE
  5
60
  8
1
 62
     7
 10
235.47499999999999
 20
135.49999999999989
 30
0.0
 11
232.62499999999989
 21
135.49999999999989
 31
0.0
  0
LINE
  5
61
  8
1
 62
     7
 10
239.65000000000001
 20
175.0
 30
0.0
 11
239.65000000000001
 21
195.0
 31
0.0
  0
LINE
  5
62
  8
1
 62
     7
 10
241.40000000000001
 20
175.0
 30
0.0
 11
241.40000000000001
 21
195.0
 31
0.0
  0
LINE
  5
63
  8
1
  6
DASHDOT
 62
     3
 10
187.375
 20
148.5
 30
0.0
 11
190.375
 21
148.5
 31
0.0
  0
LINE
  5
64
  8
1
 62
     7
 10
143.0749999999999
 20
122.0
 30
0.0
 11
143.0749999999999
 21
175.0
 31
0.0
  0
LINE
  5
65
  8
1
 62
     7
 10
151.84999999999991
 20
175.0
 30
0.0
 11
151.84999999999991
 21
195.0
 31
0.0
  0
LINE
  5
66
  8
1
 62
     7
 10
173.125
 20
174.0
 30
0.0
 11
145.47499999999991
 21
174.0
 31
0.0
  0
LINE
  5
67
  8
1
 62
     7
 10
173.125
 20
123.0
 30
0.0
 11
145.47499999999991
 21
123.0
 31
0.0
  0
LINE
  5
68
  8
1
 62
     7
 10
173.125
 20
123.0
 30
0.0
 11
173.125
 21
174.0
 31
0.0
  0
LINE
  5
69
  8
1
 62
     7
 10
145.47499999999991
 20
123.0
 30
0.0
 11
145.47499999999991
 21
174.0
 31
0.0
  0
LINE
  5
6A
  8
1
 62
     7
 10
150.09999999999991
 20
195.0
 30
0.0
 11
151.84999999999991
 21
195.0
 31
0.0
  0
LINE
  5
6B
  8
1
 62
     7
 10
150.09999999999991
 20
175.0
 30
0.0
 11
150.09999999999991
 21
195.0
 31
0.0
  0
LINE
  5
6C
  8
1
 62
     7
 10
148.47499999999999
 20
175.0
 30
0.0
 11
153.47499999999999
 21
175.0
 31
0.0
  0
LINE
  5
6D
  8
1
 62
     7
 10
153.97499999999991
 20
174.5
 30
0.0
 11
153.47499999999999
 21
175.0
 31
0.0
  0
LINE
  5
6E
  8
1
 62
     7
 10
153.97499999999991
 20
174.0
 30
0.0
 11
153.97499999999991
 21
174.5
 31
0.0
  0
LINE
  5
6F
  8
1
 62
     7
 10
147.97499999999991
 20
174.5
 30
0.0
 11
147.97499999999991
 21
174.0
 31
0.0
  0
LINE
  5
70
  8
1
 62
     7
 10
148.47499999999999
 20
175.0
 30
0.0
 11
147.97499999999991
 21
174.5
 31
0.0
  0
LINE
  5
71
  8
1
 62
     7
 10
344.2249999999998
 20
195.0
 30
0.0
 11
347.72500000000002
 21
195.0
 31
0.0
  0
LINE
  5
72
  8
1
 62
     7
 10
344.2249999999998
 20
175.0
 30
0.0
 11
344.2249999999998
 21
195.0
 31
0.0
  0
LINE
  5
73
  8
1
 62
     7
 10
345.9749999999998
 20
175.0
 30
0.0
 11
345.9749999999998
 21
195.0
 31
0.0
  0
LINE
  5
74
  8
1
 62
     7
 10
347.7249999999998
 20
175.0
 30
0.0
 11
347.72500000000002
 21
195.0
 31
0.0
  0
LINE
  5
75
  8
1
 62
     3
 10
346.51499999999982
 20
195.0
 30
0.0
 11
346.51499999999982
 21
198.0
 31
0.0
  0
LINE
  5
76
  8
1
 62
     3
 10
347.18499999999977
 20
198.0
 30
0.0
 11
347.18499999999977
 21
195.0
 31
0.0
  0
LINE
  5
77
  8
1
 62
     3
 10
344.76499999999982
 20
195.0
 30
0.0
 11
344.76499999999982
 21
198.0
 31
0.0
  0
LINE
  5
78
  8
1
 62
     3
 10
345.43500000000012
 20
198.0
 30
0.0
 11
345.43499999999977
 21
195.0
 31
0.0
  0
LINE
  5
79
  8
1
 62
     3
 10
150.63999999999999
 20
195.0
 30
0.0
 11
150.63999999999999
 21
198.0
 31
0.0
  0
LINE
  5
7A
  8
1
 62
     3
 10
151.31
 20
198.0
 30
0.0
 11
151.31
 21
195.0
 31
0.0
  0
LINE
  5
7B
  8
1
 62
     7
 10
348.9749999999998
 20
174.5
 30
0.0
 11
342.9749999999998
 21
174.5
 31
0.0
  0
LINE
  5
7C
  8
1
 62
     7
 10
342.9749999999998
 20
174.5
 30
0.0
 11
343.47499999999991
 21
175.0
 31
0.0
  0
LINE
  5
7D
  8
1
 62
     7
 10
342.9749999999998
 20
174.0
 30
0.0
 11
342.9749999999998
 21
174.5
 31
0.0
  0
LINE
  5
7E
  8
1
 62
     7
 10
348.9749999999998
 20
174.5
 30
0.0
 11
348.9749999999998
 21
174.0
 31
0.0
  0
LINE
  5
7F
  8
1
 62
     7
 10
348.4749999999998
 20
175.0
 30
0.0
 11
348.9749999999998
 21
174.5
 31
0.0
  0
LINE
  5
80
  8
1
  6
DASHDOT
 62
     3
 10
140.0749999999999
 20
148.5
 30
0.0
 11
143.0749999999999
 21
148.5
 31
0.0
  0
LINE
  5
81
  8
1
 62
     7
 10
144.47499999999991
 20
124.0
 30
0.0
 11
145.47499999999991
 21
123.0
 31
0.0
  0
LINE
  5
82
  8
1
 62
     7
 10
145.47499999999991
 20
174.0
 30
0.0
 11
144.47499999999991
 21
173.0
 31
0.0
  0
LINE
  5
83
  8
1
 62
     7
 10
144.47499999999991
 20
175.0
 30
0.0
 11
144.47499999999991
 21
122.0
 31
0.0
  0
LINE
  5
84
  8
1
 62
     7
 10
144.47499999999991
 20
175.0
 30
0.0
 11
143.0749999999999
 21
175.0
 31
0.0
  0
LINE
  5
85
  8
1
 62
     7
 10
143.0749999999999
 20
122.0
 30
0.0
 11
144.47499999999991
 21
122.0
 31
0.0
  0
LINE
  5
86
  8
1
 62
     7
 10
371.4369814625648
 20
175.0
 30
0.0
 11
320.51301853743507
 21
175.0
 31
0.0
  0
LINE
  5
87
  8
1
 62
     7
 10
319.47499999999991
 20
173.96198146256481
 30
0.0
 11
319.47499999999991
 21
123.03801853743509
 31
0.0
  0
LINE
  5
88
  8
1
 62
     7
 10
320.51301853743507
 20
122.0
 30
0.0
 11
371.4369814625648
 21
122.0
 31
0.0
  0
LINE
  5
89
  8
1
 62
     7
 10
372.4749999999998
 20
123.03801853743509
 30
0.0
 11
372.4749999999998
 21
173.96198146256481
 31
0.0
  0
LINE
  5
8A
  8
1
 62
     7
 10
177.47499999999999
 20
128.22499999999991
 30
0.0
 11
177.47499999999999
 21
123.97499999999989
 31
0.0
  0
LINE
  5
8B
  8
1
 62
     7
 10
177.47499999999999
 20
128.22499999999991
 30
0.0
 11
176.67500000000001
 21
128.22499999999991
 31
0.0
  0
LINE
  5
8C
  8
1
 62
     7
 10
177.47499999999999
 20
123.97499999999989
 30
0.0
 11
176.67500000000001
 21
123.97499999999989
 31
0.0
  0
LINE
  5
8D
  8
1
 62
     7
 10
173.375
 20
174.15000000000001
 30
0.0
 11
176.37499999999989
 21
174.15000000000001
 31
0.0
  0
LINE
  5
8E
  8
1
 62
     7
 10
176.37499999999989
 20
122.84999999999989
 30
0.0
 11
173.375
 21
122.84999999999989
 31
0.0
  0
LINE
  5
8F
  8
1
 62
     7
 10
173.375
 20
122.84999999999989
 30
0.0
 11
173.375
 21
174.15000000000001
 31
0.0
  0
LINE
  5
90
  8
1
 62
     7
 10
176.37499999999989
 20
173.5
 30
0.0
 11
176.67500000000001
 21
173.5
 31
0.0
  0
LINE
  5
91
  8
1
 62
     7
 10
176.67500000000001
 20
123.5
 30
0.0
 11
176.37499999999989
 21
123.5
 31
0.0
  0
LINE
  5
92
  8
1
 62
     7
 10
176.67500000000001
 20
164.0
 30
0.0
 11
187.375
 21
164.0
 31
0.0
  0
LINE
  5
93
  8
1
 62
     7
 10
187.375
 20
164.0
 30
0.0
 11
187.375
 21
133.0
 31
0.0
  0
LINE
  5
94
  8
1
 62
     7
 10
187.375
 20
133.0
 30
0.0
 11
176.67500000000001
 21
133.0
 31
0.0
  0
LINE
  5
95
  8
1
 62
     7
 10
343.9749999999998
 20
153.08257569495581
 30
0.0
 11
343.9749999999998
 21
155.0
 31
0.0
  0
LINE
  5
96
  8
1
 62
     7
 10
343.9749999999998
 20
155.0
 30
0.0
 11
347.9749999999998
 21
155.0
 31
0.0
  0
LINE
  5
97
  8
1
 62
     7
 10
347.9749999999998
 20
155.0
 30
0.0
 11
347.9749999999998
 21
153.08257569495581
 31
0.0
  0
LINE
  5
98
  8
1
 62
     7
 10
176.37499999999989
 20
174.15000000000001
 30
0.0
 11
176.37499999999989
 21
122.84999999999989
 31
0.0
  0
LINE
  5
99
  8
1
 62
     7
 10
176.67500000000001
 20
173.5
 30
0.0
 11
176.67500000000001
 21
123.5
 31
0.0
  0
LINE
  5
9A
  8
1
 62
     7
 10
348.9749999999998
 20
164.50781059358209
 30
0.0
 11
348.9749999999998
 21
166.8695400051281
 31
0.0
  0
LINE
  5
9B
  8
1
 62
     7
 10
342.9749999999998
 20
166.8695400051281
 30
0.0
 11
342.9749999999998
 21
164.50781059358209
 31
0.0
  0
LINE
  5
9C
  8
1
 62
     7
 10
328.5665116997244
 20
141.91330620878929
 30
0.0
 11
330.6118293669881
 21
143.09417091456231
 31
0.0
  0
LINE
  5
9D
  8
1
 62
     7
 10
333.6118293669881
 20
137.89801849185551
 30
0.0
 11
331.56651169972429
 21
136.71715378608269
 31
0.0
  0
LINE
  5
9E
  8
1
 62
     7
 10
361.3381706330116
 20
143.09417091456231
 30
0.0
 11
363.3834883002753
 21
141.91330620878929
 31
0.0
  0
LINE
  5
9F
  8
1
 62
     7
 10
358.33817063301149
 20
137.89801849185551
 30
0.0
 11
360.3834883002753
 21
136.71715378608269
 31
0.0
  0
LINE
  5
A0
  8
1
 62
     7
 10
235.02499999999989
 20
174.0
 30
0.0
 11
262.67500000000001
 21
174.0
 31
0.0
  0
LINE
  5
A1
  8
1
 62
     7
 10
266.22500000000002
 20
157.0
 30
0.0
 11
262.92500000000001
 21
157.0
 31
0.0
  0
LINE
  5
A2
  8
1
 62
     7
 10
266.22500000000002
 20
123.5
 30
0.0
 11
266.22500000000002
 21
124.45
 31
0.0
  0
LINE
  5
A3
  8
1
 62
     7
 10
266.22500000000002
 20
173.5
 30
0.0
 11
266.22500000000002
 21
162.5
 31
0.0
  0
LINE
  5
A4
  8
1
 62
     7
 10
265.92500000000001
 20
174.15000000000001
 30
0.0
 11
265.92500000000001
 21
157.0
 31
0.0
  0
LINE
  5
A5
  8
1
 62
     3
 10
273.54599999999988
 20
158.49999999999989
 30
0.0
 11
276.9249999999999
 21
158.49999999999989
 31
0.0
  0
LINE
  5
A6
  8
1
 62
     3
 10
273.54599999999988
 20
162.5
 30
0.0
 11
276.9249999999999
 21
162.5
 31
0.0
  0
LINE
  5
A7
  8
1
 62
     7
 10
262.92500000000001
 20
153.08257569495581
 30
0.0
 11
276.9249999999999
 21
153.08257569495581
 31
0.0
  0
LINE
  5
A8
  8
1
 62
     7
 10
262.92500000000001
 20
155.0
 30
0.0
 11
276.9249999999999
 21
155.0
 31
0.0
  0
LINE
  5
A9
  8
1
 62
     7
 10
276.9249999999999
 20
133.0
 30
0.0
 11
266.22500000000002
 21
133.0
 31
0.0
  0
LINE
  5
AA
  8
1
 62
     7
 10
276.9249999999999
 20
164.0
 30
0.0
 11
276.9249999999999
 21
153.08257569495581
 31
0.0
  0
LINE
  5
AB
  8
1
 62
     7
 10
266.22500000000002
 20
164.0
 30
0.0
 11
276.9249999999999
 21
164.0
 31
0.0
  0
LINE
  5
AC
  8
1
 62
     7
 10
266.22500000000002
 20
123.5
 30
0.0
 11
265.92500000000001
 21
123.5
 31
0.0
  0
LINE
  5
AD
  8
1
 62
     7
 10
265.92500000000001
 20
173.5
 30
0.0
 11
266.22500000000002
 21
173.5
 31
0.0
  0
LINE
  5
AE
  8
1
 62
     7
 10
265.92500000000001
 20
164.69999999999999
 30
0.0
 11
262.92500000000001
 21
164.69999999999999
 31
0.0
  0
LINE
  5
AF
  8
1
 62
     7
 10
262.92500000000001
 20
122.84999999999989
 30
0.0
 11
262.92500000000001
 21
137.5
 31
0.0
  0
LINE
  5
B0
  8
1
 62
     7
 10
265.92500000000001
 20
122.84999999999989
 30
0.0
 11
262.92500000000001
 21
122.84999999999989
 31
0.0
  0
LINE
  5
B1
  8
1
 62
     7
 10
262.92500000000001
 20
174.15000000000001
 30
0.0
 11
265.92500000000001
 21
174.15000000000001
 31
0.0
  0
LINE
  5
B2
  8
1
 62
     7
 10
265.625
 20
164.0
 30
0.0
 11
264.94597567425069
 21
164.0
 31
0.0
  0
LINE
  5
B3
  8
1
 62
     7
 10
266.22500000000002
 20
158.49999999999989
 30
0.0
 11
265.92500000000001
 21
158.49999999999989
 31
0.0
  0
LINE
  5
B4
  8
1
 62
     7
 10
273.92500000000001
 20
158.87899999999991
 30
0.0
 11
273.54599999999988
 21
158.49999999999989
 31
0.0
  0
LINE
  5
B5
  8
1
 62
     7
 10
273.92500000000001
 20
162.12100000000001
 30
0.0
 11
273.92500000000001
 21
158.87899999999991
 31
0.0
  0
LINE
  5
B6
  8
1
 62
     7
 10
266.22500000000002
 20
162.5
 30
0.0
 11
273.54599999999988
 21
162.5
 31
0.0
  0
LINE
  5
B7
  8
1
 62
     7
 10
273.54599999999988
 20
162.5
 30
0.0
 11
273.54599999999988
 21
158.49999999999989
 31
0.0
  0
LINE
  5
B8
  8
1
 62
     7
 10
267.46423048454142
 20
162.5
 30
0.0
 11
267.46423048454142
 21
158.49999999999989
 31
0.0
  0
LINE
  5
B9
  8
1
 62
     3
 10
267.46423048454142
 20
158.87899999999991
 30
0.0
 11
273.92500000000001
 21
158.87899999999991
 31
0.0
  0
LINE
  5
BA
  8
1
 62
     3
 10
267.46423048454142
 20
162.12100000000001
 30
0.0
 11
273.92500000000001
 21
162.12100000000001
 31
0.0
  0
LINE
  5
BB
  8
1
 62
     7
 10
273.54599999999988
 20
158.49999999999989
 30
0.0
 11
266.22500000000002
 21
158.49999999999989
 31
0.0
  0
LINE
  5
BC
  8
1
 62
     7
 10
265.92500000000001
 20
162.5
 30
0.0
 11
266.22500000000002
 21
162.5
 31
0.0
  0
LINE
  5
BD
  8
1
 62
     7
 10
273.92500000000001
 20
158.87899999999991
 30
0.0
 11
276.9249999999999
 21
158.87899999999991
 31
0.0
  0
LINE
  5
BE
  8
1
 62
     7
 10
273.92500000000001
 20
162.12100000000001
 30
0.0
 11
276.9249999999999
 21
162.12100000000001
 31
0.0
  0
LINE
  5
BF
  8
1
 62
     7
 10
266.22500000000002
 20
158.49999999999989
 30
0.0
 11
266.22500000000002
 21
157.0
 31
0.0
  0
LINE
  5
C0
  8
1
 62
     7
 10
267.02500000000009
 20
123.97499999999989
 30
0.0
 11
266.22500000000002
 21
123.97499999999989
 31
0.0
  0
LINE
  5
C1
  8
1
 62
     7
 10
267.02500000000009
 20
128.22499999999991
 30
0.0
 11
266.22500000000002
 21
128.22499999999991
 31
0.0
  0
LINE
  5
C2
  8
1
 62
     7
 10
267.02500000000009
 20
128.22499999999991
 30
0.0
 11
267.02500000000009
 21
123.97499999999989
 31
0.0
  0
LINE
  5
C3
  8
1
 62
     7
 10
236.8249999999999
 20
162.09999999999991
 30
0.0
 11
236.8249999999999
 21
161.5
 31
0.0
  0
LINE
  5
C4
  8
1
 62
     7
 10
236.8249999999999
 20
161.5
 30
0.0
 11
256.22500000000002
 21
161.5
 31
0.0
  0
LINE
  5
C5
  8
1
 62
     7
 10
235.47499999999999
 20
162.09999999999991
 30
0.0
 11
236.8249999999999
 21
162.09999999999991
 31
0.0
  0
LINE
  5
C6
  8
1
 62
     7
 10
232.62499999999989
 20
161.5
 30
0.0
 11
235.47499999999999
 21
161.5
 31
0.0
  0
LINE
  5
C7
  8
1
 62
     7
 10
232.62499999999989
 20
122.0
 30
0.0
 11
234.02500000000001
 21
122.0
 31
0.0
  0
LINE
  5
C8
  8
1
 62
     7
 10
232.62499999999989
 20
175.0
 30
0.0
 11
232.62499999999989
 21
161.5
 31
0.0
  0
LINE
  5
C9
  8
1
 62
     7
 10
234.02500000000001
 20
175.0
 30
0.0
 11
232.62499999999989
 21
175.0
 31
0.0
  0
LINE
  5
CA
  8
1
 62
     7
 10
234.02500000000001
 20
175.0
 30
0.0
 11
234.02500000000001
 21
161.5
 31
0.0
  0
LINE
  5
CB
  8
1
 62
     7
 10
235.02499999999989
 20
174.0
 30
0.0
 11
234.02500000000001
 21
173.0
 31
0.0
  0
LINE
  5
CC
  8
1
 62
     7
 10
234.02500000000001
 20
124.0
 30
0.0
 11
235.02499999999989
 21
123.0
 31
0.0
  0
LINE
  5
CD
  8
1
  6
DASHDOT
 62
     3
 10
229.625
 20
148.5
 30
0.0
 11
232.62499999999989
 21
148.5
 31
0.0
  0
LINE
  5
CE
  8
1
 62
     3
 10
240.86000000000001
 20
198.0
 30
0.0
 11
240.86000000000001
 21
195.0
 31
0.0
  0
LINE
  5
CF
  8
1
 62
     3
 10
240.18999999999991
 20
195.0
 30
0.0
 11
240.18999999999991
 21
198.0
 31
0.0
  0
LINE
  5
D0
  8
1
 62
     7
 10
238.02500000000001
 20
175.0
 30
0.0
 11
237.52500000000001
 21
174.5
 31
0.0
  0
LINE
  5
D1
  8
1
 62
     7
 10
237.52500000000001
 20
174.5
 30
0.0
 11
237.52500000000001
 21
174.0
 31
0.0
  0
LINE
  5
D2
  8
1
 62
     7
 10
243.52499999999989
 20
174.0
 30
0.0
 11
243.52499999999989
 21
174.5
 31
0.0
  0
LINE
  5
D3
  8
1
 62
     7
 10
243.52499999999989
 20
174.5
 30
0.0
 11
243.02500000000001
 21
175.0
 31
0.0
  0
LINE
  5
D4
  8
1
 62
     7
 10
238.02500000000001
 20
175.0
 30
0.0
 11
243.02500000000001
 21
175.0
 31
0.0
  0
LINE
  5
D5
  8
1
 62
     7
 10
239.65000000000001
 20
195.0
 30
0.0
 11
241.40000000000001
 21
195.0
 31
0.0
  0
LINE
  5
D6
  8
1
 62
     7
 10
235.47499999999999
 20
162.09999999999991
 30
0.0
 11
235.47499999999999
 21
161.5
 31
0.0
  0
LINE
  5
D7
  8
1
 62
     7
 10
256.22500000000002
 20
167.5
 30
0.0
 11
256.625
 21
167.5
 31
0.0
  0
LINE
  5
D8
  8
1
 62
     7
 10
256.22500000000002
 20
161.25
 30
0.0
 11
256.625
 21
161.25
 31
0.0
  0
LINE
  5
D9
  8
1
 62
     7
 10
256.22500000000002
 20
160.9499999999999
 30
0.0
 11
256.22500000000002
 21
172.4499999999999
 31
0.0
  0
LINE
  5
DA
  8
1
 62
     7
 10
254.32499999999999
 20
159.49999999999989
 30
0.0
 11
261.82499999999987
 21
159.49999999999989
 31
0.0
  0
LINE
  5
DB
  8
1
 62
     7
 10
261.82499999999987
 20
163.80000000000001
 30
0.0
 11
262.67500000000001
 21
164.65000000000001
 31
0.0
  0
LINE
  5
DC
  8
1
 62
     7
 10
261.82499999999987
 20
163.80000000000001
 30
0.0
 11
261.82499999999987
 21
159.49999999999989
 31
0.0
  0
LINE
  5
DD
  8
1
 62
     7
 10
254.32499999999999
 20
160.9499999999999
 30
0.0
 11
254.32499999999999
 21
159.49999999999989
 31
0.0
  0
LINE
  5
DE
  8
1
 62
     7
 10
256.625
 20
160.9499999999999
 30
0.0
 11
254.32499999999999
 21
160.9499999999999
 31
0.0
  0
LINE
  5
DF
  8
1
 62
     7
 10
256.625
 20
160.9499999999999
 30
0.0
 11
256.625
 21
172.4499999999999
 31
0.0
  0
LINE
  5
E0
  8
1
 62
     7
 10
261.22500000000002
 20
172.4499999999999
 30
0.0
 11
261.22500000000002
 21
166.5
 31
0.0
  0
LINE
  5
E1
  8
1
 62
     7
 10
262.67500000000001
 20
174.0
 30
0.0
 11
262.67500000000001
 21
159.49999999999989
 31
0.0
  0
LINE
  5
E2
  8
1
 62
     7
 10
262.67500000000001
 20
123.0
 30
0.0
 11
235.02499999999989
 21
123.0
 31
0.0
  0
LINE
  5
E3
  8
1
 62
     7
 10
262.67500000000001
 20
166.5
 30
0.0
 11
256.625
 21
166.5
 31
0.0
  0
LINE
  5
E4
  8
1
 62
     7
 10
262.67500000000001
 20
172.4499999999999
 30
0.0
 11
256.22500000000002
 21
172.4499999999999
 31
0.0
  0
LINE
  5
E5
  8
1
  6
DASHDOT
 62
     3
 10
344.4749999999998
 20
148.5
 30
0.0
 11
347.4749999999998
 21
148.5
 31
0.0
  0
LINE
  5
E6
  8
1
  6
DASHDOT
 62
     3
 10
345.9749999999998
 20
147.0
 30
0.0
 11
345.9749999999998
 21
150.0
 31
0.0
  0
LINE
  5
E7
  8
1
  6
DASHDOT
 62
     3
 10
370.54696064623232
 20
173.07196064623241
 30
0.0
 11
365.95076656852001
 21
168.4757665685199
 31
0.0
  0
LINE
  5
E8
  8
1
  6
DASHDOT
 62
     3
 10
321.40303935376733
 20
173.07196064623241
 30
0.0
 11
325.99923343147992
 21
168.4757665685199
 31
0.0
  0
LINE
  5
E9
  8
1
  6
DASHDOT
 62
     3
 10
321.40303935376733
 20
123.9280393537675
 30
0.0
 11
325.99923343147992
 21
128.52423343148001
 31
0.0
  0
LINE
  5
EA
  8
1
  6
DASHDOT
 62
     3
 10
370.54696064623232
 20
123.9280393537675
 30
0.0
 11
365.95076656852001
 21
128.52423343148001
 31
0.0
  0
LINE
  5
EB
  8
1
 62
     7
 10
177.47499999999999
 20
161.8249999999999
 30
0.0
 11
177.47499999999999
 21
157.57499999999999
 31
0.0
  0
LINE
  5
EC
  8
1
 62
     7
 10
177.47499999999999
 20
161.8249999999999
 30
0.0
 11
176.67500000000001
 21
161.8249999999999
 31
0.0
  0
LINE
  5
ED
  8
1
 62
     7
 10
177.47499999999999
 20
157.57499999999999
 30
0.0
 11
176.67500000000001
 21
157.57499999999999
 31
0.0
  0
LINE
  5
EE
  8
1
 62
     7
 10
265.92500000000001
 20
127.75
 30
0.0
 11
266.22500000000002
 21
127.75
 31
0.0
  0
LINE
  5
EF
  8
1
 62
     7
 10
265.92500000000001
 20
124.45
 30
0.0
 11
266.22500000000002
 21
124.45
 31
0.0
  0
LINE
  5
F0
  8
1
 62
     7
 10
266.22500000000002
 20
127.75
 30
0.0
 11
266.22500000000002
 21
140.0
 31
0.0
  0
LINE
  5
F1
  8
1
 62
     7
 10
265.92500000000001
 20
124.45
 30
0.0
 11
265.92500000000001
 21
122.84999999999989
 31
0.0
  0
LINE
  5
F2
  8
1
 62
     3
 10
346.8499999999998
 20
195.0
 30
0.0
 11
346.8499999999998
 21
198.0
 31
0.0
  0
LINE
  5
F3
  8
1
 62
     3
 10
345.10000000000048
 20
195.0
 30
0.0
 11
345.10000000000002
 21
198.0
 31
0.0
  0
LINE
  5
F4
  8
1
 62
     3
 10
240.52500000000001
 20
195.0
 30
0.0
 11
240.52500000000001
 21
198.0
 31
0.0
  0
LINE
  5
F5
  8
1
 62
     3
 10
150.97499999999991
 20
195.0
 30
0.0
 11
150.97499999999991
 21
198.0
 31
0.0
  0
ARC
  5
F6
  8
1
 62
     7
 10
345.9749999999998
 20
148.5
 30
0.0
 40
36.749999999999929
 50
133.8555830586549
 51
136.14441694134501
  0
ARC
  5
F7
  8
1
 62
     7
 10
345.9749999999998
 20
148.5
 30
0.0
 40
36.749999999999993
 50
223.85558305865499
 51
226.1444169413451
  0
ARC
  5
F8
  8
1
 62
     7
 10
345.97499999999872
 20
148.49999999999881
 30
0.0
 40
36.750000000000021
 50
313.8555830586576
 51
316.14441694134757
  0
ARC
  5
F9
  8
1
 62
     7
 10
345.97499999999849
 20
148.50000000000139
 30
0.0
 40
36.750000000000028
 50
43.855583058651881
 51
46.144416941341781
  0
ARC
  5
FA
  8
1
 62
     7
 10
345.9749999999998
 20
148.5
 30
0.0
 40
4.9999999999999689
 50
113.57817847820201
 51
66.421821521798023
  0
ARC
  5
FB
  8
1
 62
     7
 10
345.9749999999998
 20
148.5
 30
0.0
 40
19.800000000000001
 50
342.28449385634781
 51
77.715506143652235
  0
ARC
  5
FC
  8
1
 62
     7
 10
345.9749999999998
 20
148.5
 30
0.0
 40
19.79999999999993
 50
222.28449385634801
 51
317.71550614365231
  0
ARC
  5
FD
  8
1
 62
     7
 10
345.9749999999998
 20
148.5
 30
0.0
 40
19.800000000000018
 50
102.28449385634789
 51
197.71550614365199
  0
ARC
  5
FE
  8
1
 62
     7
 10
272.32499999999987
 20
160.49999999999989
 30
0.0
 40
9.0000000000000089
 50
163.3984504009795
 51
196.60154959901979
  0
ARC
  5
FF
  8
1
  6
DASHDOT
 62
     3
 10
345.9749999999998
 20
148.5
 30
0.0
 40
31.500000000000021
 50
39.085905557545502
 51
50.914094442454491
  0
ARC
  5
100
  8
1
  6
DASHDOT
 62
     3
 10
345.9749999999998
 20
148.5
 30
0.0
 40
31.500000000000021
 50
129.08590555754549
 51
140.9140944424544
  0
ARC
  5
101
  8
1
  6
DASHDOT
 62
     3
 10
345.9749999999998
 20
148.5
 30
0.0
 40
31.500000000000021
 50
219.08590555754549
 51
230.9140944424544
  0
ARC
  5
102
  8
1
  6
DASHDOT
 62
     3
 10
345.9749999999998
 20
148.5
 30
0.0
 40
31.499999999999961
 50
309.08590555754529
 51
320.91409444245431
  0
ARC
  5
103
  8
1
 62
     7
 10
341.97499999999991
 20
166.8695400051281
 30
0.0
 40
1.0
 50
0.0
 51
102.2844938563497
  0
ARC
  5
104
  8
1
 62
     7
 10
341.97499999999991
 20
164.50781059358209
 30
0.0
 40
1.0000000000000311
 50
284.02966540129199
 51
0.0
  0
ARC
  5
105
  8
1
 62
     7
 10
349.9749999999998
 20
164.50781059358209
 30
0.0
 40
1.0
 50
180.0
 51
255.97033459871409
  0
ARC
  5
106
  8
1
 62
     7
 10
349.9749999999998
 20
166.8695400051281
 30
0.0
 40
0.9999999999999607
 50
77.715506143653499
 51
180.0
  0
ARC
  5
107
  8
1
 62
     7
 10
361.8381706330116
 20
143.9601963183467
 30
0.0
 40
0.9999999999997882
 50
164.0296654012854
 51
239.99999999999861
  0
ARC
  5
108
  8
1
 62
     7
 10
363.8834883002753
 20
142.7793316125736
 30
0.0
 40
0.9999999999999836
 50
239.99999999999949
 51
342.28449385634821
  0
ARC
  5
109
  8
1
 62
     7
 10
357.83817063301149
 20
137.0319930880712
 30
0.0
 40
0.9999999999999593
 50
59.999999999998643
 51
135.97033459870809
  0
ARC
  5
10A
  8
1
 62
     7
 10
359.8834883002753
 20
135.85112838229821
 30
0.0
 40
0.9999999999999568
 50
317.71550614365913
 51
60.000000000001087
  0
ARC
  5
10B
  8
1
 62
     7
 10
334.1118293669881
 20
137.0319930880712
 30
0.0
 40
1.000000000000054
 50
44.029665401287282
 51
120.00000000000141
  0
ARC
  5
10C
  8
1
 62
     7
 10
332.06651169972429
 20
135.85112838229821
 30
0.0
 40
1.000000000000032
 50
119.99999999999881
 51
222.2844938563544
  0
ARC
  5
10D
  8
1
 62
     7
 10
328.06651169972451
 20
142.7793316125736
 30
0.0
 40
1.0000000000000731
 50
197.7155061436508
 51
299.99999999999483
  0
ARC
  5
10E
  8
1
 62
     7
 10
330.1118293669881
 20
143.9601963183467
 30
0.0
 40
0.9999999999999593
 50
300.00000000000131
 51
15.970334598704779
  0
ARC
  5
10F
  8
1
 62
     7
 10
264.94597567425069
 20
158.30000000000001
 30
0.0
 40
1.2999999999999849
 50
196.6015495990176
 51
270.0
  0
ARC
  5
110
  8
1
 62
     7
 10
264.94597567425069
 20
162.6999999999999
 30
0.0
 40
1.30000000000001
 50
90.0
 51
163.39845040097759
  0
ARC
  5
111
  8
1
 62
     7
 10
265.625
 20
157.30000000000001
 30
0.0
 40
0.3000000000000114
 50
270.0
 51
0.0
  0
ARC
  5
112
  8
1
 62
     7
 10
265.625
 20
163.69999999999999
 30
0.0
 40
0.3000000000000114
 50
0.0
 51
90.0
  0
CIRCLE
  5
113
  8
1
 62
     7
 10
326.57603095522842
 20
159.6999999999999
 30
0.0
 40
2.1249999999999432
  0
CIRCLE
  5
114
  8
1
 62
     7
 10
365.37396904477129
 20
159.6999999999999
 30
0.0
 40
2.125
  0
CIRCLE
  5
115
  8
1
 62
     7
 10
356.36730484541317
 20
142.5
 30
0.0
 40
1.621000000000038
  0
CIRCLE
  5
116
  8
1
 62
     7
 10
335.58269515458659
 20
142.5
 30
0.0
 40
1.621000000000038
  0
CIRCLE
  5
117
  8
1
 62
     7
 10
345.9749999999998
 20
160.49999999999989
 30
0.0
 40
1.62099999999998
  0
CIRCLE
  5
118
  8
1
 62
     7
 10
271.92500000000001
 20
148.5
 30
0.0
 40
1.62099999999998
  0
CIRCLE
  5
119
  8
1
 62
     3
 10
271.92500000000001
 20
148.5
 30
0.0
 40
2.0
  0
CIRCLE
  5
11A
  8
1
 62
     7
 10
368.24886360737628
 20
170.77386360737631
 30
0.0
 40
2.25
  0
CIRCLE
  5
11B
  8
1
 62
     7
 10
323.70113639262382
 20
170.77386360737631
 30
0.0
 40
2.25
  0
CIRCLE
  5
11C
  8
1
 62
     7
 10
323.7011363926236
 20
126.2261363926238
 30
0.0
 40
2.25
  0
CIRCLE
  5
11D
  8
1
 62
     7
 10
368.24886360737611
 20
126.2261363926237
 30
0.0
 40
2.25
  0
CIRCLE
  5
11E
  8
1
 62
     7
 10
345.9749999999998
 20
148.5
 30
0.0
 40
25.649999999999981
  0
CIRCLE
  5
11F
  8
1
 62
     7
 10
345.9749999999998
 20
148.5
 30
0.0
 40
15.5
  0
CIRCLE
  5
120
  8
1
 62
     3
 10
345.9749999999998
 20
160.49999999999989
 30
0.0
 40
2.0
  0
CIRCLE
  5
121
  8
1
 62
     7
 10
345.9749999999998
 20
126.09999999999989
 30
0.0
 40
2.125
  0
CIRCLE
  5
122
  8
1
 62
     3
 10
335.58269515458659
 20
142.5
 30
0.0
 40
2.0
  0
CIRCLE
  5
123
  8
1
 62
     3
 10
356.36730484541317
 20
142.5
 30
0.0
 40
2.0
  0
CIRCLE
  5
124
  8
1
 62
     7
 10
345.9749999999998
 20
148.5
 30
0.0
 40
25.0
  0
TEXT
  5
125
  8
1
 62
     7
 10
151.75670731707311
 20
218.55428419936399
 30
0.0
 40
3.5
  1
AMB 20
 41
0.9
  7
SIMPLEX
  0
ENDSEC
  0
EOF
