  0
SECTION
  2
HEADER
  9
$ACADVER
  1
AC1009
  9
$INSBASE
 10
0.0
 20
0.0
 30
0.0
  9
$EXTMIN
 10
150.42500000000001
 20
128.74913770766551
 30
0.0
  9
$EXTMAX
 10
356.54312023743012
 20
212.4936252130409
 30
0.0
  9
$LIMMIN
 10
150.42500000000001
 20
130.84999999999991
  9
$LIMMAX
 10
352.97500000000002
 20
212.49362521304079
  9
$ORTHOMODE
 70
     0
  9
$REGENMODE
 70
     1
  9
$FILLMODE
 70
     1
  9
$QTEXTMODE
 70
     0
  9
$MIRRTEXT
 70
     1
  9
$DRAGMODE
 70
     2
  9
$LTSCALE
 40
1.0
  9
$OSMODE
 70
    37
  9
$ATTMODE
 70
     1
  9
$TEXTSIZE
 40
3.5
  9
$TRACEWID
 40
0.5
  9
$TEXTSTYLE
  7
STANDARD
  9
$CLAYER
  8
0
  9
$CELTYPE
  6
BYLAYER
  9
$CECOLOR
 62
   256
  9
$DIMSCALE
 40
1.0
  9
$DIMASZ
 40
0.18
  9
$DIMEXO
 40
0.0625
  9
$DIMDLI
 40
0.38
  9
$DIMRND
 40
0.0
  9
$DIMDLE
 40
0.0
  9
$DIMEXE
 40
0.18
  9
$DIMTP
 40
0.0
  9
$DIMTM
 40
0.0
  9
$DIMTXT
 40
0.18
  9
$DIMCEN
 40
0.09
  9
$DIMTSZ
 40
0.0
  9
$DIMTOL
 70
     0
  9
$DIMLIM
 70
     0
  9
$DIMTIH
 70
     1
  9
$DIMTOH
 70
     1
  9
$DIMSE1
 70
     0
  9
$DIMSE2
 70
     0
  9
$DIMTAD
 70
     0
  9
$DIMZIN
 70
     0
  9
$DIMBLK
  1

  9
$DIMASO
 70
     1
  9
$DIMSHO
 70
     1
  9
$DIMPOST
  1

  9
$DIMAPOST
  1

  9
$DIMALT
 70
     0
  9
$DIMALTD
 70
     2
  9
$DIMALTF
 40
25.399999999999999
  9
$DIMLFAC
 40
1.0
  9
$DIMTOFL
 70
     0
  9
$DIMTVP
 40
0.0
  9
$DIMTIX
 70
     0
  9
$DIMSOXD
 70
     0
  9
$DIMSAH
 70
     0
  9
$DIMBLK1
  1

  9
$DIMBLK2
  1

  9
$DIMSTYLE
  2
STANDARD
  9
$DIMCLRD
 70
     0
  9
$DIMCLRE
 70
     0
  9
$DIMCLRT
 70
     0
  9
$DIMTFAC
 40
1.0
  9
$DIMGAP
 40
0.09
  9
$LUNITS
 70
     2
  9
$LUPREC
 70
     4
  9
$SKETCHINC
 40
0.1
  9
$FILLETRAD
 40
2.0
  9
$AUNITS
 70
     0
  9
$AUPREC
 70
     0
  9
$MENU
  1
ACAD
  9
$ELEVATION
 40
0.0
  9
$PELEVATION
 40
0.0
  9
$THICKNESS
 40
0.0
  9
$LIMCHECK
 70
     0
  9
$BLIPMODE
 70
     0
  9
$CHAMFERA
 40
0.0
  9
$CHAMFERB
 40
0.0
  9
$SKPOLY
 70
     0
  9
$TDCREATE
 40
2452093.8953954861
  9
$TDUPDATE
 40
2452093.896199652
  9
$TDINDWG
 40
0.0008175926
  9
$TDUSRTIMER
 40
0.0008175926
  9
$USRTIMER
 70
     1
  9
$ANGBASE
 50
0.0
  9
$ANGDIR
 70
     0
  9
$PDMODE
 70
     0
  9
$PDSIZE
 40
0.0
  9
$PLINEWID
 40
0.0
  9
$COORDS
 70
     1
  9
$SPLFRAME
 70
     0
  9
$SPLINETYPE
 70
     6
  9
$SPLINESEGS
 70
     8
  9
$ATTDIA
 70
     0
  9
$ATTREQ
 70
     1
  9
$HANDLING
 70
 10241
  9
$HANDSEED
  5
143
  9
$SURFTAB1
 70
     6
  9
$SURFTAB2
 70
     6
  9
$SURFTYPE
 70
     6
  9
$SURFU
 70
     6
  9
$SURFV
 70
     6
  9
$UCSNAME
  2

  9
$UCSORG
 10
0.0
 20
0.0
 30
0.0
  9
$UCSXDIR
 10
1.0
 20
0.0
 30
0.0
  9
$UCSYDIR
 10
0.0
 20
1.0
 30
0.0
  9
$PUCSNAME
  2

  9
$PUCSORG
 10
0.0
 20
0.0
 30
0.0
  9
$PUCSXDIR
 10
1.0
 20
0.0
 30
0.0
  9
$PUCSYDIR
 10
0.0
 20
1.0
 30
0.0
  9
$USERI1
 70
     0
  9
$USERI2
 70
     0
  9
$USERI3
 70
     0
  9
$USERI4
 70
     0
  9
$USERI5
 70
     0
  9
$USERR1
 40
0.0
  9
$USERR2
 40
0.0
  9
$USERR3
 40
0.0
  9
$USERR4
 40
0.0
  9
$USERR5
 40
0.0
  9
$WORLDVIEW
 70
     1
  9
$SHADEDGE
 70
     3
  9
$SHADEDIF
 70
    70
  9
$TILEMODE
 70
     1
  9
$MAXACTVP
 70
    64
  9
$PLIMCHECK
 70
     0
  9
$PEXTMIN
 10
1.0000000000000000E+020
 20
1.0000000000000000E+020
 30
1.0000000000000000E+020
  9
$PEXTMAX
 10
-1.0000000000000000E+020
 20
-1.0000000000000000E+020
 30
-1.0000000000000000E+020
  9
$PLIMMIN
 10
0.0
 20
0.0
  9
$PLIMMAX
 10
12.0
 20
9.0
  9
$UNITMODE
 70
     0
  9
$VISRETAIN
 70
     1
  9
$PLINEGEN
 70
     0
  9
$PSLTSCALE
 70
     1
  0
ENDSEC
  0
SECTION
  2
TABLES
  0
TABLE
  2
VPORT
 70
     2
  0
VPORT
  2
*ACTIVE
 70
     0
 10
0.0
 20
0.0
 11
1.0
 21
1.0
 12
163.16301884430749
 22
206.27077790352701
 13
0.0
 23
0.0
 14
1.0
 24
1.0
 15
0.0
 25
0.0
 16
0.0
 26
0.0
 36
1.0
 17
0.0
 27
0.0
 37
0.0
 40
9.0000002874897973
 41
2.5693779904306222
 42
50.0
 43
0.0
 44
0.0
 50
0.0
 51
0.0
 71
     0
 72
   100
 73
     1
 74
     1
 75
     0
 76
     0
 77
     0
 78
     0
  0
ENDTAB
  0
TABLE
  2
LTYPE
 70
     9
  0
LTYPE
  2
CONTINUOUS
 70
     0
  3
Solid line
 72
    65
 73
     0
 40
0.0
  0
LTYPE
  2
BORDER
 70
     0
  3
__ __ . __ __ .
 72
    65
 73
     6
 40
9.3279605263157901
 49
2.665131578947368
 49
-1.332565789473684
 49
2.665131578947368
 49
-1.332565789473684
 49
0.0
 49
-1.332565789473684
  0
LTYPE
  2
CENTER
 70
     0
  3
____ _ ____ _
 72
    65
 73
     4
 40
10.66052631578947
 49
6.6628289473684204
 49
-1.332565789473684
 49
1.332565789473684
 49
-1.332565789473684
  0
LTYPE
  2
DASHDOT
 70
     0
  3
__ . __ . __ .
 72
    65
 73
     4
 40
5.3302631578947359
 49
2.665131578947368
 49
-1.332565789473684
 49
0.0
 49
-1.332565789473684
  0
LTYPE
  2
DASHED
 70
     0
  3
__ __ __ __ __
 72
    65
 73
     2
 40
3.9976973684210511
 49
2.665131578947368
 49
-1.332565789473684
  0
LTYPE
  2
DIVIDE
 70
     0
  3
__ . . __ . . 
 72
    65
 73
     6
 40
6.6628289473684204
 49
2.665131578947368
 49
-1.332565789473684
 49
0.0
 49
-1.332565789473684
 49
0.0
 49
-1.332565789473684
  0
LTYPE
  2
DOT
 70
     0
  3
..............
 72
    65
 73
     4
 40
2.665131578947368
 49
0.0
 49
-1.332565789473684
 49
0.0
 49
-1.332565789473684
  0
LTYPE
  2
HIDDEN
 70
     0
  3
_ _ _ _ _ _ _
 72
    65
 73
     2
 40
1.9988486842105251
 49
1.332565789473684
 49
-0.6662828947368422
  0
LTYPE
  2
PHANTOM
 70
     0
  3
_____ _ _ _____ _ _ 
 72
    65
 73
     6
 40
13.325657894736841
 49
6.6628289473684204
 49
-1.332565789473684
 49
1.332565789473684
 49
-1.332565789473684
 49
1.332565789473684
 49
-1.332565789473684
  0
ENDTAB
  0
TABLE
  2
LAYER
 70
     2
  0
LAYER
  2
0
 70
     0
 62
     7
  6
CONTINUOUS
  0
LAYER
  2
1
 70
     0
 62
     7
  6
CONTINUOUS
  0
ENDTAB
  0
TABLE
  2
STYLE
 70
     4
  0
STYLE
  2
STANDARD
 70
     0
 40
0.0
 41
1.0
 50
0.0
 71
     0
 42
3.5
  3
txt
  4

  0
STYLE
  2
SIMPLEX
 70
     0
 40
0.0
 41
1.0
 50
0.0
 71
     0
 42
3.5
  3
simplex
  4

  0
STYLE
  2
COMPLEX
 70
     0
 40
0.0
 41
1.0
 50
0.0
 71
     0
 42
3.5
  3
complex
  4

  0
STYLE
  2
ITALIC
 70
     0
 40
0.0
 41
1.0
 50
0.0
 71
     0
 42
3.5
  3
italic
  4

  0
ENDTAB
  0
TABLE
  2
VIEW
 70
     0
  0
ENDTAB
  0
TABLE
  2
UCS
 70
     0
  0
ENDTAB
  0
TABLE
  2
APPID
 70
     1
  0
APPID
  2
ACAD
 70
     0
  0
ENDTAB
  0
TABLE
  2
DIMSTYLE
 70
     1
  0
DIMSTYLE
  2
STANDARD
 70
     0
  3

  4

  5

  6

  7

 40
1.0
 41
0.18
 42
0.0625
 43
0.38
 44
0.18
 45
0.0
 46
0.0
 47
0.0
 48
0.0
140
0.18
141
0.09
142
0.0
143
25.399999999999999
144
1.0
145
0.0
146
1.0
147
0.09
 71
     0
 72
     0
 73
     1
 74
     1
 75
     0
 76
     0
 77
     0
 78
     0
170
     0
171
     2
172
     0
173
     0
174
     0
175
     0
176
     0
177
     0
178
     0
  0
ENDTAB
  0
ENDSEC
  0
SECTION
  2
BLOCKS
  0
BLOCK
  8
0
  2
$MODEL_SPACE
 70
     0
 10
0.0
 20
0.0
 30
0.0
  3
$MODEL_SPACE
  1

  0
ENDBLK
  5
20
  8
0
  0
BLOCK
 67
     1
  8
0
  2
$PAPER_SPACE
 70
     0
 10
0.0
 20
0.0
 30
0.0
  3
$PAPER_SPACE
  1

  0
ENDBLK
  5
1C
 67
     1
  8
0
  0
ENDSEC
  0
SECTION
  2
ENTITIES
  0
LINE
  5
33
  8
1
 62
     7
 10
155.8249999999999
 20
166.0
 30
0.0
 11
155.8249999999999
 21
131.0
 31
0.0
  0
LINE
  5
34
  8
1
 62
     7
 10
257.62499999999989
 20
140.24999999999989
 30
0.0
 11
260.07499999999987
 21
140.24999999999989
 31
0.0
  0
LINE
  5
35
  8
1
 62
     7
 10
153.42500000000001
 20
131.71272803580041
 30
0.0
 11
154.8249999999999
 21
131.71272803580041
 31
0.0
  0
LINE
  5
36
  8
1
 62
     7
 10
153.42500000000001
 20
165.2872719641995
 30
0.0
 11
154.8249999999999
 21
165.2872719641995
 31
0.0
  0
LINE
  5
37
  8
1
 62
     7
 10
352.82499999999987
 20
131.71272803580041
 30
0.0
 11
352.82499999999987
 21
146.2038074993589
 31
0.0
  0
LINE
  5
38
  8
1
 62
     7
 10
318.53772803580028
 20
131.0
 30
0.0
 11
333.02880749935889
 21
131.0
 31
0.0
  0
LINE
  5
39
  8
1
 62
     7
 10
317.82499999999987
 20
165.2872719641995
 30
0.0
 11
317.82499999999987
 21
150.79619250064101
 31
0.0
  0
LINE
  5
3A
  8
1
 62
     7
 10
352.11227196419952
 20
166.0
 30
0.0
 11
337.62119250064092
 21
166.0
 31
0.0
  0
LINE
  5
3B
  8
1
 62
     7
 10
318.53772803580028
 20
166.0
 30
0.0
 11
333.02880749935889
 21
166.0
 31
0.0
  0
LINE
  5
3C
  8
1
 62
     7
 10
337.07499999999999
 20
179.28478640073979
 30
0.0
 11
337.07499999999999
 21
167.0
 31
0.0
  0
LINE
  5
3D
  8
1
 62
     7
 10
333.57499999999987
 20
179.28478640073979
 30
0.0
 11
333.57499999999987
 21
167.0
 31
0.0
  0
LINE
  5
3E
  8
1
 62
     7
 10
335.32499999999999
 20
179.28478640073979
 30
0.0
 11
335.32499999999999
 21
167.0
 31
0.0
  0
LINE
  5
3F
  8
1
 62
     7
 10
337.62119250064092
 20
131.0
 30
0.0
 11
352.11227196419952
 21
131.0
 31
0.0
  0
LINE
  5
40
  8
1
 62
     7
 10
352.82499999999987
 20
150.79619250064101
 30
0.0
 11
352.82499999999987
 21
165.2872719641995
 31
0.0
  0
LINE
  5
41
  8
1
 62
     7
 10
317.82499999999987
 20
146.2038074993589
 30
0.0
 11
317.82499999999987
 21
131.71272803580041
 31
0.0
  0
LINE
  5
42
  8
1
 62
     7
 10
345.33017118431508
 20
140.70278578128369
 30
0.0
 11
344.35785673089788
 21
141.264151792701
 31
0.0
  0
LINE
  5
43
  8
1
 62
     7
 10
347.08017118431508
 20
143.73387469452911
 30
0.0
 11
346.10785673089788
 21
144.29524070594661
 31
0.0
  0
LINE
  5
44
  8
1
 62
     7
 10
325.31982881568479
 20
140.70278578128369
 30
0.0
 11
326.29214326910193
 21
141.264151792701
 31
0.0
  0
LINE
  5
45
  8
1
 62
     7
 10
323.5698288156849
 20
143.73387469452931
 30
0.0
 11
324.54214326910193
 21
144.29524070594661
 31
0.0
  0
LINE
  5
46
  8
1
 62
     7
 10
333.57499999999987
 20
161.06333952418711
 30
0.0
 11
333.57499999999987
 21
159.94060750135239
 31
0.0
  0
LINE
  5
47
  8
1
 62
     7
 10
337.07499999999999
 20
161.06333952418711
 30
0.0
 11
337.07499999999999
 21
159.94060750135239
 31
0.0
  0
LINE
  5
48
  8
1
  6
DASHDOT
 62
     3
 10
352.04807537506173
 20
131.776924624938
 30
0.0
 11
348.30040943477297
 21
135.52459056522679
 31
0.0
  0
LINE
  5
49
  8
1
  6
DASHDOT
 62
     3
 10
318.60192462493808
 20
131.77692462493809
 30
0.0
 11
322.34959056522678
 21
135.52459056522679
 31
0.0
  0
LINE
  5
4A
  8
1
  6
DASHDOT
 62
     3
 10
318.60192462493808
 20
165.22307537506191
 30
0.0
 11
322.34959056522678
 21
161.4754094347731
 31
0.0
  0
LINE
  5
4B
  8
1
  6
DASHDOT
 62
     3
 10
352.04807537506173
 20
165.22307537506191
 30
0.0
 11
348.30040943477297
 21
161.4754094347731
 31
0.0
  0
LINE
  5
4C
  8
1
 62
     7
 10
336.32499999999987
 20
152.40000000000001
 30
0.0
 11
336.32499999999987
 21
151.3284271247461
 31
0.0
  0
LINE
  5
4D
  8
1
 62
     7
 10
334.32499999999987
 20
152.40000000000001
 30
0.0
 11
336.32499999999987
 21
152.40000000000001
 31
0.0
  0
LINE
  5
4E
  8
1
 62
     7
 10
334.32499999999987
 20
151.3284271247461
 30
0.0
 11
334.32499999999987
 21
152.40000000000001
 31
0.0
  0
LINE
  5
4F
  8
1
  6
DASHDOT
 62
     3
 10
333.82499999999987
 20
148.5
 30
0.0
 11
336.82499999999987
 21
148.5
 31
0.0
  0
LINE
  5
50
  8
1
  6
DASHDOT
 62
     3
 10
335.32499999999999
 20
150.0
 30
0.0
 11
335.32499999999999
 21
147.0
 31
0.0
  0
LINE
  5
51
  8
1
 62
     7
 10
260.27499999999992
 20
135.05000000000001
 30
0.0
 11
260.27499999999992
 21
143.0
 31
0.0
  0
LINE
  5
52
  8
1
 62
     7
 10
260.07499999999987
 20
132.9499999999999
 30
0.0
 11
260.27499999999992
 21
132.9499999999999
 31
0.0
  0
LINE
  5
53
  8
1
 62
     7
 10
260.07499999999987
 20
135.05000000000001
 30
0.0
 11
260.27499999999992
 21
135.05000000000001
 31
0.0
  0
LINE
  5
54
  8
1
 62
     7
 10
257.67500000000001
 20
152.40000000000001
 30
0.0
 11
266.57499999999999
 21
152.40000000000001
 31
0.0
  0
LINE
  5
55
  8
1
 62
     7
 10
260.27499999999992
 20
137.5
 30
0.0
 11
266.57499999999999
 21
137.5
 31
0.0
  0
LINE
  5
56
  8
1
 62
     7
 10
260.27499999999992
 20
159.49999999999989
 30
0.0
 11
260.27499999999992
 21
158.25
 31
0.0
  0
LINE
  5
57
  8
1
 62
     7
 10
260.27499999999992
 20
154.0
 30
0.0
 11
257.67500000000001
 21
154.0
 31
0.0
  0
LINE
  5
58
  8
1
 62
     7
 10
260.27499999999992
 20
159.49999999999989
 30
0.0
 11
266.57499999999999
 21
159.49999999999989
 31
0.0
  0
LINE
  5
59
  8
1
 62
     7
 10
260.77499999999992
 20
136.0
 30
0.0
 11
260.27499999999992
 21
136.0
 31
0.0
  0
LINE
  5
5A
  8
1
 62
     7
 10
260.77499999999992
 20
136.0
 30
0.0
 11
260.77499999999992
 21
132.0
 31
0.0
  0
LINE
  5
5B
  8
1
 62
     7
 10
260.77499999999992
 20
132.0
 30
0.0
 11
260.27499999999992
 21
132.0
 31
0.0
  0
LINE
  5
5C
  8
1
 62
     7
 10
260.27499999999992
 20
165.5
 30
0.0
 11
260.07499999999987
 21
165.5
 31
0.0
  0
LINE
  5
5D
  8
1
 62
     7
 10
260.27499999999992
 20
165.5
 30
0.0
 11
260.27499999999992
 21
159.49999999999989
 31
0.0
  0
LINE
  5
5E
  8
1
 62
     7
 10
260.27499999999992
 20
131.49999999999989
 30
0.0
 11
260.07499999999987
 21
131.49999999999989
 31
0.0
  0
LINE
  5
5F
  8
1
 62
     7
 10
260.07499999999987
 20
160.05000000000001
 30
0.0
 11
257.62499999999989
 21
160.05000000000001
 31
0.0
  0
LINE
  5
60
  8
1
 62
     7
 10
260.07499999999987
 20
166.15000000000001
 30
0.0
 11
260.07499999999987
 21
154.0
 31
0.0
  0
LINE
  5
61
  8
1
 62
     7
 10
257.62499999999989
 20
130.84999999999991
 30
0.0
 11
257.62499999999989
 21
142.5
 31
0.0
  0
LINE
  5
62
  8
1
 62
     7
 10
257.62499999999989
 20
166.15000000000001
 30
0.0
 11
260.07499999999987
 21
166.15000000000001
 31
0.0
  0
LINE
  5
63
  8
1
 62
     7
 10
260.07499999999987
 20
130.84999999999991
 30
0.0
 11
257.62499999999989
 21
130.84999999999991
 31
0.0
  0
LINE
  5
64
  8
1
 62
     7
 10
259.33587985837539
 20
159.49999999999989
 30
0.0
 11
259.77499999999998
 21
159.49999999999989
 31
0.0
  0
LINE
  5
65
  8
1
 62
     7
 10
265.07499999999987
 20
155.52049999999991
 30
0.0
 11
264.80450000000002
 21
155.25
 31
0.0
  0
LINE
  5
66
  8
1
 62
     7
 10
264.80450000000002
 20
158.25
 30
0.0
 11
264.80450000000002
 21
155.25
 31
0.0
  0
LINE
  5
67
  8
1
 62
     7
 10
261.35442286340577
 20
158.25
 30
0.0
 11
261.35442286340577
 21
155.25
 31
0.0
  0
LINE
  5
68
  8
1
 62
     3
 10
265.07499999999987
 20
157.9795
 30
0.0
 11
261.35442286340577
 21
157.9795
 31
0.0
  0
LINE
  5
69
  8
1
 62
     3
 10
261.35442286340577
 20
157.9795
 30
0.0
 11
260.88590311995841
 21
158.25
 31
0.0
  0
LINE
  5
6A
  8
1
 62
     3
 10
265.07499999999987
 20
155.52049999999991
 30
0.0
 11
261.35442286340577
 21
155.52049999999991
 31
0.0
  0
LINE
  5
6B
  8
1
 62
     3
 10
261.35442286340577
 20
155.52049999999991
 30
0.0
 11
260.88590311995841
 21
155.25
 31
0.0
  0
LINE
  5
6C
  8
1
 62
     3
 10
264.80450000000002
 20
158.25
 30
0.0
 11
266.57499999999999
 21
158.25
 31
0.0
  0
LINE
  5
6D
  8
1
 62
     3
 10
264.80450000000002
 20
155.25
 30
0.0
 11
266.57499999999999
 21
155.25
 31
0.0
  0
LINE
  5
6E
  8
1
 62
     7
 10
264.80450000000002
 20
158.25
 30
0.0
 11
260.07499999999987
 21
158.25
 31
0.0
  0
LINE
  5
6F
  8
1
 62
     7
 10
264.80450000000002
 20
155.25
 30
0.0
 11
260.07499999999987
 21
155.25
 31
0.0
  0
LINE
  5
70
  8
1
 62
     7
 10
260.27499999999992
 20
155.25
 30
0.0
 11
260.27499999999992
 21
154.0
 31
0.0
  0
LINE
  5
71
  8
1
 62
     7
 10
260.07499999999987
 20
130.84999999999991
 30
0.0
 11
260.07499999999987
 21
132.9499999999999
 31
0.0
  0
LINE
  5
72
  8
1
 62
     7
 10
260.27499999999992
 20
131.49999999999989
 30
0.0
 11
260.27499999999992
 21
132.9499999999999
 31
0.0
  0
LINE
  5
73
  8
1
 62
     7
 10
265.07499999999987
 20
157.9795
 30
0.0
 11
266.57499999999999
 21
157.9795
 31
0.0
  0
LINE
  5
74
  8
1
 62
     7
 10
265.07499999999987
 20
155.52049999999991
 30
0.0
 11
266.57499999999999
 21
155.52049999999991
 31
0.0
  0
LINE
  5
75
  8
1
 62
     7
 10
265.07499999999987
 20
157.9795
 30
0.0
 11
265.07499999999987
 21
155.52049999999991
 31
0.0
  0
LINE
  5
76
  8
1
  6
CENTER
 62
     3
 10
263.57499999999987
 20
136.49999999999989
 30
0.0
 11
263.57499999999987
 21
150.9999993164023
 31
0.0
  0
LINE
  5
77
  8
1
 62
     7
 10
257.67500000000001
 20
151.3284271247461
 30
0.0
 11
266.57499999999999
 21
151.3284271247461
 31
0.0
  0
LINE
  5
78
  8
1
 62
     7
 10
257.67500000000001
 20
145.49924566573341
 30
0.0
 11
266.57499999999999
 21
145.49924566573341
 31
0.0
  0
LINE
  5
79
  8
1
 62
     3
 10
265.07499999999987
 20
145.49924566573341
 30
0.0
 11
265.07499999999987
 21
137.5
 31
0.0
  0
LINE
  5
7A
  8
1
 62
     3
 10
262.07499999999987
 20
145.49924566573341
 30
0.0
 11
262.07499999999987
 21
137.5
 31
0.0
  0
LINE
  5
7B
  8
1
 62
     7
 10
264.80450000000002
 20
145.49924566573341
 30
0.0
 11
264.80450000000002
 21
137.5
 31
0.0
  0
LINE
  5
7C
  8
1
 62
     7
 10
262.34550000000002
 20
145.49924566573341
 30
0.0
 11
262.34550000000002
 21
137.5
 31
0.0
  0
LINE
  5
7D
  8
1
 62
     7
 10
257.67500000000001
 20
143.0
 30
0.0
 11
260.27499999999992
 21
143.0
 31
0.0
  0
LINE
  5
7E
  8
1
 62
     7
 10
266.57499999999999
 20
159.49999999999989
 30
0.0
 11
266.57499999999999
 21
151.3284271247461
 31
0.0
  0
LINE
  5
7F
  8
1
  6
DASHDOT
 62
     3
 10
232.62499999999989
 20
148.5
 30
0.0
 11
235.625
 21
148.5
 31
0.0
  0
LINE
  5
80
  8
1
  6
DASHDOT
 62
     3
 10
261.07500068359752
 20
148.5
 30
0.0
 11
269.57499999999987
 21
148.5
 31
0.0
  0
LINE
  5
81
  8
1
 62
     7
 10
240.52500000000001
 20
167.0
 30
0.0
 11
245.52499999999989
 21
167.0
 31
0.0
  0
LINE
  5
82
  8
1
 62
     7
 10
238.02500000000001
 20
166.0
 30
0.0
 11
257.42500000000001
 21
166.0
 31
0.0
  0
LINE
  5
83
  8
1
 62
     7
 10
246.02500000000001
 20
166.0
 30
0.0
 11
246.02500000000001
 21
166.5
 31
0.0
  0
LINE
  5
84
  8
1
 62
     7
 10
240.02500000000001
 20
166.0
 30
0.0
 11
240.02500000000001
 21
166.5
 31
0.0
  0
LINE
  5
85
  8
1
 62
     7
 10
245.52499999999989
 20
167.0
 30
0.0
 11
246.02500000000001
 21
166.5
 31
0.0
  0
LINE
  5
86
  8
1
 62
     7
 10
240.02500000000001
 20
166.5
 30
0.0
 11
240.52500000000001
 21
167.0
 31
0.0
  0
LINE
  5
87
  8
1
 62
     7
 10
257.42500000000001
 20
159.75
 30
0.0
 11
256.42500000000001
 21
158.75
 31
0.0
  0
LINE
  5
88
  8
1
 62
     7
 10
256.42500000000001
 20
158.75
 30
0.0
 11
256.42500000000001
 21
154.49999999999989
 31
0.0
  0
LINE
  5
89
  8
1
 62
     7
 10
250.72499999999991
 20
155.75
 30
0.0
 11
250.72499999999991
 21
154.49999999999989
 31
0.0
  0
LINE
  5
8A
  8
1
 62
     7
 10
257.42500000000001
 20
160.49999999999989
 30
0.0
 11
252.22499999999999
 21
160.49999999999989
 31
0.0
  0
LINE
  5
8B
  8
1
 62
     7
 10
250.72499999999991
 20
154.49999999999989
 30
0.0
 11
256.42500000000001
 21
154.49999999999989
 31
0.0
  0
LINE
  5
8C
  8
1
 62
     7
 10
252.22499999999999
 20
155.75
 30
0.0
 11
250.72499999999991
 21
155.75
 31
0.0
  0
LINE
  5
8D
  8
1
 62
     7
 10
252.22499999999999
 20
155.80000000000001
 30
0.0
 11
252.02500000000001
 21
155.80000000000001
 31
0.0
  0
LINE
  5
8E
  8
1
 62
     7
 10
252.22499999999999
 20
155.75
 30
0.0
 11
252.22499999999999
 21
165.1999999999999
 31
0.0
  0
LINE
  5
8F
  8
1
 62
     7
 10
252.02500000000001
 20
162.5
 30
0.0
 11
252.22499999999999
 21
162.5
 31
0.0
  0
LINE
  5
90
  8
1
 62
     7
 10
243.90000000000001
 20
179.2839745962155
 30
0.0
 11
243.90000000000001
 21
167.0
 31
0.0
  0
LINE
  5
91
  8
1
 62
     7
 10
242.14999999999989
 20
179.2839745962155
 30
0.0
 11
243.90000000000001
 21
179.2839745962155
 31
0.0
  0
LINE
  5
92
  8
1
 62
     7
 10
242.14999999999989
 20
179.2839745962155
 30
0.0
 11
242.14999999999989
 21
167.0
 31
0.0
  0
LINE
  5
93
  8
1
 62
     7
 10
237.97499999999999
 20
156.34999999999991
 30
0.0
 11
237.97499999999999
 21
156.0
 31
0.0
  0
LINE
  5
94
  8
1
 62
     7
 10
239.12499999999989
 20
156.34999999999991
 30
0.0
 11
239.12499999999989
 21
156.0
 31
0.0
  0
LINE
  5
95
  8
1
 62
     7
 10
252.02500000000001
 20
165.1999999999999
 30
0.0
 11
257.42500000000001
 21
165.1999999999999
 31
0.0
  0
LINE
  5
96
  8
1
 62
     7
 10
252.02500000000001
 20
165.1999999999999
 30
0.0
 11
252.02500000000001
 21
155.75
 31
0.0
  0
LINE
  5
97
  8
1
 62
     7
 10
237.02499999999989
 20
165.0
 30
0.0
 11
238.02500000000001
 21
166.0
 31
0.0
  0
LINE
  5
98
  8
1
 62
     7
 10
238.02500000000001
 20
131.0
 30
0.0
 11
237.02499999999989
 21
132.0
 31
0.0
  0
LINE
  5
99
  8
1
 62
     7
 10
238.02500000000001
 20
131.0
 30
0.0
 11
257.42500000000001
 21
131.0
 31
0.0
  0
LINE
  5
9A
  8
1
 62
     7
 10
237.02499999999989
 20
166.0
 30
0.0
 11
235.625
 21
166.0
 31
0.0
  0
LINE
  5
9B
  8
1
 62
     7
 10
235.625
 20
131.0
 30
0.0
 11
237.02499999999989
 21
131.0
 31
0.0
  0
LINE
  5
9C
  8
1
 62
     7
 10
237.97499999999999
 20
156.34999999999991
 30
0.0
 11
239.12499999999989
 21
156.34999999999991
 31
0.0
  0
LINE
  5
9D
  8
1
 62
     7
 10
239.12499999999989
 20
156.0
 30
0.0
 11
252.02500000000001
 21
156.0
 31
0.0
  0
LINE
  5
9E
  8
1
 62
     7
 10
235.625
 20
156.0
 30
0.0
 11
237.97499999999999
 21
156.0
 31
0.0
  0
LINE
  5
9F
  8
1
 62
     7
 10
235.625
 20
131.0
 30
0.0
 11
235.625
 21
141.0
 31
0.0
  0
LINE
  5
A0
  8
1
 62
     3
 10
242.68999999999991
 20
179.2839745962155
 30
0.0
 11
242.68999999999991
 21
182.28478640073979
 31
0.0
  0
LINE
  5
A1
  8
1
 62
     3
 10
243.36000000000001
 20
182.28478640073979
 30
0.0
 11
243.36000000000001
 21
179.2839745962155
 31
0.0
  0
LINE
  5
A2
  8
1
 62
     7
 10
256.22500000000002
 20
136.49999999999989
 30
0.0
 11
256.22500000000002
 21
131.80000000000001
 31
0.0
  0
LINE
  5
A3
  8
1
 62
     7
 10
256.42500000000001
 20
138.25
 30
0.0
 11
257.42500000000001
 21
137.25
 31
0.0
  0
LINE
  5
A4
  8
1
 62
     7
 10
252.22499999999999
 20
136.49999999999989
 30
0.0
 11
257.42500000000001
 21
136.49999999999989
 31
0.0
  0
LINE
  5
A5
  8
1
 62
     7
 10
256.42500000000001
 20
142.5
 30
0.0
 11
250.72499999999991
 21
142.5
 31
0.0
  0
LINE
  5
A6
  8
1
 62
     7
 10
250.72499999999991
 20
141.25
 30
0.0
 11
252.22499999999999
 21
141.25
 31
0.0
  0
LINE
  5
A7
  8
1
 62
     7
 10
252.02500000000001
 20
141.1999999999999
 30
0.0
 11
252.22499999999999
 21
141.1999999999999
 31
0.0
  0
LINE
  5
A8
  8
1
 62
     7
 10
252.22499999999999
 20
141.25
 30
0.0
 11
252.22499999999999
 21
131.80000000000001
 31
0.0
  0
LINE
  5
A9
  8
1
 62
     7
 10
252.22499999999999
 20
134.49999999999989
 30
0.0
 11
252.02500000000001
 21
134.49999999999989
 31
0.0
  0
LINE
  5
AA
  8
1
 62
     7
 10
257.42500000000001
 20
131.80000000000001
 30
0.0
 11
252.02500000000001
 21
131.80000000000001
 31
0.0
  0
LINE
  5
AB
  8
1
 62
     7
 10
252.02500000000001
 20
141.25
 30
0.0
 11
252.02500000000001
 21
131.80000000000001
 31
0.0
  0
LINE
  5
AC
  8
1
 62
     7
 10
239.12499999999989
 20
140.65000000000001
 30
0.0
 11
237.97499999999999
 21
140.65000000000001
 31
0.0
  0
LINE
  5
AD
  8
1
 62
     7
 10
252.02500000000001
 20
141.0
 30
0.0
 11
239.12499999999989
 21
141.0
 31
0.0
  0
LINE
  5
AE
  8
1
 62
     7
 10
237.97499999999999
 20
141.0
 30
0.0
 11
235.625
 21
141.0
 31
0.0
  0
LINE
  5
AF
  8
1
 62
     7
 10
237.02499999999989
 20
166.0
 30
0.0
 11
237.02499999999989
 21
156.0
 31
0.0
  0
LINE
  5
B0
  8
1
 62
     7
 10
332.82499999999999
 20
167.0
 30
0.0
 11
337.82499999999987
 21
167.0
 31
0.0
  0
LINE
  5
B1
  8
1
 62
     7
 10
332.32499999999987
 20
166.5
 30
0.0
 11
338.32499999999987
 21
166.5
 31
0.0
  0
LINE
  5
B2
  8
1
 62
     7
 10
337.82499999999987
 20
167.0
 30
0.0
 11
338.32499999999987
 21
166.5
 31
0.0
  0
LINE
  5
B3
  8
1
 62
     7
 10
332.82499999999999
 20
167.0
 30
0.0
 11
332.32499999999987
 21
166.5
 31
0.0
  0
LINE
  5
B4
  8
1
 62
     7
 10
332.32499999999987
 20
166.5
 30
0.0
 11
332.32499999999987
 21
166.0
 31
0.0
  0
LINE
  5
B5
  8
1
 62
     7
 10
338.32499999999987
 20
166.5
 30
0.0
 11
338.32499999999987
 21
166.0
 31
0.0
  0
LINE
  5
B6
  8
1
 62
     7
 10
337.87499999999977
 20
166.0
 30
0.0
 11
337.87499999999977
 21
165.9648217855208
 31
0.0
  0
LINE
  5
B7
  8
1
 62
     7
 10
332.77499999999992
 20
166.0
 30
0.0
 11
332.77499999999992
 21
165.9648217855208
 31
0.0
  0
LINE
  5
B8
  8
1
 62
     7
 10
178.0749999999999
 20
137.5
 30
0.0
 11
184.375
 21
137.5
 31
0.0
  0
LINE
  5
B9
  8
1
 62
     7
 10
178.0749999999999
 20
159.49999999999989
 30
0.0
 11
184.375
 21
159.49999999999989
 31
0.0
  0
LINE
  5
BA
  8
1
 62
     7
 10
178.5749999999999
 20
136.0
 30
0.0
 11
178.0749999999999
 21
136.0
 31
0.0
  0
LINE
  5
BB
  8
1
 62
     7
 10
178.5749999999999
 20
136.0
 30
0.0
 11
178.5749999999999
 21
132.0
 31
0.0
  0
LINE
  5
BC
  8
1
 62
     7
 10
178.5749999999999
 20
132.0
 30
0.0
 11
178.0749999999999
 21
132.0
 31
0.0
  0
LINE
  5
BD
  8
1
 62
     7
 10
178.0749999999999
 20
165.5
 30
0.0
 11
177.875
 21
165.5
 31
0.0
  0
LINE
  5
BE
  8
1
 62
     7
 10
178.0749999999999
 20
165.5
 30
0.0
 11
178.0749999999999
 21
131.49999999999989
 31
0.0
  0
LINE
  5
BF
  8
1
 62
     7
 10
178.0749999999999
 20
131.49999999999989
 30
0.0
 11
177.875
 21
131.49999999999989
 31
0.0
  0
LINE
  5
C0
  8
1
 62
     7
 10
177.875
 20
166.15000000000001
 30
0.0
 11
177.875
 21
130.84999999999991
 31
0.0
  0
LINE
  5
C1
  8
1
 62
     7
 10
175.42500000000001
 20
130.84999999999991
 30
0.0
 11
175.42500000000001
 21
166.15000000000001
 31
0.0
  0
LINE
  5
C2
  8
1
 62
     7
 10
175.42500000000001
 20
166.15000000000001
 30
0.0
 11
177.875
 21
166.15000000000001
 31
0.0
  0
LINE
  5
C3
  8
1
 62
     7
 10
177.875
 20
130.84999999999991
 30
0.0
 11
175.42500000000001
 21
130.84999999999991
 31
0.0
  0
LINE
  5
C4
  8
1
 62
     7
 10
177.875
 20
154.0
 30
0.0
 11
177.875
 21
159.1999999999999
 31
0.0
  0
LINE
  5
C5
  8
1
 62
     7
 10
184.375
 20
159.49999999999989
 30
0.0
 11
184.375
 21
137.5
 31
0.0
  0
LINE
  5
C6
  8
1
  6
DASHDOT
 62
     3
 10
150.42500000000001
 20
148.5
 30
0.0
 11
153.42500000000001
 21
148.5
 31
0.0
  0
LINE
  5
C7
  8
1
 62
     7
 10
158.3249999999999
 20
167.0
 30
0.0
 11
163.3249999999999
 21
167.0
 31
0.0
  0
LINE
  5
C8
  8
1
 62
     7
 10
155.8249999999999
 20
166.0
 30
0.0
 11
175.22499999999999
 21
166.0
 31
0.0
  0
LINE
  5
C9
  8
1
 62
     7
 10
163.82499999999999
 20
166.0
 30
0.0
 11
163.82499999999999
 21
166.5
 31
0.0
  0
LINE
  5
CA
  8
1
 62
     7
 10
157.8249999999999
 20
166.0
 30
0.0
 11
157.8249999999999
 21
166.5
 31
0.0
  0
LINE
  5
CB
  8
1
 62
     7
 10
163.3249999999999
 20
167.0
 30
0.0
 11
163.82499999999999
 21
166.5
 31
0.0
  0
LINE
  5
CC
  8
1
 62
     7
 10
157.8249999999999
 20
166.5
 30
0.0
 11
158.3249999999999
 21
167.0
 31
0.0
  0
LINE
  5
CD
  8
1
 62
     7
 10
161.6999999999999
 20
179.2839745962155
 30
0.0
 11
161.6999999999999
 21
167.0
 31
0.0
  0
LINE
  5
CE
  8
1
 62
     7
 10
159.9499999999999
 20
179.2839745962155
 30
0.0
 11
159.9499999999999
 21
167.0
 31
0.0
  0
LINE
  5
CF
  8
1
 62
     7
 10
175.22499999999999
 20
166.0
 30
0.0
 11
175.22499999999999
 21
131.0
 31
0.0
  0
LINE
  5
D0
  8
1
 62
     7
 10
154.8249999999999
 20
165.0
 30
0.0
 11
155.8249999999999
 21
166.0
 31
0.0
  0
LINE
  5
D1
  8
1
 62
     7
 10
155.8249999999999
 20
131.0
 30
0.0
 11
154.8249999999999
 21
132.0
 31
0.0
  0
LINE
  5
D2
  8
1
 62
     7
 10
155.8249999999999
 20
131.0
 30
0.0
 11
175.22499999999999
 21
131.0
 31
0.0
  0
LINE
  5
D3
  8
1
 62
     7
 10
154.8249999999999
 20
166.0
 30
0.0
 11
153.42500000000001
 21
166.0
 31
0.0
  0
LINE
  5
D4
  8
1
 62
     7
 10
153.42500000000001
 20
131.0
 30
0.0
 11
154.8249999999999
 21
131.0
 31
0.0
  0
LINE
  5
D5
  8
1
 62
     7
 10
153.42500000000001
 20
131.0
 30
0.0
 11
153.42500000000001
 21
166.0
 31
0.0
  0
LINE
  5
D6
  8
1
 62
     7
 10
154.8249999999999
 20
166.0
 30
0.0
 11
154.8249999999999
 21
131.0
 31
0.0
  0
LINE
  5
D7
  8
1
  6
DASHDOT
 62
     3
 10
184.375
 20
148.5
 30
0.0
 11
187.375
 21
148.5
 31
0.0
  0
LINE
  5
D8
  8
1
 62
     7
 10
178.0749999999999
 20
157.5
 30
0.0
 11
178.5749999999999
 21
157.5
 31
0.0
  0
LINE
  5
D9
  8
1
 62
     7
 10
178.0749999999999
 20
154.0
 30
0.0
 11
178.5749999999999
 21
154.0
 31
0.0
  0
LINE
  5
DA
  8
1
 62
     7
 10
178.5749999999999
 20
157.5
 30
0.0
 11
178.5749999999999
 21
154.0
 31
0.0
  0
LINE
  5
DB
  8
1
 62
     7
 10
157.8249999999999
 20
166.5
 30
0.0
 11
163.82499999999999
 21
166.5
 31
0.0
  0
LINE
  5
DC
  8
1
 62
     7
 10
260.07499999999987
 20
135.05000000000001
 30
0.0
 11
260.07499999999987
 21
143.0
 31
0.0
  0
LINE
  5
DD
  8
1
 62
     7
 10
257.67500000000001
 20
154.0
 30
0.0
 11
257.67500000000001
 21
151.3284271247461
 31
0.0
  0
LINE
  5
DE
  8
1
 62
     7
 10
256.22500000000002
 20
160.49999999999989
 30
0.0
 11
256.22500000000002
 21
165.1999999999999
 31
0.0
  0
LINE
  5
DF
  8
1
 62
     7
 10
264.80450000000002
 20
158.25
 30
0.0
 11
265.07499999999987
 21
157.9795
 31
0.0
  0
LINE
  5
E0
  8
1
 62
     7
 10
235.625
 20
156.0
 30
0.0
 11
235.625
 21
166.0
 31
0.0
  0
LINE
  5
E1
  8
1
 62
     7
 10
235.625
 20
141.0
 30
0.0
 11
235.625
 21
156.0
 31
0.0
  0
LINE
  5
E2
  8
1
 62
     7
 10
237.02499999999989
 20
156.0
 30
0.0
 11
237.02499999999989
 21
141.0
 31
0.0
  0
LINE
  5
E3
  8
1
 62
     7
 10
237.02499999999989
 20
141.0
 30
0.0
 11
237.02499999999989
 21
131.0
 31
0.0
  0
LINE
  5
E4
  8
1
 62
     7
 10
237.97499999999999
 20
156.0
 30
0.0
 11
237.97499999999999
 21
141.0
 31
0.0
  0
LINE
  5
E5
  8
1
 62
     7
 10
237.97499999999999
 20
141.0
 30
0.0
 11
237.97499999999999
 21
140.65000000000001
 31
0.0
  0
LINE
  5
E6
  8
1
 62
     7
 10
239.12499999999989
 20
156.0
 30
0.0
 11
239.12499999999989
 21
141.0
 31
0.0
  0
LINE
  5
E7
  8
1
 62
     7
 10
239.12499999999989
 20
141.0
 30
0.0
 11
239.12499999999989
 21
140.65000000000001
 31
0.0
  0
LINE
  5
E8
  8
1
 62
     7
 10
250.72499999999991
 20
154.49999999999989
 30
0.0
 11
250.72499999999991
 21
142.5
 31
0.0
  0
LINE
  5
E9
  8
1
 62
     7
 10
250.72499999999991
 20
142.5
 30
0.0
 11
250.72499999999991
 21
141.25
 31
0.0
  0
LINE
  5
EA
  8
1
 62
     7
 10
256.42500000000001
 20
154.49999999999989
 30
0.0
 11
256.42500000000001
 21
142.5
 31
0.0
  0
LINE
  5
EB
  8
1
 62
     7
 10
257.42500000000001
 20
131.0
 30
0.0
 11
257.42500000000001
 21
142.5
 31
0.0
  0
LINE
  5
EC
  8
1
 62
     7
 10
257.67500000000001
 20
151.3284271247461
 30
0.0
 11
257.67500000000001
 21
145.49924566573341
 31
0.0
  0
LINE
  5
ED
  8
1
 62
     7
 10
257.67500000000001
 20
145.49924566573341
 30
0.0
 11
257.67500000000001
 21
143.0
 31
0.0
  0
LINE
  5
EE
  8
1
 62
     7
 10
266.57499999999999
 20
145.49924566573341
 30
0.0
 11
266.57499999999999
 21
137.5
 31
0.0
  0
LINE
  5
EF
  8
1
 62
     7
 10
266.57499999999999
 20
151.3284271247461
 30
0.0
 11
266.57499999999999
 21
145.49924566573341
 31
0.0
  0
LINE
  5
F0
  8
1
 62
     7
 10
256.42500000000001
 20
142.5
 30
0.0
 11
256.42500000000001
 21
138.25
 31
0.0
  0
LINE
  5
F1
  8
1
 62
     7
 10
257.42500000000001
 20
142.5
 30
0.0
 11
257.42500000000001
 21
154.49999999999989
 31
0.0
  0
LINE
  5
F2
  8
1
 62
     7
 10
257.62499999999989
 20
142.5
 30
0.0
 11
257.62499999999989
 21
154.49999999999989
 31
0.0
  0
LINE
  5
F3
  8
1
 62
     7
 10
257.42500000000001
 20
154.49999999999989
 30
0.0
 11
257.42500000000001
 21
166.0
 31
0.0
  0
LINE
  5
F4
  8
1
 62
     7
 10
257.62499999999989
 20
154.49999999999989
 30
0.0
 11
257.62499999999989
 21
166.15000000000001
 31
0.0
  0
LINE
  5
F5
  8
1
 62
     3
 10
243.02500000000001
 20
179.2839745962155
 30
0.0
 11
243.02500000000001
 21
182.28478640073979
 31
0.0
  0
LINE
  5
F6
  8
1
 62
     7
 10
159.9499999999999
 20
179.2839745962155
 30
0.0
 11
161.6999999999999
 21
179.2839745962155
 31
0.0
  0
LINE
  5
F7
  8
1
 62
     3
 10
160.49000000000001
 20
179.2839745962155
 30
0.0
 11
160.49000000000001
 21
182.28478640073979
 31
0.0
  0
LINE
  5
F8
  8
1
 62
     3
 10
161.15999999999991
 20
182.28478640073979
 30
0.0
 11
161.15999999999991
 21
179.2839745962155
 31
0.0
  0
LINE
  5
F9
  8
1
 62
     3
 10
160.8249999999999
 20
179.2839745962155
 30
0.0
 11
160.8249999999999
 21
182.28478640073979
 31
0.0
  0
LINE
  5
FA
  8
1
 62
     3
 10
334.11500000000001
 20
179.2839745962155
 30
0.0
 11
334.11500000000001
 21
182.28478640073979
 31
0.0
  0
LINE
  5
FB
  8
1
 62
     3
 10
334.78500000000003
 20
182.28478640073979
 30
0.0
 11
334.78500000000003
 21
179.2839745962155
 31
0.0
  0
LINE
  5
FC
  8
1
 62
     3
 10
334.44999999999999
 20
179.2839745962155
 30
0.0
 11
334.44999999999999
 21
182.28478640073979
 31
0.0
  0
LINE
  5
FD
  8
1
 62
     7
 10
337.07499999999999
 20
179.2839745962155
 30
0.0
 11
333.57499999999987
 21
179.2839745962155
 31
0.0
  0
LINE
  5
FE
  8
1
 62
     3
 10
335.86500000000001
 20
179.2839745962155
 30
0.0
 11
335.86500000000001
 21
182.28478640073979
 31
0.0
  0
LINE
  5
FF
  8
1
 62
     3
 10
336.53500000000003
 20
182.28478640073979
 30
0.0
 11
336.53500000000003
 21
179.2839745962155
 31
0.0
  0
LINE
  5
100
  8
1
 62
     3
 10
336.19999999999999
 20
179.2839745962155
 30
0.0
 11
336.19999999999999
 21
182.28478640073979
 31
0.0
  0
ARC
  5
101
  8
1
 62
     7
 10
259.33587985837539
 20
158.49999999999989
 30
0.0
 40
1.0
 50
90.0
 51
163.04223669999399
  0
ARC
  5
102
  8
1
 62
     7
 10
259.33587985837539
 20
155.0
 30
0.0
 40
1.0000000000000571
 50
196.95776330000589
 51
270.0
  0
ARC
  5
103
  8
1
 62
     7
 10
259.77499999999998
 20
159.1999999999999
 30
0.0
 40
0.2999999999998977
 50
0.0
 51
90.0
  0
ARC
  5
104
  8
1
 62
     7
 10
335.32499999999999
 20
148.5
 30
0.0
 40
24.249999999999979
 50
313.8091666142883
 51
316.19083338571181
  0
ARC
  5
105
  8
1
 62
     7
 10
335.32500000000101
 20
148.49999999999901
 30
0.0
 40
24.250000000000021
 50
223.80916661428489
 51
226.19083338570829
  0
ARC
  5
106
  8
1
 62
     7
 10
335.32499999999999
 20
148.5
 30
0.0
 40
24.250000000000039
 50
133.80916661428839
 51
136.1908333857115
  0
ARC
  5
107
  8
1
 62
     7
 10
335.32499999999999
 20
148.5
 30
0.0
 40
24.250000000000039
 50
43.809166614288372
 51
46.19083338571172
  0
ARC
  5
108
  8
1
 62
     7
 10
335.32499999999999
 20
148.5
 30
0.0
 40
17.000000000000011
 50
40.164248621723608
 51
139.83575137827631
  0
ARC
  5
109
  8
1
 62
     7
 10
326.38939784043822
 20
153.65897231219441
 30
0.0
 40
7.0820553756112243
 50
124.9375506540884
 51
175.06244934591189
  0
ARC
  5
10A
  8
1
 62
     7
 10
344.26060215956181
 20
153.65897231219441
 30
0.0
 40
7.0820553756111382
 50
4.9375506540881213
 51
55.062449345911993
  0
ARC
  5
10B
  8
1
 62
     7
 10
335.32499999999999
 20
148.5
 30
0.0
 40
17.000000000000011
 50
160.1642486217236
 51
259.83575137827643
  0
ARC
  5
10C
  8
1
 62
     7
 10
335.32499999999999
 20
148.5
 30
0.0
 40
16.999999999999989
 50
280.16424862172352
 51
19.835751378276392
  0
ARC
  5
10D
  8
1
 62
     7
 10
335.32499999999999
 20
138.18205537561121
 30
0.0
 40
7.082055375611203
 50
244.9375506540886
 51
295.06244934591138
  0
ARC
  5
10E
  8
1
 62
     7
 10
335.32499999999999
 20
148.5
 30
0.0
 40
13.500000000000201
 50
101.0348627215233
 51
142.9024233382506
  0
ARC
  5
10F
  8
1
 62
     7
 10
335.32499999999999
 20
148.5
 30
0.0
 40
13.50000000000002
 50
157.0975766617494
 51
198.9651372784767
  0
ARC
  5
110
  8
1
 62
     7
 10
335.32499999999999
 20
148.5
 30
0.0
 40
13.5
 50
37.097576661749343
 51
78.965137278477044
  0
ARC
  5
111
  8
1
 62
     7
 10
335.32499999999999
 20
148.5
 30
0.0
 40
13.499999999999879
 50
341.03486272152298
 51
22.902423338250159
  0
ARC
  5
112
  8
1
 62
     7
 10
335.32499999999999
 20
148.5
 30
0.0
 40
13.49999999999997
 50
277.09757666174932
 51
318.96513727847662
  0
ARC
  5
113
  8
1
 62
     7
 10
335.32499999999999
 20
148.5
 30
0.0
 40
13.50000000000002
 50
221.03486272152301
 51
262.90242333825103
  0
ARC
  5
114
  8
1
 62
     7
 10
322.76763164512562
 20
155.75
 30
0.0
 40
1.999999999999996
 50
273.48537662299208
 51
26.514623377012029
  0
ARC
  5
115
  8
1
 62
     7
 10
347.8823683548743
 20
155.75
 30
0.0
 40
2.0000000000000351
 50
153.48537662299381
 51
266.51462337700491
  0
ARC
  5
116
  8
1
 62
     7
 10
335.32499999999999
 20
134.0
 30
0.0
 40
1.9999999999999709
 50
33.485376622993797
 51
146.51462337700741
  0
ARC
  5
117
  8
1
 62
     7
 10
344.00785673089791
 20
140.6579340100518
 30
0.0
 40
0.7000000000000848
 50
60.000000000007219
 51
137.91270679913481
  0
ARC
  5
118
  8
1
 62
     7
 10
344.980171184315
 20
140.0965679986345
 30
0.0
 40
0.6999999999998967
 50
318.96513727846599
 51
60.000000000001393
  0
ARC
  5
119
  8
1
 62
     7
 10
347.43017118431499
 20
144.3400924771783
 30
0.0
 40
0.7000000000000317
 50
240.00000000001009
 51
341.03486272152333
  0
ARC
  5
11A
  8
1
 62
     7
 10
346.4578567308979
 20
144.90145848859569
 30
0.0
 40
0.7000000000000649
 50
162.08729320086351
 51
239.99999999999741
  0
ARC
  5
11B
  8
1
 62
     7
 10
325.66982881568481
 20
140.0965679986345
 30
0.0
 40
0.69999999999999
 50
120.0000000000026
 51
221.03486272152469
  0
ARC
  5
11C
  8
1
 62
     7
 10
326.64214326910201
 20
140.6579340100518
 30
0.0
 40
0.7000000000000748
 50
42.087293200868203
 51
119.9999999999968
  0
ARC
  5
11D
  8
1
 62
     7
 10
324.1921432691019
 20
144.90145848859569
 30
0.0
 40
0.6999999999999618
 50
299.99999999999858
 51
17.912706799139229
  0
ARC
  5
11E
  8
1
 62
     7
 10
323.21982881568482
 20
144.3400924771783
 30
0.0
 40
0.7000000000000626
 50
198.96513727847349
 51
300.00000000000261
  0
ARC
  5
11F
  8
1
 62
     7
 10
332.87499999999977
 20
161.06333952418711
 30
0.0
 40
0.7000000000001024
 50
0.0
 51
101.0348627215222
  0
ARC
  5
120
  8
1
 62
     7
 10
332.87499999999977
 20
159.94060750135239
 30
0.0
 40
0.7000000000000309
 50
282.08729320087627
 51
0.0
  0
ARC
  5
121
  8
1
 62
     7
 10
337.77499999999992
 20
159.94060750135239
 30
0.0
 40
0.6999999999999887
 50
180.0
 51
257.91270679913742
  0
ARC
  5
122
  8
1
 62
     7
 10
337.77499999999992
 20
161.06333952418711
 30
0.0
 40
0.6999999999999039
 50
78.9651372784746
 51
180.0
  0
ARC
  5
123
  8
1
  6
DASHDOT
 62
     3
 10
335.32499999999999
 20
148.5
 30
0.0
 40
21.000000000000028
 50
307.76501244860231
 51
322.23498755139798
  0
ARC
  5
124
  8
1
  6
DASHDOT
 62
     3
 10
335.32499999999999
 20
148.5
 30
0.0
 40
20.999999999999929
 50
217.76501244860211
 51
232.23498755139741
  0
ARC
  5
125
  8
1
  6
DASHDOT
 62
     3
 10
335.32499999999999
 20
148.5
 30
0.0
 40
21.000000000000028
 50
127.76501244860241
 51
142.2349875513975
  0
ARC
  5
126
  8
1
  6
DASHDOT
 62
     3
 10
335.32499999999999
 20
148.5
 30
0.0
 40
21.000000000000039
 50
37.76501244860237
 51
52.234987551397587
  0
ARC
  5
127
  8
1
 62
     7
 10
335.32499999999999
 20
148.5
 30
0.0
 40
3.0000000000000209
 50
109.47122063449051
 51
70.528779365509479
  0
ARC
  5
128
  8
1
 62
     7
 10
265.07499999999987
 20
156.75
 30
0.0
 40
7.0000000000000417
 50
163.0422366999955
 51
196.95776330000439
  0
CIRCLE
  5
129
  8
1
 62
     7
 10
322.76763164512562
 20
155.75
 30
0.0
 40
1.75
  0
CIRCLE
  5
12A
  8
1
 62
     7
 10
347.8823683548743
 20
155.75
 30
0.0
 40
1.75
  0
CIRCLE
  5
12B
  8
1
 62
     7
 10
335.32499999999999
 20
134.0
 30
0.0
 40
1.75
  0
CIRCLE
  5
12C
  8
1
 62
     3
 10
342.46970958122159
 20
144.375
 30
0.0
 40
1.5
  0
CIRCLE
  5
12D
  8
1
 62
     3
 10
328.18029041877838
 20
144.375
 30
0.0
 40
1.5
  0
CIRCLE
  5
12E
  8
1
 62
     3
 10
335.32499999999999
 20
156.75
 30
0.0
 40
1.5
  0
CIRCLE
  5
12F
  8
1
 62
     7
 10
350.17424240491749
 20
133.65075759508241
 30
0.0
 40
1.6500000000000341
  0
CIRCLE
  5
130
  8
1
 62
     7
 10
320.47575759508248
 20
133.65075759508241
 30
0.0
 40
1.6500000000000341
  0
CIRCLE
  5
131
  8
1
 62
     7
 10
320.47575759508248
 20
163.3492424049175
 30
0.0
 40
1.6500000000000341
  0
CIRCLE
  5
132
  8
1
 62
     7
 10
350.17424240491749
 20
163.3492424049175
 30
0.0
 40
1.6500000000000341
  0
CIRCLE
  5
133
  8
1
 62
     7
 10
335.32499999999999
 20
148.5
 30
0.0
 40
17.650000000000031
  0
CIRCLE
  5
134
  8
1
 62
     7
 10
335.32499999999999
 20
148.5
 30
0.0
 40
11.0
  0
CIRCLE
  5
135
  8
1
 62
     3
 10
263.57499999999987
 20
148.5
 30
0.0
 40
1.5
  0
CIRCLE
  5
136
  8
1
 62
     7
 10
263.57499999999987
 20
148.5
 30
0.0
 40
1.22950000000003
  0
CIRCLE
  5
137
  8
1
 62
     7
 10
335.32499999999999
 20
156.75
 30
0.0
 40
1.22950000000003
  0
CIRCLE
  5
138
  8
1
 62
     7
 10
328.18029041877838
 20
144.375
 30
0.0
 40
1.229499999999915
  0
CIRCLE
  5
139
  8
1
 62
     7
 10
342.46970958122159
 20
144.375
 30
0.0
 40
1.22950000000003
  0
TEXT
  5
13B
  8
1
 62
     7
 10
156.57877518557791
 20
209.49362521304079
 30
0.0
 40
3.0
  1
AMB 2.5
 41
0.9
  7
SIMPLEX
  0
ENDSEC
  0
EOF
