  0
SECTION
  2
HEADER
  9
$ACADVER
  1
AC1009
  9
$INSBASE
 10
0.0
 20
0.0
 30
0.0
  9
$EXTMIN
 10
135.375
 20
117.84999999999989
 30
0.0
  9
$EXTMAX
 10
385.02499999999998
 20
227.07523329798499
 30
0.0
  9
$LIMMIN
 10
135.375
 20
117.84999999999989
  9
$LIMMAX
 10
385.02500000000009
 20
227.07523329798491
  9
$ORTHOMODE
 70
     0
  9
$REGENMODE
 70
     1
  9
$FILLMODE
 70
     1
  9
$QTEXTMODE
 70
     0
  9
$MIRRTEXT
 70
     1
  9
$DRAGMODE
 70
     2
  9
$LTSCALE
 40
1.0
  9
$OSMODE
 70
    37
  9
$ATTMODE
 70
     1
  9
$TEXTSIZE
 40
3.5
  9
$TRACEWID
 40
0.5
  9
$TEXTSTYLE
  7
STANDARD
  9
$CLAYER
  8
0
  9
$CELTYPE
  6
BYLAYER
  9
$CECOLOR
 62
   256
  9
$DIMSCALE
 40
1.0
  9
$DIMASZ
 40
0.18
  9
$DIMEXO
 40
0.0625
  9
$DIMDLI
 40
0.38
  9
$DIMRND
 40
0.0
  9
$DIMDLE
 40
0.0
  9
$DIMEXE
 40
0.18
  9
$DIMTP
 40
0.0
  9
$DIMTM
 40
0.0
  9
$DIMTXT
 40
0.18
  9
$DIMCEN
 40
0.09
  9
$DIMTSZ
 40
0.0
  9
$DIMTOL
 70
     0
  9
$DIMLIM
 70
     0
  9
$DIMTIH
 70
     1
  9
$DIMTOH
 70
     1
  9
$DIMSE1
 70
     0
  9
$DIMSE2
 70
     0
  9
$DIMTAD
 70
     0
  9
$DIMZIN
 70
     0
  9
$DIMBLK
  1

  9
$DIMASO
 70
     1
  9
$DIMSHO
 70
     1
  9
$DIMPOST
  1

  9
$DIMAPOST
  1

  9
$DIMALT
 70
     0
  9
$DIMALTD
 70
     2
  9
$DIMALTF
 40
25.399999999999999
  9
$DIMLFAC
 40
1.0
  9
$DIMTOFL
 70
     0
  9
$DIMTVP
 40
0.0
  9
$DIMTIX
 70
     0
  9
$DIMSOXD
 70
     0
  9
$DIMSAH
 70
     0
  9
$DIMBLK1
  1

  9
$DIMBLK2
  1

  9
$DIMSTYLE
  2
STANDARD
  9
$DIMCLRD
 70
     0
  9
$DIMCLRE
 70
     0
  9
$DIMCLRT
 70
     0
  9
$DIMTFAC
 40
1.0
  9
$DIMGAP
 40
0.09
  9
$LUNITS
 70
     2
  9
$LUPREC
 70
     4
  9
$SKETCHINC
 40
0.1
  9
$FILLETRAD
 40
2.0
  9
$AUNITS
 70
     0
  9
$AUPREC
 70
     0
  9
$MENU
  1
ACAD
  9
$ELEVATION
 40
0.0
  9
$PELEVATION
 40
0.0
  9
$THICKNESS
 40
0.0
  9
$LIMCHECK
 70
     0
  9
$BLIPMODE
 70
     0
  9
$CHAMFERA
 40
0.0
  9
$CHAMFERB
 40
0.0
  9
$SKPOLY
 70
     0
  9
$TDCREATE
 40
2452093.899076852
  9
$TDUPDATE
 40
2452093.8995333328
  9
$TDINDWG
 40
0.0004603009
  9
$TDUSRTIMER
 40
0.0004603009
  9
$USRTIMER
 70
     1
  9
$ANGBASE
 50
0.0
  9
$ANGDIR
 70
     0
  9
$PDMODE
 70
     0
  9
$PDSIZE
 40
0.0
  9
$PLINEWID
 40
0.0
  9
$COORDS
 70
     1
  9
$SPLFRAME
 70
     0
  9
$SPLINETYPE
 70
     6
  9
$SPLINESEGS
 70
     8
  9
$ATTDIA
 70
     0
  9
$ATTREQ
 70
     1
  9
$HANDLING
 70
 10241
  9
$HANDSEED
  5
12D
  9
$SURFTAB1
 70
     6
  9
$SURFTAB2
 70
     6
  9
$SURFTYPE
 70
     6
  9
$SURFU
 70
     6
  9
$SURFV
 70
     6
  9
$UCSNAME
  2

  9
$UCSORG
 10
0.0
 20
0.0
 30
0.0
  9
$UCSXDIR
 10
1.0
 20
0.0
 30
0.0
  9
$UCSYDIR
 10
0.0
 20
1.0
 30
0.0
  9
$PUCSNAME
  2

  9
$PUCSORG
 10
0.0
 20
0.0
 30
0.0
  9
$PUCSXDIR
 10
1.0
 20
0.0
 30
0.0
  9
$PUCSYDIR
 10
0.0
 20
1.0
 30
0.0
  9
$USERI1
 70
     0
  9
$USERI2
 70
     0
  9
$USERI3
 70
     0
  9
$USERI4
 70
     0
  9
$USERI5
 70
     0
  9
$USERR1
 40
0.0
  9
$USERR2
 40
0.0
  9
$USERR3
 40
0.0
  9
$USERR4
 40
0.0
  9
$USERR5
 40
0.0
  9
$WORLDVIEW
 70
     1
  9
$SHADEDGE
 70
     3
  9
$SHADEDIF
 70
    70
  9
$TILEMODE
 70
     1
  9
$MAXACTVP
 70
    64
  9
$PLIMCHECK
 70
     0
  9
$PEXTMIN
 10
1.0000000000000000E+020
 20
1.0000000000000000E+020
 30
1.0000000000000000E+020
  9
$PEXTMAX
 10
-1.0000000000000000E+020
 20
-1.0000000000000000E+020
 30
-1.0000000000000000E+020
  9
$PLIMMIN
 10
0.0
 20
0.0
  9
$PLIMMAX
 10
12.0
 20
9.0
  9
$UNITMODE
 70
     0
  9
$VISRETAIN
 70
     1
  9
$PLINEGEN
 70
     0
  9
$PSLTSCALE
 70
     1
  0
ENDSEC
  0
SECTION
  2
TABLES
  0
TABLE
  2
VPORT
 70
     2
  0
VPORT
  2
*ACTIVE
 70
     0
 10
0.0
 20
0.0
 11
1.0
 21
1.0
 12
168.8843981421881
 22
220.94238278647239
 13
0.0
 23
0.0
 14
1.0
 24
1.0
 15
0.0
 25
0.0
 16
0.0
 26
0.0
 36
1.0
 17
0.0
 27
0.0
 37
0.0
 40
9.0000000566352156
 41
2.5693779904306222
 42
50.0
 43
0.0
 44
0.0
 50
0.0
 51
0.0
 71
     0
 72
   100
 73
     1
 74
     1
 75
     0
 76
     0
 77
     0
 78
     0
  0
ENDTAB
  0
TABLE
  2
LTYPE
 70
     9
  0
LTYPE
  2
CONTINUOUS
 70
     0
  3
Solid line
 72
    65
 73
     0
 40
0.0
  0
LTYPE
  2
BORDER
 70
     0
  3
__ __ . __ __ .
 72
    65
 73
     6
 40
11.49703947368422
 49
3.2848684210526331
 49
-1.642434210526315
 49
3.2848684210526331
 49
-1.642434210526315
 49
0.0
 49
-1.642434210526315
  0
LTYPE
  2
CENTER
 70
     0
  3
____ _ ____ _
 72
    65
 73
     4
 40
13.13947368421052
 49
8.2121710526315823
 49
-1.642434210526315
 49
1.642434210526315
 49
-1.642434210526315
  0
LTYPE
  2
DASHDOT
 70
     0
  3
__ . __ . __ .
 72
    65
 73
     4
 40
6.5697368421052644
 49
3.2848684210526331
 49
-1.642434210526315
 49
0.0
 49
-1.642434210526315
  0
LTYPE
  2
DASHED
 70
     0
  3
__ __ __ __ __
 72
    65
 73
     2
 40
4.9273026315789492
 49
3.2848684210526331
 49
-1.642434210526315
  0
LTYPE
  2
DIVIDE
 70
     0
  3
__ . . __ . . 
 72
    65
 73
     6
 40
8.2121710526315823
 49
3.2848684210526331
 49
-1.642434210526315
 49
0.0
 49
-1.642434210526315
 49
0.0
 49
-1.642434210526315
  0
LTYPE
  2
DOT
 70
     0
  3
..............
 72
    65
 73
     4
 40
3.2848684210526331
 49
0.0
 49
-1.642434210526315
 49
0.0
 49
-1.642434210526315
  0
LTYPE
  2
HIDDEN
 70
     0
  3
_ _ _ _ _ _ _
 72
    65
 73
     2
 40
2.463651315789475
 49
1.642434210526315
 49
-0.8212171052631582
  0
LTYPE
  2
PHANTOM
 70
     0
  3
_____ _ _ _____ _ _ 
 72
    65
 73
     6
 40
16.424342105263161
 49
8.2121710526315823
 49
-1.642434210526315
 49
1.642434210526315
 49
-1.642434210526315
 49
1.642434210526315
 49
-1.642434210526315
  0
ENDTAB
  0
TABLE
  2
LAYER
 70
     2
  0
LAYER
  2
0
 70
     0
 62
     7
  6
CONTINUOUS
  0
LAYER
  2
1
 70
     0
 62
     7
  6
CONTINUOUS
  0
ENDTAB
  0
TABLE
  2
STYLE
 70
     4
  0
STYLE
  2
STANDARD
 70
     0
 40
0.0
 41
1.0
 50
0.0
 71
     0
 42
3.5
  3
txt
  4

  0
STYLE
  2
SIMPLEX
 70
     0
 40
0.0
 41
1.0
 50
0.0
 71
     0
 42
3.5
  3
simplex
  4

  0
STYLE
  2
COMPLEX
 70
     0
 40
0.0
 41
1.0
 50
0.0
 71
     0
 42
3.5
  3
complex
  4

  0
STYLE
  2
ITALIC
 70
     0
 40
0.0
 41
1.0
 50
0.0
 71
     0
 42
3.5
  3
italic
  4

  0
ENDTAB
  0
TABLE
  2
VIEW
 70
     0
  0
ENDTAB
  0
TABLE
  2
UCS
 70
     0
  0
ENDTAB
  0
TABLE
  2
APPID
 70
     1
  0
APPID
  2
ACAD
 70
     0
  0
ENDTAB
  0
TABLE
  2
DIMSTYLE
 70
     1
  0
DIMSTYLE
  2
STANDARD
 70
     0
  3

  4

  5

  6

  7

 40
1.0
 41
0.18
 42
0.0625
 43
0.38
 44
0.18
 45
0.0
 46
0.0
 47
0.0
 48
0.0
140
0.18
141
0.09
142
0.0
143
25.399999999999999
144
1.0
145
0.0
146
1.0
147
0.09
 71
     0
 72
     0
 73
     1
 74
     1
 75
     0
 76
     0
 77
     0
 78
     0
170
     0
171
     2
172
     0
173
     0
174
     0
175
     0
176
     0
177
     0
178
     0
  0
ENDTAB
  0
ENDSEC
  0
SECTION
  2
BLOCKS
  0
BLOCK
  8
0
  2
$MODEL_SPACE
 70
     0
 10
0.0
 20
0.0
 30
0.0
  3
$MODEL_SPACE
  1

  0
ENDBLK
  5
20
  8
0
  0
BLOCK
 67
     1
  8
0
  2
$PAPER_SPACE
 70
     0
 10
0.0
 20
0.0
 30
0.0
  3
$PAPER_SPACE
  1

  0
ENDBLK
  5
1C
 67
     1
  8
0
  0
ENDSEC
  0
SECTION
  2
ENTITIES
  0
LINE
  5
33
  8
1
 62
     7
 10
270.42500000000001
 20
123.7
 30
0.0
 11
270.42500000000001
 21
118.5
 31
0.0
  0
LINE
  5
34
  8
1
 62
     7
 10
269.92500000000001
 20
122.7499707902172
 30
0.0
 11
269.92500000000001
 21
137.5
 31
0.0
  0
LINE
  5
35
  8
1
 62
     7
 10
265.92500000000001
 20
117.84999999999989
 30
0.0
 11
265.92500000000001
 21
136.49999999999989
 31
0.0
  0
LINE
  5
36
  8
1
 62
     7
 10
265.92500000000001
 20
134.0
 30
0.0
 11
269.92500000000001
 21
134.0
 31
0.0
  0
LINE
  5
37
  8
1
 62
     7
 10
266.62499999999989
 20
123.09977792903911
 30
0.0
 11
266.62499999999989
 21
119.09977792220791
 31
0.0
  0
LINE
  5
38
  8
1
 62
     7
 10
266.62499999999989
 20
119.09977792220791
 30
0.0
 11
267.62499999999989
 21
119.09977792220791
 31
0.0
  0
LINE
  5
39
  8
1
 62
     7
 10
266.62499999999989
 20
123.09977792903911
 30
0.0
 11
267.62499999999989
 21
123.09977792903911
 31
0.0
  0
LINE
  5
3A
  8
1
 62
     7
 10
267.62499999999989
 20
122.7498363714036
 30
0.0
 11
270.42500000000001
 21
122.7498363714036
 31
0.0
  0
LINE
  5
3B
  8
1
 62
     7
 10
267.62499999999989
 20
119.44983636576799
 30
0.0
 11
270.42500000000001
 21
119.44983636576799
 31
0.0
  0
LINE
  5
3C
  8
1
 62
     7
 10
267.62499999999989
 20
123.7997370201609
 30
0.0
 11
267.62499999999989
 21
118.39973701093879
 31
0.0
  0
LINE
  5
3D
  8
1
 62
     7
 10
265.92500000000001
 20
118.39973701093879
 30
0.0
 11
267.62499999999989
 21
118.39973701093879
 31
0.0
  0
LINE
  5
3E
  8
1
 62
     7
 10
265.92500000000001
 20
123.7997370201609
 30
0.0
 11
267.62499999999989
 21
123.7997370201609
 31
0.0
  0
LINE
  5
3F
  8
1
 62
     7
 10
270.42500000000001
 20
137.5
 30
0.0
 11
270.42500000000001
 21
123.7
 31
0.0
  0
LINE
  5
40
  8
1
 62
     7
 10
266.02499999999998
 20
137.5
 30
0.0
 11
270.42500000000001
 21
137.5
 31
0.0
  0
LINE
  5
41
  8
1
 62
     3
 10
274.12499999999989
 20
142.5
 30
0.0
 11
274.12499999999989
 21
130.49999999999989
 31
0.0
  0
LINE
  5
42
  8
1
 62
     7
 10
274.55799999999988
 20
130.49999999999989
 30
0.0
 11
274.55799999999988
 21
142.5
 31
0.0
  0
LINE
  5
43
  8
1
 62
     7
 10
278.69200000000001
 20
142.5
 30
0.0
 11
278.69200000000001
 21
130.49999999999989
 31
0.0
  0
LINE
  5
44
  8
1
 62
     3
 10
279.125
 20
142.5
 30
0.0
 11
279.125
 21
130.49999999999989
 31
0.0
  0
LINE
  5
45
  8
1
 62
     7
 10
281.625
 20
142.5
 30
0.0
 11
266.02499999999998
 21
142.5
 31
0.0
  0
LINE
  5
46
  8
1
 62
     7
 10
239.65000000000001
 20
179.30000000000001
 30
0.0
 11
239.65000000000001
 21
199.30000000000001
 31
0.0
  0
LINE
  5
47
  8
1
 62
     7
 10
241.40000000000001
 20
179.30000000000001
 30
0.0
 11
241.40000000000001
 21
199.30000000000001
 31
0.0
  0
LINE
  5
48
  8
1
 62
     7
 10
257.62499999999989
 20
127.5
 30
0.0
 11
265.62499999999989
 21
127.5
 31
0.0
  0
LINE
  5
49
  8
1
 62
     7
 10
264.72500000000002
 20
130.24999999999989
 30
0.0
 11
265.62499999999989
 21
129.34999999999991
 31
0.0
  0
LINE
  5
4A
  8
1
 62
     7
 10
257.22500000000002
 20
119.55
 30
0.0
 11
257.22500000000002
 21
135.0
 31
0.0
  0
LINE
  5
4B
  8
1
 62
     7
 10
263.72500000000002
 20
127.5
 30
0.0
 11
263.72500000000002
 21
119.55
 31
0.0
  0
LINE
  5
4C
  8
1
 62
     7
 10
257.22500000000002
 20
119.55
 30
0.0
 11
265.62499999999989
 21
119.55
 31
0.0
  0
LINE
  5
4D
  8
1
 62
     7
 10
257.62499999999989
 20
126.0
 30
0.0
 11
257.22500000000002
 21
126.0
 31
0.0
  0
LINE
  5
4E
  8
1
 62
     7
 10
257.62499999999989
 20
119.55
 30
0.0
 11
257.62499999999989
 21
135.0
 31
0.0
  0
LINE
  5
4F
  8
1
 62
     7
 10
255.3249999999999
 20
135.0
 30
0.0
 11
257.62499999999989
 21
135.0
 31
0.0
  0
LINE
  5
50
  8
1
 62
     7
 10
264.72500000000002
 20
136.49999999999989
 30
0.0
 11
255.3249999999999
 21
136.49999999999989
 31
0.0
  0
LINE
  5
51
  8
1
 62
     7
 10
235.32499999999999
 20
134.49999999999989
 30
0.0
 11
257.62499999999989
 21
134.49999999999989
 31
0.0
  0
LINE
  5
52
  8
1
 62
     7
 10
235.32499999999999
 20
133.80000000000001
 30
0.0
 11
233.97499999999991
 21
133.80000000000001
 31
0.0
  0
LINE
  5
53
  8
1
 62
     7
 10
233.97499999999991
 20
134.49999999999989
 30
0.0
 11
231.125
 21
134.49999999999989
 31
0.0
  0
LINE
  5
54
  8
1
  6
DASHDOT
 62
     3
 10
273.12499999999989
 20
148.5
 30
0.0
 11
284.62499999999989
 21
148.5
 31
0.0
  0
LINE
  5
55
  8
1
 62
     3
 10
270.8077832284726
 20
161.0
 30
0.0
 11
271.46423048454119
 21
161.37899999999991
 31
0.0
  0
LINE
  5
56
  8
1
 62
     3
 10
270.8077832284726
 20
165.0
 30
0.0
 11
271.46423048454119
 21
164.6209999999999
 31
0.0
  0
LINE
  5
57
  8
1
 62
     7
 10
275.54599999999988
 20
161.0
 30
0.0
 11
275.92500000000001
 21
161.37899999999991
 31
0.0
  0
LINE
  5
58
  8
1
  6
DASHDOT
 62
     3
 10
188.87499999999989
 20
148.5
 30
0.0
 11
191.875
 21
148.5
 31
0.0
  0
LINE
  5
59
  8
1
  6
DASHDOT
 62
     3
 10
383.11889065523332
 20
119.7561093447667
 30
0.0
 11
377.95701115257128
 21
124.9179888474285
 31
0.0
  0
LINE
  5
5A
  8
1
  6
DASHDOT
 62
     3
 10
325.6311093447668
 20
119.7561093447667
 30
0.0
 11
330.79298884742872
 21
124.9179888474285
 31
0.0
  0
LINE
  5
5B
  8
1
  6
DASHDOT
 62
     3
 10
325.6311093447668
 20
177.2438906552332
 30
0.0
 11
330.79298884742872
 21
172.0820111525712
 31
0.0
  0
LINE
  5
5C
  8
1
  6
DASHDOT
 62
     3
 10
383.11889065523332
 20
177.243890655233
 30
0.0
 11
377.9570111525714
 21
172.0820111525712
 31
0.0
  0
LINE
  5
5D
  8
1
  6
DASHDOT
 62
     3
 10
352.875
 20
148.5
 30
0.0
 11
355.87499999999989
 21
148.5
 31
0.0
  0
LINE
  5
5E
  8
1
  6
DASHDOT
 62
     3
 10
354.375
 20
150.0
 30
0.0
 11
354.375
 21
147.0
 31
0.0
  0
LINE
  5
5F
  8
1
 62
     7
 10
265.62499999999989
 20
167.65000000000001
 30
0.0
 11
264.72500000000002
 21
166.74999999999989
 31
0.0
  0
LINE
  5
60
  8
1
 62
     7
 10
265.62499999999989
 20
169.5
 30
0.0
 11
257.62499999999989
 21
169.5
 31
0.0
  0
LINE
  5
61
  8
1
 62
     7
 10
265.62499999999989
 20
177.4499999999999
 30
0.0
 11
257.22500000000002
 21
177.4499999999999
 31
0.0
  0
LINE
  5
62
  8
1
 62
     7
 10
265.62499999999989
 20
179.0
 30
0.0
 11
265.62499999999989
 21
160.49999999999989
 31
0.0
  0
LINE
  5
63
  8
1
 62
     7
 10
257.22500000000002
 20
162.0
 30
0.0
 11
257.22500000000002
 21
177.4499999999999
 31
0.0
  0
LINE
  5
64
  8
1
 62
     7
 10
255.3249999999999
 20
162.0
 30
0.0
 11
255.3249999999999
 21
160.49999999999989
 31
0.0
  0
LINE
  5
65
  8
1
 62
     7
 10
263.72500000000002
 20
177.44864105152399
 30
0.0
 11
263.72500000000002
 21
169.5
 31
0.0
  0
LINE
  5
66
  8
1
 62
     7
 10
255.3249999999999
 20
160.49999999999989
 30
0.0
 11
264.72500000000002
 21
160.49999999999989
 31
0.0
  0
LINE
  5
67
  8
1
 62
     7
 10
264.72500000000002
 20
166.74999999999989
 30
0.0
 11
264.72500000000002
 21
160.49999999999989
 31
0.0
  0
LINE
  5
68
  8
1
 62
     7
 10
257.62499999999989
 20
162.0
 30
0.0
 11
255.3249999999999
 21
162.0
 31
0.0
  0
LINE
  5
69
  8
1
 62
     7
 10
257.62499999999989
 20
162.0
 30
0.0
 11
257.62499999999989
 21
177.4499999999999
 31
0.0
  0
LINE
  5
6A
  8
1
 62
     7
 10
257.22500000000002
 20
171.0
 30
0.0
 11
257.62499999999989
 21
171.0
 31
0.0
  0
LINE
  5
6B
  8
1
 62
     7
 10
235.32499999999999
 20
162.5
 30
0.0
 11
257.62499999999989
 21
162.5
 31
0.0
  0
LINE
  5
6C
  8
1
 62
     7
 10
235.32499999999999
 20
163.1999999999999
 30
0.0
 11
235.32499999999999
 21
162.5
 31
0.0
  0
LINE
  5
6D
  8
1
 62
     7
 10
233.97499999999991
 20
163.1999999999999
 30
0.0
 11
235.32499999999999
 21
163.1999999999999
 31
0.0
  0
LINE
  5
6E
  8
1
 62
     7
 10
231.125
 20
162.5
 30
0.0
 11
233.97499999999991
 21
162.5
 31
0.0
  0
LINE
  5
6F
  8
1
 62
     7
 10
233.02499999999989
 20
118.0
 30
0.0
 11
233.02499999999989
 21
134.49999999999989
 31
0.0
  0
LINE
  5
70
  8
1
 62
     7
 10
231.125
 20
118.0
 30
0.0
 11
233.02499999999989
 21
118.0
 31
0.0
  0
LINE
  5
71
  8
1
 62
     7
 10
231.125
 20
179.0
 30
0.0
 11
231.125
 21
162.5
 31
0.0
  0
LINE
  5
72
  8
1
 62
     7
 10
233.02499999999989
 20
179.0
 30
0.0
 11
231.125
 21
179.0
 31
0.0
  0
LINE
  5
73
  8
1
 62
     7
 10
234.02500000000001
 20
118.0
 30
0.0
 11
265.62499999999989
 21
118.0
 31
0.0
  0
LINE
  5
74
  8
1
 62
     7
 10
233.02499999999989
 20
119.0
 30
0.0
 11
234.02500000000001
 21
118.0
 31
0.0
  0
LINE
  5
75
  8
1
 62
     7
 10
234.02500000000001
 20
179.0
 30
0.0
 11
233.02499999999989
 21
178.0
 31
0.0
  0
LINE
  5
76
  8
1
  6
DASHDOT
 62
     3
 10
228.125
 20
148.5
 30
0.0
 11
231.125
 21
148.5
 31
0.0
  0
LINE
  5
77
  8
1
 62
     7
 10
233.97499999999991
 20
163.1999999999999
 30
0.0
 11
233.97499999999991
 21
162.5
 31
0.0
  0
LINE
  5
78
  8
1
 62
     7
 10
238.02500000000001
 20
179.0
 30
0.0
 11
238.02500000000001
 21
179.30000000000001
 31
0.0
  0
LINE
  5
79
  8
1
 62
     7
 10
238.02500000000001
 20
179.30000000000001
 30
0.0
 11
243.02500000000001
 21
179.30000000000001
 31
0.0
  0
LINE
  5
7A
  8
1
 62
     7
 10
243.02500000000001
 20
179.30000000000001
 30
0.0
 11
243.02500000000001
 21
179.0
 31
0.0
  0
LINE
  5
7B
  8
1
 62
     7
 10
234.02500000000001
 20
179.0
 30
0.0
 11
265.62499999999989
 21
179.0
 31
0.0
  0
LINE
  5
7C
  8
1
 62
     3
 10
240.86000000000001
 20
202.30000000000001
 30
0.0
 11
240.86000000000001
 21
199.30000000000001
 31
0.0
  0
LINE
  5
7D
  8
1
 62
     3
 10
240.18999999999991
 20
199.30000000000001
 30
0.0
 11
240.18999999999991
 21
202.30000000000001
 31
0.0
  0
LINE
  5
7E
  8
1
 62
     7
 10
239.65000000000001
 20
199.30000000000001
 30
0.0
 11
241.40000000000001
 21
199.30000000000001
 31
0.0
  0
LINE
  5
7F
  8
1
 62
     7
 10
269.92500000000001
 20
167.5
 30
0.0
 11
265.92500000000001
 21
167.5
 31
0.0
  0
LINE
  5
80
  8
1
 62
     7
 10
269.92500000000001
 20
117.84999999999989
 30
0.0
 11
265.92500000000001
 21
117.84999999999989
 31
0.0
  0
LINE
  5
81
  8
1
 62
     7
 10
265.92500000000001
 20
179.15000000000001
 30
0.0
 11
269.92500000000001
 21
179.15000000000001
 31
0.0
  0
LINE
  5
82
  8
1
 62
     7
 10
270.42500000000001
 20
118.5
 30
0.0
 11
269.92500000000001
 21
118.5
 31
0.0
  0
LINE
  5
83
  8
1
 62
     7
 10
266.22500000000002
 20
166.5
 30
0.0
 11
269.92500000000001
 21
166.5
 31
0.0
  0
LINE
  5
84
  8
1
 62
     7
 10
265.92500000000001
 20
165.9803847577293
 30
0.0
 11
266.22500000000002
 21
166.5
 31
0.0
  0
LINE
  5
85
  8
1
 62
     7
 10
266.22500000000002
 20
159.49999999999989
 30
0.0
 11
265.92500000000001
 21
160.0196152422705
 31
0.0
  0
LINE
  5
86
  8
1
 62
     7
 10
266.22500000000002
 20
159.49999999999989
 30
0.0
 11
266.22500000000002
 21
166.5
 31
0.0
  0
LINE
  5
87
  8
1
 62
     7
 10
275.54599999999988
 20
165.0
 30
0.0
 11
269.92500000000001
 21
165.0
 31
0.0
  0
LINE
  5
88
  8
1
 62
     7
 10
275.92500000000001
 20
164.6209999999999
 30
0.0
 11
275.54599999999988
 21
165.0
 31
0.0
  0
LINE
  5
89
  8
1
 62
     7
 10
269.92500000000001
 20
161.0
 30
0.0
 11
275.54599999999988
 21
161.0
 31
0.0
  0
LINE
  5
8A
  8
1
 62
     7
 10
275.54599999999988
 20
161.0
 30
0.0
 11
275.54599999999988
 21
165.0
 31
0.0
  0
LINE
  5
8B
  8
1
 62
     7
 10
271.46423048454119
 20
161.0
 30
0.0
 11
271.46423048454119
 21
165.0
 31
0.0
  0
LINE
  5
8C
  8
1
 62
     3
 10
271.46423048454119
 20
164.6209999999999
 30
0.0
 11
275.92500000000001
 21
164.6209999999999
 31
0.0
  0
LINE
  5
8D
  8
1
 62
     3
 10
271.46423048454119
 20
161.37899999999991
 30
0.0
 11
275.92500000000001
 21
161.37899999999991
 31
0.0
  0
LINE
  5
8E
  8
1
 62
     7
 10
266.30723304703338
 20
165.00355339059331
 30
0.0
 11
267.80367965644041
 21
166.5
 31
0.0
  0
LINE
  5
8F
  8
1
 62
     7
 10
269.16213920561052
 20
164.269967575576
 30
0.0
 11
267.0143398282201
 21
166.41776695296639
 31
0.0
  0
LINE
  5
90
  8
1
 62
     7
 10
268.42855339059332
 20
163.5893398282202
 30
0.0
 11
266.30723304703338
 21
165.71066017177981
 31
0.0
  0
LINE
  5
91
  8
1
 62
     7
 10
266.66078643762683
 20
163.94289321881351
 30
0.0
 11
269.13566017177988
 21
166.41776695296639
 31
0.0
  0
LINE
  5
92
  8
1
 62
     7
 10
269.42500000000001
 20
165.4213203435595
 30
0.0
 11
268.34632034355963
 21
166.5
 31
0.0
  0
LINE
  5
93
  8
1
 62
     7
 10
267.72144660940683
 20
163.5893398282202
 30
0.0
 11
269.24244140274737
 21
165.11033462156109
 31
0.0
  0
LINE
  5
94
  8
1
 62
     7
 10
266.02499999999998
 20
159.49999999999989
 30
0.0
 11
266.02499999999998
 21
154.15685424949231
 31
0.0
  0
LINE
  5
95
  8
1
 62
     7
 10
270.42500000000001
 20
166.5
 30
0.0
 11
281.625
 21
166.5
 31
0.0
  0
LINE
  5
96
  8
1
 62
     7
 10
281.625
 20
166.5
 30
0.0
 11
281.625
 21
154.15685424949231
 31
0.0
  0
LINE
  5
97
  8
1
 62
     7
 10
281.625
 20
130.49999999999989
 30
0.0
 11
270.42500000000001
 21
130.49999999999989
 31
0.0
  0
LINE
  5
98
  8
1
 62
     7
 10
266.02499999999998
 20
156.0
 30
0.0
 11
281.625
 21
156.0
 31
0.0
  0
LINE
  5
99
  8
1
 62
     7
 10
266.02499999999998
 20
154.15685424949231
 30
0.0
 11
281.625
 21
154.15685424949231
 31
0.0
  0
LINE
  5
9A
  8
1
 62
     7
 10
270.42500000000001
 20
159.49999999999989
 30
0.0
 11
266.02499999999998
 21
159.49999999999989
 31
0.0
  0
LINE
  5
9B
  8
1
 62
     7
 10
269.92500000000001
 20
178.5
 30
0.0
 11
270.42500000000001
 21
178.5
 31
0.0
  0
LINE
  5
9C
  8
1
 62
     7
 10
270.42500000000001
 20
165.0
 30
0.0
 11
270.42500000000001
 21
178.5
 31
0.0
  0
LINE
  5
9D
  8
1
 62
     7
 10
270.42500000000001
 20
161.0
 30
0.0
 11
270.42500000000001
 21
159.49999999999989
 31
0.0
  0
LINE
  5
9E
  8
1
 62
     7
 10
269.92500000000001
 20
159.49999999999989
 30
0.0
 11
269.92500000000001
 21
179.15000000000001
 31
0.0
  0
LINE
  5
9F
  8
1
  6
DASHDOT
 62
     3
 10
276.62499999999989
 20
129.49999999999989
 30
0.0
 11
276.62499999999989
 21
152.0
 31
0.0
  0
LINE
  5
A0
  8
1
 62
     7
 10
269.92500000000001
 20
117.84999999999989
 30
0.0
 11
269.92500000000001
 21
119.4499707845815
 31
0.0
  0
LINE
  5
A1
  8
1
 62
     7
 10
275.92500000000001
 20
164.6209999999999
 30
0.0
 11
275.92500000000001
 21
161.37899999999991
 31
0.0
  0
LINE
  5
A2
  8
1
 62
     7
 10
275.92500000000001
 20
164.6209999999999
 30
0.0
 11
281.625
 21
164.6209999999999
 31
0.0
  0
LINE
  5
A3
  8
1
 62
     7
 10
275.92500000000001
 20
161.37899999999991
 30
0.0
 11
281.625
 21
161.37899999999991
 31
0.0
  0
LINE
  5
A4
  8
1
 62
     3
 10
275.54599999999988
 20
165.0
 30
0.0
 11
281.625
 21
165.0
 31
0.0
  0
LINE
  5
A5
  8
1
 62
     3
 10
275.54599999999988
 20
161.0
 30
0.0
 11
281.625
 21
161.0
 31
0.0
  0
LINE
  5
A6
  8
1
 62
     7
 10
148.65000000000001
 20
179.30000000000001
 30
0.0
 11
148.65000000000001
 21
199.30000000000001
 31
0.0
  0
LINE
  5
A7
  8
1
 62
     7
 10
172.87499999999989
 20
179.0
 30
0.0
 11
172.87499999999989
 21
118.0
 31
0.0
  0
LINE
  5
A8
  8
1
 62
     7
 10
384.87499999999989
 20
119.2628233237202
 30
0.0
 11
384.87499999999989
 21
145.47138645581811
 31
0.0
  0
LINE
  5
A9
  8
1
 62
     7
 10
325.13782332372011
 20
118.0
 30
0.0
 11
351.34638645581811
 21
118.0
 31
0.0
  0
LINE
  5
AA
  8
1
 62
     7
 10
323.875
 20
177.7371766762798
 30
0.0
 11
323.875
 21
151.52861354418189
 31
0.0
  0
LINE
  5
AB
  8
1
 62
     7
 10
383.61217667627977
 20
179.0
 30
0.0
 11
357.40361354418189
 21
179.0
 31
0.0
  0
LINE
  5
AC
  8
1
 62
     7
 10
140.27500000000001
 20
118.0
 30
0.0
 11
140.27500000000001
 21
179.0
 31
0.0
  0
LINE
  5
AD
  8
1
 62
     7
 10
138.375
 20
118.0
 30
0.0
 11
140.27500000000001
 21
118.0
 31
0.0
  0
LINE
  5
AE
  8
1
 62
     7
 10
138.375
 20
179.0
 30
0.0
 11
138.375
 21
118.0
 31
0.0
  0
LINE
  5
AF
  8
1
 62
     7
 10
140.27500000000001
 20
179.0
 30
0.0
 11
138.375
 21
179.0
 31
0.0
  0
LINE
  5
B0
  8
1
 62
     7
 10
141.27500000000001
 20
118.0
 30
0.0
 11
172.87499999999989
 21
118.0
 31
0.0
  0
LINE
  5
B1
  8
1
 62
     7
 10
140.27500000000001
 20
119.0
 30
0.0
 11
141.27500000000001
 21
118.0
 31
0.0
  0
LINE
  5
B2
  8
1
 62
     7
 10
141.27500000000001
 20
179.0
 30
0.0
 11
140.27500000000001
 21
178.0
 31
0.0
  0
LINE
  5
B3
  8
1
  6
DASHDOT
 62
     3
 10
135.375
 20
148.5
 30
0.0
 11
138.375
 21
148.5
 31
0.0
  0
LINE
  5
B4
  8
1
 62
     7
 10
141.27500000000001
 20
118.0
 30
0.0
 11
141.27500000000001
 21
179.0
 31
0.0
  0
LINE
  5
B5
  8
1
 62
     7
 10
351.875
 20
179.30000000000001
 30
0.0
 11
356.875
 21
179.30000000000001
 31
0.0
  0
LINE
  5
B6
  8
1
 62
     7
 10
356.875
 20
179.30000000000001
 30
0.0
 11
356.875
 21
179.0478722663297
 31
0.0
  0
LINE
  5
B7
  8
1
 62
     7
 10
145.27499999999989
 20
179.0
 30
0.0
 11
145.27499999999989
 21
179.30000000000001
 31
0.0
  0
LINE
  5
B8
  8
1
 62
     7
 10
145.27499999999989
 20
179.30000000000001
 30
0.0
 11
150.27499999999989
 21
179.30000000000001
 31
0.0
  0
LINE
  5
B9
  8
1
 62
     7
 10
150.27499999999989
 20
179.30000000000001
 30
0.0
 11
150.27499999999989
 21
179.0
 31
0.0
  0
LINE
  5
BA
  8
1
 62
     7
 10
141.27500000000001
 20
179.0
 30
0.0
 11
172.87499999999989
 21
179.0
 31
0.0
  0
LINE
  5
BB
  8
1
 62
     7
 10
356.125
 20
179.30000000000001
 30
0.0
 11
356.125
 21
199.30000000000001
 31
0.0
  0
LINE
  5
BC
  8
1
 62
     7
 10
354.375
 20
179.30000000000001
 30
0.0
 11
354.375
 21
199.30000000000001
 31
0.0
  0
LINE
  5
BD
  8
1
 62
     7
 10
352.625
 20
179.30000000000001
 30
0.0
 11
352.625
 21
199.30000000000001
 31
0.0
  0
LINE
  5
BE
  8
1
 62
     7
 10
146.90000000000001
 20
179.30000000000001
 30
0.0
 11
146.90000000000001
 21
199.30000000000001
 31
0.0
  0
LINE
  5
BF
  8
1
 62
     7
 10
384.87499999999989
 20
151.52861354418189
 30
0.0
 11
384.87499999999989
 21
177.7371766762798
 31
0.0
  0
LINE
  5
C0
  8
1
 62
     7
 10
323.875
 20
145.47138645581811
 30
0.0
 11
323.875
 21
119.2628233237202
 31
0.0
  0
LINE
  5
C1
  8
1
 62
     7
 10
357.40361354418189
 20
118.0
 30
0.0
 11
383.61217667627977
 21
118.0
 31
0.0
  0
LINE
  5
C2
  8
1
 62
     7
 10
351.34638645581811
 20
179.0
 30
0.0
 11
325.13782332372011
 21
179.0
 31
0.0
  0
LINE
  5
C3
  8
1
 62
     7
 10
351.875
 20
179.0478722663297
 30
0.0
 11
351.875
 21
179.30000000000001
 31
0.0
  0
LINE
  5
C4
  8
1
 62
     7
 10
177.17500000000001
 20
117.84999999999989
 30
0.0
 11
173.17500000000001
 21
117.84999999999989
 31
0.0
  0
LINE
  5
C5
  8
1
 62
     7
 10
173.17500000000001
 20
179.15000000000001
 30
0.0
 11
177.17500000000001
 21
179.15000000000001
 31
0.0
  0
LINE
  5
C6
  8
1
 62
     7
 10
177.67500000000001
 20
118.5
 30
0.0
 11
177.17500000000001
 21
118.5
 31
0.0
  0
LINE
  5
C7
  8
1
 62
     7
 10
173.17500000000001
 20
179.15000000000001
 30
0.0
 11
173.17500000000001
 21
117.84999999999989
 31
0.0
  0
LINE
  5
C8
  8
1
 62
     7
 10
339.80208665709449
 20
136.04487267426899
 30
0.0
 11
336.41668957013309
 21
134.09031275479799
 31
0.0
  0
LINE
  5
C9
  8
1
 62
     7
 10
350.875
 20
167.3480768249708
 30
0.0
 11
350.875
 21
171.25719666391271
 31
0.0
  0
LINE
  5
CA
  8
1
 62
     7
 10
372.33331042986703
 20
134.09031275479799
 30
0.0
 11
368.94791334290551
 21
136.04487267426899
 31
0.0
  0
LINE
  5
CB
  8
1
 62
     7
 10
332.91668957013309
 20
140.1524905812891
 30
0.0
 11
336.30208665709461
 21
142.1070505007601
 31
0.0
  0
LINE
  5
CC
  8
1
 62
     7
 10
372.44791334290551
 20
142.1070505007601
 30
0.0
 11
375.83331042986703
 21
140.1524905812891
 31
0.0
  0
LINE
  5
CD
  8
1
 62
     7
 10
357.87499999999989
 20
171.25719666391271
 30
0.0
 11
357.87499999999989
 21
167.3480768249708
 31
0.0
  0
LINE
  5
CE
  8
1
 62
     7
 10
352.375
 20
154.15685424949231
 30
0.0
 11
352.37499999999977
 21
156.0
 31
0.0
  0
LINE
  5
CF
  8
1
 62
     7
 10
177.67500000000001
 20
166.5
 30
0.0
 11
188.87499999999989
 21
166.5
 31
0.0
  0
LINE
  5
D0
  8
1
 62
     7
 10
188.87499999999989
 20
166.5
 30
0.0
 11
188.87499999999989
 21
130.49999999999989
 31
0.0
  0
LINE
  5
D1
  8
1
 62
     7
 10
188.87499999999989
 20
130.49999999999989
 30
0.0
 11
177.67500000000001
 21
130.49999999999989
 31
0.0
  0
LINE
  5
D2
  8
1
 62
     7
 10
352.37499999999977
 20
156.0
 30
0.0
 11
356.37499999999977
 21
156.0
 31
0.0
  0
LINE
  5
D3
  8
1
 62
     7
 10
356.37499999999977
 20
156.0
 30
0.0
 11
356.375
 21
154.15685424949231
 31
0.0
  0
LINE
  5
D4
  8
1
 62
     7
 10
177.17500000000001
 20
178.5
 30
0.0
 11
177.67500000000001
 21
178.5
 31
0.0
  0
LINE
  5
D5
  8
1
 62
     7
 10
177.17500000000001
 20
117.84999999999989
 30
0.0
 11
177.17500000000001
 21
179.15000000000001
 31
0.0
  0
LINE
  5
D6
  8
1
 62
     7
 10
177.67500000000001
 20
118.5
 30
0.0
 11
177.67500000000001
 21
178.5
 31
0.0
  0
LINE
  5
D7
  8
1
 62
     7
 10
231.125
 20
162.5
 30
0.0
 11
231.125
 21
134.49999999999989
 31
0.0
  0
LINE
  5
D8
  8
1
 62
     7
 10
231.125
 20
134.49999999999989
 30
0.0
 11
231.125
 21
118.0
 31
0.0
  0
LINE
  5
D9
  8
1
 62
     7
 10
233.02499999999989
 20
134.49999999999989
 30
0.0
 11
233.02499999999989
 21
162.5
 31
0.0
  0
LINE
  5
DA
  8
1
 62
     7
 10
233.02499999999989
 20
162.5
 30
0.0
 11
233.02499999999989
 21
179.0
 31
0.0
  0
LINE
  5
DB
  8
1
 62
     7
 10
233.97499999999991
 20
162.5
 30
0.0
 11
233.97499999999991
 21
134.49999999999989
 31
0.0
  0
LINE
  5
DC
  8
1
 62
     7
 10
233.97499999999991
 20
134.49999999999989
 30
0.0
 11
233.97499999999991
 21
133.80000000000001
 31
0.0
  0
LINE
  5
DD
  8
1
 62
     7
 10
235.32499999999999
 20
134.49999999999989
 30
0.0
 11
235.32499999999999
 21
133.80000000000001
 31
0.0
  0
LINE
  5
DE
  8
1
 62
     7
 10
235.32499999999999
 20
162.5
 30
0.0
 11
235.32499999999999
 21
134.49999999999989
 31
0.0
  0
LINE
  5
DF
  8
1
 62
     7
 10
255.3249999999999
 20
160.49999999999989
 30
0.0
 11
255.3249999999999
 21
136.49999999999989
 31
0.0
  0
LINE
  5
E0
  8
1
 62
     7
 10
255.3249999999999
 20
136.49999999999989
 30
0.0
 11
255.3249999999999
 21
135.0
 31
0.0
  0
LINE
  5
E1
  8
1
 62
     7
 10
264.72500000000002
 20
136.49999999999989
 30
0.0
 11
264.72500000000002
 21
130.24999999999989
 31
0.0
  0
LINE
  5
E2
  8
1
 62
     7
 10
264.72500000000002
 20
160.49999999999989
 30
0.0
 11
264.72500000000002
 21
136.49999999999989
 31
0.0
  0
LINE
  5
E3
  8
1
 62
     7
 10
265.62499999999989
 20
160.49999999999989
 30
0.0
 11
265.62499999999989
 21
136.49999999999989
 31
0.0
  0
LINE
  5
E4
  8
1
 62
     7
 10
265.62499999999989
 20
136.49999999999989
 30
0.0
 11
265.62499999999989
 21
118.0
 31
0.0
  0
LINE
  5
E5
  8
1
 62
     7
 10
265.92500000000001
 20
136.49999999999989
 30
0.0
 11
265.92500000000001
 21
160.0196152422705
 31
0.0
  0
LINE
  5
E6
  8
1
 62
     7
 10
266.02499999999998
 20
142.5
 30
0.0
 11
266.02499999999998
 21
137.5
 31
0.0
  0
LINE
  5
E7
  8
1
 62
     7
 10
266.02499999999998
 20
154.15685424949231
 30
0.0
 11
266.02499999999998
 21
142.5
 31
0.0
  0
LINE
  5
E8
  8
1
 62
     7
 10
281.625
 20
142.5
 30
0.0
 11
281.625
 21
130.49999999999989
 31
0.0
  0
LINE
  5
E9
  8
1
 62
     7
 10
281.625
 20
154.15685424949231
 30
0.0
 11
281.625
 21
142.5
 31
0.0
  0
LINE
  5
EA
  8
1
 62
     7
 10
265.92500000000001
 20
160.0196152422705
 30
0.0
 11
265.92500000000001
 21
179.15000000000001
 31
0.0
  0
LINE
  5
EB
  8
1
 62
     3
 10
240.52500000000001
 20
199.30000000000001
 30
0.0
 11
240.52500000000001
 21
202.30000000000001
 31
0.0
  0
LINE
  5
EC
  8
1
 62
     3
 10
148.11000000000001
 20
202.30000000000001
 30
0.0
 11
148.11000000000001
 21
199.30000000000001
 31
0.0
  0
LINE
  5
ED
  8
1
 62
     3
 10
147.43999999999991
 20
199.30000000000001
 30
0.0
 11
147.43999999999991
 21
202.30000000000001
 31
0.0
  0
LINE
  5
EE
  8
1
 62
     7
 10
146.90000000000001
 20
199.30000000000001
 30
0.0
 11
148.65000000000001
 21
199.30000000000001
 31
0.0
  0
LINE
  5
EF
  8
1
 62
     3
 10
147.77500000000001
 20
199.30000000000001
 30
0.0
 11
147.77500000000001
 21
202.30000000000001
 31
0.0
  0
LINE
  5
F0
  8
1
 62
     3
 10
353.83499999999992
 20
202.30000000000001
 30
0.0
 11
353.83499999999992
 21
199.30000000000001
 31
0.0
  0
LINE
  5
F1
  8
1
 62
     3
 10
353.16500000000002
 20
199.30000000000001
 30
0.0
 11
353.16500000000008
 21
202.30000000000001
 31
0.0
  0
LINE
  5
F2
  8
1
 62
     3
 10
353.5
 20
199.30000000000001
 30
0.0
 11
353.5
 21
202.30000000000001
 31
0.0
  0
LINE
  5
F3
  8
1
 62
     3
 10
355.58499999999992
 20
202.30000000000001
 30
0.0
 11
355.58499999999992
 21
199.30000000000001
 31
0.0
  0
LINE
  5
F4
  8
1
 62
     3
 10
354.91500000000002
 20
199.30000000000001
 30
0.0
 11
354.91500000000008
 21
202.30000000000001
 31
0.0
  0
LINE
  5
F5
  8
1
 62
     7
 10
356.125
 20
199.30000000000001
 30
0.0
 11
352.625
 21
199.30000000000001
 31
0.0
  0
LINE
  5
F6
  8
1
 62
     3
 10
355.25
 20
199.30000000000001
 30
0.0
 11
355.25
 21
202.30000000000001
 31
0.0
  0
ARC
  5
F7
  8
1
 62
     7
 10
340.55208665709461
 20
134.74583456859239
 30
0.0
 40
1.4999999999999909
 50
44.857165544925451
 51
119.99999999999881
  0
ARC
  5
F8
  8
1
 62
     7
 10
337.16668957013309
 20
132.79127464912131
 30
0.0
 40
1.5000000000000491
 50
119.99999999999881
 51
222.39160806331211
  0
ARC
  5
F9
  8
1
 62
     7
 10
349.37499999999989
 20
167.3480768249708
 30
0.0
 40
1.5000000000001461
 50
284.85716554492581
 51
0.0
  0
ARC
  5
FA
  8
1
 62
     7
 10
349.37499999999989
 20
171.25719666391271
 30
0.0
 40
1.5
 50
0.0
 51
102.3916080633078
  0
ARC
  5
FB
  8
1
 62
     7
 10
371.58331042986703
 20
132.79127464912131
 30
0.0
 40
1.499999999999857
 50
317.60839193669062
 51
60.000000000001087
  0
ARC
  5
FC
  8
1
 62
     7
 10
368.19791334290551
 20
134.74583456859239
 30
0.0
 40
1.5000000000000491
 50
60.000000000001087
 51
135.14283445507749
  0
ARC
  5
FD
  8
1
 62
     7
 10
332.16668957013309
 20
141.45152868696579
 30
0.0
 40
1.4999999999998399
 50
197.6083919366892
 51
300.00000000000102
  0
ARC
  5
FE
  8
1
 62
     7
 10
335.55208665709449
 20
143.40608860643681
 30
0.0
 40
1.49999999999995
 50
300.00000000000102
 51
15.14283445507591
  0
ARC
  5
FF
  8
1
 62
     7
 10
376.58331042986703
 20
141.45152868696579
 30
0.0
 40
1.49999999999995
 50
239.99999999999889
 51
342.39160806331211
  0
ARC
  5
100
  8
1
 62
     7
 10
373.19791334290551
 20
143.40608860643681
 30
0.0
 40
1.5000000000000999
 50
164.8571655449251
 51
239.99999999999889
  0
ARC
  5
101
  8
1
 62
     7
 10
359.375
 20
167.3480768249708
 30
0.0
 40
1.5
 50
180.0
 51
255.1428344550753
  0
ARC
  5
102
  8
1
 62
     7
 10
359.375
 20
171.25719666391271
 30
0.0
 40
1.4999999999999529
 50
77.608391936687184
 51
180.0
  0
ARC
  5
103
  8
1
  6
DASHDOT
 62
     3
 10
354.375
 20
148.5
 30
0.0
 40
36.999999999999993
 50
309.3455544222868
 51
320.6544455777132
  0
ARC
  5
104
  8
1
  6
DASHDOT
 62
     3
 10
354.375
 20
148.5
 30
0.0
 40
36.999999999999957
 50
219.34555442228671
 51
230.6544455777132
  0
ARC
  5
105
  8
1
  6
DASHDOT
 62
     3
 10
354.375
 20
148.5
 30
0.0
 40
36.999999999999993
 50
129.34555442228671
 51
140.6544455777132
  0
ARC
  5
106
  8
1
  6
DASHDOT
 62
     3
 10
354.375
 20
148.5
 30
0.0
 40
36.999999999999957
 50
39.345554422286781
 51
50.654445577713183
  0
ARC
  5
107
  8
1
 62
     7
 10
354.375
 20
148.5
 30
0.0
 40
42.249999999999972
 50
313.7889673467281
 51
316.21103265327179
  0
ARC
  5
108
  8
1
 62
     7
 10
354.375
 20
148.5
 30
0.0
 40
42.249999999999993
 50
223.7889673467281
 51
226.21103265327179
  0
ARC
  5
109
  8
1
 62
     7
 10
354.375
 20
148.5
 30
0.0
 40
42.249999999999972
 50
133.78896734672799
 51
136.2110326532719
  0
ARC
  5
10A
  8
1
 62
     7
 10
354.375
 20
148.5
 30
0.0
 40
42.249999999999993
 50
43.788967346728143
 51
46.2110326532719
  0
ARC
  5
10B
  8
1
 62
     7
 10
354.375
 20
148.5
 30
0.0
 40
24.800000000000122
 50
222.39160806331159
 51
317.60839193668858
  0
ARC
  5
10C
  8
1
 62
     7
 10
354.375
 20
148.5
 30
0.0
 40
24.800000000000001
 50
102.39160806331139
 51
197.60839193668849
  0
ARC
  5
10D
  8
1
 62
     7
 10
354.375
 20
148.5
 30
0.0
 40
24.80000000000009
 50
342.39160806331171
 51
77.608391936688292
  0
ARC
  5
10E
  8
1
 62
     7
 10
354.375
 20
148.5
 30
0.0
 40
6.0000000000000169
 50
109.47122063449051
 51
70.528779365509379
  0
ARC
  5
10F
  8
1
 62
     7
 10
269.44722221487518
 20
121.10000000666039
 30
0.0
 40
2.7777777865980688
 50
290.60969303101911
 51
69.39030696898098
  0
ARC
  5
110
  8
1
 62
     7
 10
176.6972222148751
 20
121.10000000666039
 30
0.0
 40
2.7777777865980591
 50
290.60969303101859
 51
69.39030696898152
  0
ARC
  5
111
  8
1
 62
     7
 10
176.6972222148751
 20
162.20000000666039
 30
0.0
 40
2.7777777865980591
 50
290.60969303101859
 51
69.390306968981633
  0
CIRCLE
  5
112
  8
1
 62
     7
 10
366.93236835487431
 20
141.25
 30
0.0
 40
1.620999999999867
  0
CIRCLE
  5
113
  8
1
 62
     7
 10
341.81763164512557
 20
141.25
 30
0.0
 40
1.6209999999998099
  0
CIRCLE
  5
114
  8
1
 62
     7
 10
354.375
 20
163.0
 30
0.0
 40
1.62099999999998
  0
CIRCLE
  5
115
  8
1
 62
     7
 10
276.62499999999989
 20
148.5
 30
0.0
 40
2.0670000000000059
  0
CIRCLE
  5
116
  8
1
 62
     3
 10
276.62499999999989
 20
148.5
 30
0.0
 40
2.5
  0
CIRCLE
  5
117
  8
1
 62
     7
 10
330.64590393630641
 20
162.1999999999999
 30
0.0
 40
2.60000000000008
  0
CIRCLE
  5
118
  8
1
 62
     7
 10
378.10409606369359
 20
162.1999999999999
 30
0.0
 40
2.5999999999999091
  0
CIRCLE
  5
119
  8
1
 62
     7
 10
354.375
 20
121.09999999999999
 30
0.0
 40
2.6000000000000218
  0
CIRCLE
  5
11A
  8
1
 62
     7
 10
380.53795090390207
 20
122.3370490960977
 30
0.0
 40
2.6500000000000341
  0
CIRCLE
  5
11B
  8
1
 62
     7
 10
328.21204909609781
 20
174.6629509039023
 30
0.0
 40
2.6500000000000901
  0
CIRCLE
  5
11C
  8
1
 62
     7
 10
328.21204909609781
 20
122.3370490960977
 30
0.0
 40
2.6500000000000901
  0
CIRCLE
  5
11D
  8
1
 62
     7
 10
380.5379509039023
 20
174.66295090390221
 30
0.0
 40
2.649999999999864
  0
CIRCLE
  5
11E
  8
1
 62
     7
 10
354.375
 20
148.5
 30
0.0
 40
30.650000000000091
  0
CIRCLE
  5
11F
  8
1
 62
     7
 10
354.375
 20
148.5
 30
0.0
 40
30.0
  0
CIRCLE
  5
120
  8
1
 62
     7
 10
354.375
 20
148.5
 30
0.0
 40
17.99999999999989
  0
CIRCLE
  5
121
  8
1
 62
     3
 10
366.93236835487431
 20
141.25
 30
0.0
 40
2.0
  0
CIRCLE
  5
122
  8
1
 62
     3
 10
341.81763164512557
 20
141.25
 30
0.0
 40
2.0
  0
CIRCLE
  5
123
  8
1
 62
     3
 10
354.375
 20
163.0
 30
0.0
 40
2.0
  0
TEXT
  5
125
  8
1
 62
     7
 10
149.68252386002169
 20
223.57523329798499
 30
0.0
 40
3.5
  1
AMB 40
 41
0.9
  7
SIMPLEX
  0
ENDSEC
  0
EOF
