  0
SECTION
  2
HEADER
  9
$ACADVER
  1
AC1009
  9
$INSBASE
 10
0.0
 20
0.0
 30
0.0
  9
$EXTMIN
 10
150.375
 20
128.34999999999991
 30
0.0
  9
$EXTMAX
 10
352.74999999999989
 20
208.55152419665021
 30
0.0
  9
$LIMMIN
 10
150.375
 20
128.34999999999991
  9
$LIMMAX
 10
352.74999999999989
 20
208.55152419665009
  9
$ORTHOMODE
 70
     0
  9
$REGENMODE
 70
     1
  9
$FILLMODE
 70
     1
  9
$QTEXTMODE
 70
     0
  9
$MIRRTEXT
 70
     1
  9
$DRAGMODE
 70
     2
  9
$LTSCALE
 40
1.0
  9
$OSMODE
 70
    37
  9
$ATTMODE
 70
     1
  9
$TEXTSIZE
 40
3.5
  9
$TRACEWID
 40
0.5
  9
$TEXTSTYLE
  7
STANDARD
  9
$CLAYER
  8
0
  9
$CELTYPE
  6
BYLAYER
  9
$CECOLOR
 62
   256
  9
$DIMSCALE
 40
1.0
  9
$DIMASZ
 40
0.18
  9
$DIMEXO
 40
0.0625
  9
$DIMDLI
 40
0.38
  9
$DIMRND
 40
0.0
  9
$DIMDLE
 40
0.0
  9
$DIMEXE
 40
0.18
  9
$DIMTP
 40
0.0
  9
$DIMTM
 40
0.0
  9
$DIMTXT
 40
0.18
  9
$DIMCEN
 40
0.09
  9
$DIMTSZ
 40
0.0
  9
$DIMTOL
 70
     0
  9
$DIMLIM
 70
     0
  9
$DIMTIH
 70
     1
  9
$DIMTOH
 70
     1
  9
$DIMSE1
 70
     0
  9
$DIMSE2
 70
     0
  9
$DIMTAD
 70
     0
  9
$DIMZIN
 70
     0
  9
$DIMBLK
  1

  9
$DIMASO
 70
     1
  9
$DIMSHO
 70
     1
  9
$DIMPOST
  1

  9
$DIMAPOST
  1

  9
$DIMALT
 70
     0
  9
$DIMALTD
 70
     2
  9
$DIMALTF
 40
25.399999999999999
  9
$DIMLFAC
 40
1.0
  9
$DIMTOFL
 70
     0
  9
$DIMTVP
 40
0.0
  9
$DIMTIX
 70
     0
  9
$DIMSOXD
 70
     0
  9
$DIMSAH
 70
     0
  9
$DIMBLK1
  1

  9
$DIMBLK2
  1

  9
$DIMSTYLE
  2
STANDARD
  9
$DIMCLRD
 70
     0
  9
$DIMCLRE
 70
     0
  9
$DIMCLRT
 70
     0
  9
$DIMTFAC
 40
1.0
  9
$DIMGAP
 40
0.09
  9
$LUNITS
 70
     2
  9
$LUPREC
 70
     4
  9
$SKETCHINC
 40
0.1
  9
$FILLETRAD
 40
2.0
  9
$AUNITS
 70
     0
  9
$AUPREC
 70
     0
  9
$MENU
  1
ACAD
  9
$ELEVATION
 40
0.0
  9
$PELEVATION
 40
0.0
  9
$THICKNESS
 40
0.0
  9
$LIMCHECK
 70
     0
  9
$BLIPMODE
 70
     0
  9
$CHAMFERA
 40
0.0
  9
$CHAMFERB
 40
0.0
  9
$SKPOLY
 70
     0
  9
$TDCREATE
 40
2452093.8967107632
  9
$TDUPDATE
 40
2452093.897130324
  9
$TDINDWG
 40
0.0004246528
  9
$TDUSRTIMER
 40
0.0004246528
  9
$USRTIMER
 70
     1
  9
$ANGBASE
 50
0.0
  9
$ANGDIR
 70
     0
  9
$PDMODE
 70
     0
  9
$PDSIZE
 40
0.0
  9
$PLINEWID
 40
0.0
  9
$COORDS
 70
     1
  9
$SPLFRAME
 70
     0
  9
$SPLINETYPE
 70
     6
  9
$SPLINESEGS
 70
     8
  9
$ATTDIA
 70
     0
  9
$ATTREQ
 70
     1
  9
$HANDLING
 70
 10241
  9
$HANDSEED
  5
12B
  9
$SURFTAB1
 70
     6
  9
$SURFTAB2
 70
     6
  9
$SURFTYPE
 70
     6
  9
$SURFU
 70
     6
  9
$SURFV
 70
     6
  9
$UCSNAME
  2

  9
$UCSORG
 10
0.0
 20
0.0
 30
0.0
  9
$UCSXDIR
 10
1.0
 20
0.0
 30
0.0
  9
$UCSYDIR
 10
0.0
 20
1.0
 30
0.0
  9
$PUCSNAME
  2

  9
$PUCSORG
 10
0.0
 20
0.0
 30
0.0
  9
$PUCSXDIR
 10
1.0
 20
0.0
 30
0.0
  9
$PUCSYDIR
 10
0.0
 20
1.0
 30
0.0
  9
$USERI1
 70
     0
  9
$USERI2
 70
     0
  9
$USERI3
 70
     0
  9
$USERI4
 70
     0
  9
$USERI5
 70
     0
  9
$USERR1
 40
0.0
  9
$USERR2
 40
0.0
  9
$USERR3
 40
0.0
  9
$USERR4
 40
0.0
  9
$USERR5
 40
0.0
  9
$WORLDVIEW
 70
     1
  9
$SHADEDGE
 70
     3
  9
$SHADEDIF
 70
    70
  9
$TILEMODE
 70
     1
  9
$MAXACTVP
 70
    64
  9
$PLIMCHECK
 70
     0
  9
$PEXTMIN
 10
1.0000000000000000E+020
 20
1.0000000000000000E+020
 30
1.0000000000000000E+020
  9
$PEXTMAX
 10
-1.0000000000000000E+020
 20
-1.0000000000000000E+020
 30
-1.0000000000000000E+020
  9
$PLIMMIN
 10
0.0
 20
0.0
  9
$PLIMMAX
 10
12.0
 20
9.0
  9
$UNITMODE
 70
     0
  9
$VISRETAIN
 70
     1
  9
$PLINEGEN
 70
     0
  9
$PSLTSCALE
 70
     1
  0
ENDSEC
  0
SECTION
  2
TABLES
  0
TABLE
  2
VPORT
 70
     2
  0
VPORT
  2
*ACTIVE
 70
     0
 10
0.0
 20
0.0
 11
1.0
 21
1.0
 12
167.2971793388202
 22
202.0586726329002
 13
0.0
 23
0.0
 14
1.0
 24
1.0
 15
0.0
 25
0.0
 16
0.0
 26
0.0
 36
1.0
 17
0.0
 27
0.0
 37
0.0
 40
9.0000000693875108
 41
2.5693779904306222
 42
50.0
 43
0.0
 44
0.0
 50
0.0
 51
0.0
 71
     0
 72
   100
 73
     1
 74
     1
 75
     0
 76
     0
 77
     0
 78
     0
  0
ENDTAB
  0
TABLE
  2
LTYPE
 70
     9
  0
LTYPE
  2
CONTINUOUS
 70
     0
  3
Solid line
 72
    65
 73
     0
 40
0.0
  0
LTYPE
  2
BORDER
 70
     0
  3
__ __ . __ __ .
 72
    65
 73
     6
 40
9.3199013157894743
 49
2.6628289473684199
 49
-1.33141447368421
 49
2.6628289473684199
 49
-1.33141447368421
 49
0.0
 49
-1.33141447368421
  0
LTYPE
  2
CENTER
 70
     0
  3
____ _ ____ _
 72
    65
 73
     4
 40
10.65131578947368
 49
6.6570723684210531
 49
-1.33141447368421
 49
1.33141447368421
 49
-1.33141447368421
  0
LTYPE
  2
DASHDOT
 70
     0
  3
__ . __ . __ .
 72
    65
 73
     4
 40
5.3256578947368416
 49
2.6628289473684199
 49
-1.33141447368421
 49
0.0
 49
-1.33141447368421
  0
LTYPE
  2
DASHED
 70
     0
  3
__ __ __ __ __
 72
    65
 73
     2
 40
3.994243421052631
 49
2.6628289473684199
 49
-1.33141447368421
  0
LTYPE
  2
DIVIDE
 70
     0
  3
__ . . __ . . 
 72
    65
 73
     6
 40
6.6570723684210531
 49
2.6628289473684199
 49
-1.33141447368421
 49
0.0
 49
-1.33141447368421
 49
0.0
 49
-1.33141447368421
  0
LTYPE
  2
DOT
 70
     0
  3
..............
 72
    65
 73
     4
 40
2.6628289473684199
 49
0.0
 49
-1.33141447368421
 49
0.0
 49
-1.33141447368421
  0
LTYPE
  2
HIDDEN
 70
     0
  3
_ _ _ _ _ _ _
 72
    65
 73
     2
 40
1.997121710526315
 49
1.33141447368421
 49
-0.6657072368421053
  0
LTYPE
  2
PHANTOM
 70
     0
  3
_____ _ _ _____ _ _ 
 72
    65
 73
     6
 40
13.31414473684211
 49
6.6570723684210531
 49
-1.33141447368421
 49
1.33141447368421
 49
-1.33141447368421
 49
1.33141447368421
 49
-1.33141447368421
  0
ENDTAB
  0
TABLE
  2
LAYER
 70
     2
  0
LAYER
  2
0
 70
     0
 62
     7
  6
CONTINUOUS
  0
LAYER
  2
1
 70
     0
 62
     7
  6
CONTINUOUS
  0
ENDTAB
  0
TABLE
  2
STYLE
 70
     4
  0
STYLE
  2
STANDARD
 70
     0
 40
0.0
 41
1.0
 50
0.0
 71
     0
 42
3.5
  3
txt
  4

  0
STYLE
  2
SIMPLEX
 70
     0
 40
0.0
 41
1.0
 50
0.0
 71
     0
 42
3.5
  3
simplex
  4

  0
STYLE
  2
COMPLEX
 70
     0
 40
0.0
 41
1.0
 50
0.0
 71
     0
 42
3.5
  3
complex
  4

  0
STYLE
  2
ITALIC
 70
     0
 40
0.0
 41
1.0
 50
0.0
 71
     0
 42
3.5
  3
italic
  4

  0
ENDTAB
  0
TABLE
  2
VIEW
 70
     0
  0
ENDTAB
  0
TABLE
  2
UCS
 70
     0
  0
ENDTAB
  0
TABLE
  2
APPID
 70
     1
  0
APPID
  2
ACAD
 70
     0
  0
ENDTAB
  0
TABLE
  2
DIMSTYLE
 70
     1
  0
DIMSTYLE
  2
STANDARD
 70
     0
  3

  4

  5

  6

  7

 40
1.0
 41
0.18
 42
0.0625
 43
0.38
 44
0.18
 45
0.0
 46
0.0
 47
0.0
 48
0.0
140
0.18
141
0.09
142
0.0
143
25.399999999999999
144
1.0
145
0.0
146
1.0
147
0.09
 71
     0
 72
     0
 73
     1
 74
     1
 75
     0
 76
     0
 77
     0
 78
     0
170
     0
171
     2
172
     0
173
     0
174
     0
175
     0
176
     0
177
     0
178
     0
  0
ENDTAB
  0
ENDSEC
  0
SECTION
  2
BLOCKS
  0
BLOCK
  8
0
  2
$MODEL_SPACE
 70
     0
 10
0.0
 20
0.0
 30
0.0
  3
$MODEL_SPACE
  1

  0
ENDBLK
  5
20
  8
0
  0
BLOCK
 67
     1
  8
0
  2
$PAPER_SPACE
 70
     0
 10
0.0
 20
0.0
 30
0.0
  3
$PAPER_SPACE
  1

  0
ENDBLK
  5
1C
 67
     1
  8
0
  0
ENDSEC
  0
SECTION
  2
ENTITIES
  0
LINE
  5
33
  8
1
 62
     3
 10
333.47500000000008
 20
184.0
 30
0.0
 11
333.47500000000008
 21
181.0
 31
0.0
  0
LINE
  5
34
  8
1
 62
     7
 10
334.35000000000002
 20
181.0
 30
0.0
 11
330.85000000000002
 21
181.0
 31
0.0
  0
LINE
  5
35
  8
1
 62
     3
 10
333.81000000000012
 20
181.0
 30
0.0
 11
333.81000000000012
 21
184.0
 31
0.0
  0
LINE
  5
36
  8
1
 62
     3
 10
333.1400000000001
 20
184.0
 30
0.0
 11
333.1400000000001
 21
181.0
 31
0.0
  0
LINE
  5
37
  8
1
 62
     3
 10
331.72500000000008
 20
184.0
 30
0.0
 11
331.72500000000008
 21
181.0
 31
0.0
  0
LINE
  5
38
  8
1
 62
     3
 10
332.06000000000012
 20
181.0
 30
0.0
 11
332.06000000000012
 21
184.0
 31
0.0
  0
LINE
  5
39
  8
1
 62
     3
 10
331.3900000000001
 20
184.0
 30
0.0
 11
331.3900000000001
 21
181.0
 31
0.0
  0
LINE
  5
3A
  8
1
 62
     3
 10
160.77500000000001
 20
184.0
 30
0.0
 11
160.77500000000001
 21
181.0
 31
0.0
  0
LINE
  5
3B
  8
1
 62
     7
 10
159.89999999999981
 20
181.0
 30
0.0
 11
161.64999999999981
 21
181.0
 31
0.0
  0
LINE
  5
3C
  8
1
 62
     3
 10
161.11000000000001
 20
181.0
 30
0.0
 11
161.11000000000001
 21
184.0
 31
0.0
  0
LINE
  5
3D
  8
1
 62
     3
 10
160.44
 20
184.0
 30
0.0
 11
160.44
 21
181.0
 31
0.0
  0
LINE
  5
3E
  8
1
 62
     3
 10
243.02500000000001
 20
184.0
 30
0.0
 11
243.02500000000001
 21
181.0
 31
0.0
  0
LINE
  5
3F
  8
1
 62
     7
 10
266.625
 20
145.5
 30
0.0
 11
266.625
 21
151.3284271247461
 31
0.0
  0
LINE
  5
40
  8
1
 62
     7
 10
266.625
 20
151.3284271247461
 30
0.0
 11
266.625
 21
159.49999999999989
 31
0.0
  0
LINE
  5
41
  8
1
 62
     7
 10
257.72500000000002
 20
145.5
 30
0.0
 11
257.72500000000002
 21
143.0
 31
0.0
  0
LINE
  5
42
  8
1
 62
     7
 10
257.72500000000002
 20
151.3284271247461
 30
0.0
 11
257.72500000000002
 21
145.5
 31
0.0
  0
LINE
  5
43
  8
1
 62
     7
 10
257.62499999999989
 20
142.5
 30
0.0
 11
257.62499999999989
 21
154.49999999999989
 31
0.0
  0
LINE
  5
44
  8
1
 62
     7
 10
257.42500000000001
 20
142.5
 30
0.0
 11
257.42500000000001
 21
128.49999999999989
 31
0.0
  0
LINE
  5
45
  8
1
 62
     7
 10
257.62499999999989
 20
154.49999999999989
 30
0.0
 11
257.62499999999989
 21
168.65000000000001
 31
0.0
  0
LINE
  5
46
  8
1
 62
     7
 10
257.42500000000001
 20
154.49999999999989
 30
0.0
 11
257.42500000000001
 21
142.5
 31
0.0
  0
LINE
  5
47
  8
1
 62
     7
 10
256.52499999999992
 20
142.5
 30
0.0
 11
256.52499999999992
 21
136.1999999999999
 31
0.0
  0
LINE
  5
48
  8
1
 62
     7
 10
256.52499999999992
 20
154.49999999999989
 30
0.0
 11
256.52499999999992
 21
142.5
 31
0.0
  0
LINE
  5
49
  8
1
 62
     7
 10
250.8249999999999
 20
142.5
 30
0.0
 11
250.8249999999999
 21
141.25
 31
0.0
  0
LINE
  5
4A
  8
1
 62
     7
 10
250.8249999999999
 20
154.49999999999989
 30
0.0
 11
250.8249999999999
 21
142.5
 31
0.0
  0
LINE
  5
4B
  8
1
 62
     7
 10
239.12499999999989
 20
141.0
 30
0.0
 11
239.12499999999989
 21
156.0
 31
0.0
  0
LINE
  5
4C
  8
1
 62
     7
 10
239.12499999999989
 20
156.0
 30
0.0
 11
239.12499999999989
 21
156.34999999999991
 31
0.0
  0
LINE
  5
4D
  8
1
 62
     7
 10
237.97499999999999
 20
141.0
 30
0.0
 11
237.97499999999999
 21
140.65000000000001
 31
0.0
  0
LINE
  5
4E
  8
1
 62
     7
 10
237.97499999999999
 20
156.0
 30
0.0
 11
237.97499999999999
 21
141.0
 31
0.0
  0
LINE
  5
4F
  8
1
 62
     7
 10
237.02499999999989
 20
156.0
 30
0.0
 11
237.02499999999989
 21
141.0
 31
0.0
  0
LINE
  5
50
  8
1
 62
     7
 10
237.02499999999989
 20
141.0
 30
0.0
 11
237.02499999999989
 21
128.40000000000001
 31
0.0
  0
LINE
  5
51
  8
1
 62
     7
 10
235.625
 20
141.0
 30
0.0
 11
235.625
 21
128.40000000000001
 31
0.0
  0
LINE
  5
52
  8
1
 62
     7
 10
235.625
 20
156.0
 30
0.0
 11
235.625
 21
141.0
 31
0.0
  0
LINE
  5
53
  8
1
 62
     7
 10
257.62499999999989
 20
140.25
 30
0.0
 11
260.07499999999999
 21
140.25
 31
0.0
  0
LINE
  5
54
  8
1
 62
     7
 10
264.80450000000002
 20
158.25
 30
0.0
 11
265.07499999999987
 21
157.9795
 31
0.0
  0
LINE
  5
55
  8
1
 62
     7
 10
265.07499999999987
 20
157.9795
 30
0.0
 11
266.625
 21
157.9795
 31
0.0
  0
LINE
  5
56
  8
1
 62
     7
 10
265.07499999999987
 20
155.52049999999991
 30
0.0
 11
266.625
 21
155.52049999999991
 31
0.0
  0
LINE
  5
57
  8
1
 62
     3
 10
261.354422863406
 20
155.52049999999991
 30
0.0
 11
265.07499999999987
 21
155.52049999999991
 31
0.0
  0
LINE
  5
58
  8
1
 62
     3
 10
261.354422863406
 20
157.9795
 30
0.0
 11
265.07499999999987
 21
157.9795
 31
0.0
  0
LINE
  5
59
  8
1
 62
     7
 10
256.32499999999999
 20
167.4499999999999
 30
0.0
 11
256.32499999999999
 21
162.5
 31
0.0
  0
LINE
  5
5A
  8
1
 62
     7
 10
257.42500000000001
 20
161.6999999999999
 30
0.0
 11
256.52499999999992
 21
160.80000000000001
 31
0.0
  0
LINE
  5
5B
  8
1
 62
     7
 10
257.42500000000001
 20
167.4499999999999
 30
0.0
 11
252.02500000000001
 21
167.4499999999999
 31
0.0
  0
LINE
  5
5C
  8
1
 62
     7
 10
257.42500000000001
 20
168.5
 30
0.0
 11
257.42500000000001
 21
154.49999999999989
 31
0.0
  0
LINE
  5
5D
  8
1
 62
     7
 10
256.52499999999992
 20
160.80000000000001
 30
0.0
 11
256.52499999999992
 21
154.49999999999989
 31
0.0
  0
LINE
  5
5E
  8
1
 62
     7
 10
250.8249999999999
 20
154.49999999999989
 30
0.0
 11
256.52499999999992
 21
154.49999999999989
 31
0.0
  0
LINE
  5
5F
  8
1
 62
     7
 10
257.42500000000001
 20
162.5
 30
0.0
 11
252.02500000000001
 21
162.5
 31
0.0
  0
LINE
  5
60
  8
1
 62
     7
 10
252.3249999999999
 20
155.75
 30
0.0
 11
250.8249999999999
 21
155.75
 31
0.0
  0
LINE
  5
61
  8
1
 62
     7
 10
250.8249999999999
 20
155.75
 30
0.0
 11
250.8249999999999
 21
154.49999999999989
 31
0.0
  0
LINE
  5
62
  8
1
 62
     7
 10
252.02500000000001
 20
155.80000000000001
 30
0.0
 11
252.3249999999999
 21
155.80000000000001
 31
0.0
  0
LINE
  5
63
  8
1
 62
     7
 10
252.3249999999999
 20
155.75
 30
0.0
 11
252.3249999999999
 21
167.4499999999999
 31
0.0
  0
LINE
  5
64
  8
1
 62
     7
 10
237.97499999999999
 20
156.34999999999991
 30
0.0
 11
239.12499999999989
 21
156.34999999999991
 31
0.0
  0
LINE
  5
65
  8
1
 62
     7
 10
237.97499999999999
 20
156.0
 30
0.0
 11
235.625
 21
156.0
 31
0.0
  0
LINE
  5
66
  8
1
 62
     7
 10
237.97499999999999
 20
156.34999999999991
 30
0.0
 11
237.97499999999999
 21
156.0
 31
0.0
  0
LINE
  5
67
  8
1
 62
     7
 10
235.625
 20
128.40000000000001
 30
0.0
 11
237.02499999999989
 21
128.40000000000001
 31
0.0
  0
LINE
  5
68
  8
1
 62
     7
 10
235.625
 20
168.59999999999991
 30
0.0
 11
235.625
 21
156.0
 31
0.0
  0
LINE
  5
69
  8
1
 62
     7
 10
237.02499999999989
 20
168.59999999999991
 30
0.0
 11
235.625
 21
168.59999999999991
 31
0.0
  0
LINE
  5
6A
  8
1
 62
     7
 10
238.02500000000001
 20
128.49999999999989
 30
0.0
 11
257.42500000000001
 21
128.49999999999989
 31
0.0
  0
LINE
  5
6B
  8
1
 62
     7
 10
237.02499999999989
 20
129.49999999999989
 30
0.0
 11
238.02500000000001
 21
128.49999999999989
 31
0.0
  0
LINE
  5
6C
  8
1
 62
     7
 10
238.02500000000001
 20
168.5
 30
0.0
 11
237.02499999999989
 21
167.5
 31
0.0
  0
LINE
  5
6D
  8
1
 62
     7
 10
252.02500000000001
 20
156.0
 30
0.0
 11
239.12499999999989
 21
156.0
 31
0.0
  0
LINE
  5
6E
  8
1
  6
DASHDOT
 62
     3
 10
232.62499999999989
 20
148.5
 30
0.0
 11
235.625
 21
148.5
 31
0.0
  0
LINE
  5
6F
  8
1
 62
     7
 10
252.02500000000001
 20
167.4499999999999
 30
0.0
 11
252.02500000000001
 21
155.75
 31
0.0
  0
LINE
  5
70
  8
1
 62
     7
 10
237.02499999999989
 20
168.59999999999991
 30
0.0
 11
237.02499999999989
 21
156.0
 31
0.0
  0
LINE
  5
71
  8
1
 62
     7
 10
238.02500000000001
 20
168.5
 30
0.0
 11
257.42500000000001
 21
168.5
 31
0.0
  0
LINE
  5
72
  8
1
 62
     7
 10
242.14999999999989
 20
181.0
 30
0.0
 11
243.90000000000001
 21
181.0
 31
0.0
  0
LINE
  5
73
  8
1
 62
     7
 10
264.80450000000002
 20
155.25
 30
0.0
 11
260.07499999999999
 21
155.25
 31
0.0
  0
LINE
  5
74
  8
1
 62
     3
 10
264.80450000000002
 20
155.25
 30
0.0
 11
266.625
 21
155.25
 31
0.0
  0
LINE
  5
75
  8
1
 62
     3
 10
264.80450000000002
 20
158.25
 30
0.0
 11
266.625
 21
158.25
 31
0.0
  0
LINE
  5
76
  8
1
 62
     7
 10
260.32499999999999
 20
158.25
 30
0.0
 11
260.32499999999999
 21
168.0
 31
0.0
  0
LINE
  5
77
  8
1
 62
     7
 10
257.72500000000002
 20
154.0
 30
0.0
 11
260.32499999999999
 21
154.0
 31
0.0
  0
LINE
  5
78
  8
1
 62
     3
 10
261.354422863406
 20
155.52049999999991
 30
0.0
 11
260.88590311995853
 21
155.25
 31
0.0
  0
LINE
  5
79
  8
1
 62
     3
 10
261.354422863406
 20
157.9795
 30
0.0
 11
260.88590311995853
 21
158.25
 31
0.0
  0
LINE
  5
7A
  8
1
 62
     7
 10
261.354422863406
 20
158.25
 30
0.0
 11
261.354422863406
 21
155.25
 31
0.0
  0
LINE
  5
7B
  8
1
 62
     7
 10
264.80450000000002
 20
158.25
 30
0.0
 11
264.80450000000002
 21
155.25
 31
0.0
  0
LINE
  5
7C
  8
1
 62
     7
 10
265.07499999999987
 20
155.52049999999991
 30
0.0
 11
264.80450000000002
 21
155.25
 31
0.0
  0
LINE
  5
7D
  8
1
 62
     7
 10
265.07499999999987
 20
157.9795
 30
0.0
 11
265.07499999999987
 21
155.52049999999991
 31
0.0
  0
LINE
  5
7E
  8
1
 62
     7
 10
260.07499999999999
 20
158.25
 30
0.0
 11
264.80450000000002
 21
158.25
 31
0.0
  0
LINE
  5
7F
  8
1
 62
     7
 10
259.33587985837539
 20
159.49999999999989
 30
0.0
 11
259.77499999999998
 21
159.49999999999989
 31
0.0
  0
LINE
  5
80
  8
1
 62
     7
 10
257.62499999999989
 20
160.05000000000001
 30
0.0
 11
260.07499999999999
 21
160.05000000000001
 31
0.0
  0
LINE
  5
81
  8
1
 62
     7
 10
260.07499999999999
 20
129.0
 30
0.0
 11
260.32499999999999
 21
129.0
 31
0.0
  0
LINE
  5
82
  8
1
 62
     7
 10
260.07499999999999
 20
168.0
 30
0.0
 11
260.32499999999999
 21
168.0
 31
0.0
  0
LINE
  5
83
  8
1
 62
     7
 10
257.62499999999989
 20
128.34999999999991
 30
0.0
 11
257.62499999999989
 21
142.5
 31
0.0
  0
LINE
  5
84
  8
1
 62
     7
 10
260.07499999999999
 20
128.34999999999991
 30
0.0
 11
257.62499999999989
 21
128.34999999999991
 31
0.0
  0
LINE
  5
85
  8
1
 62
     7
 10
260.07499999999999
 20
168.65000000000001
 30
0.0
 11
260.07499999999999
 21
154.0
 31
0.0
  0
LINE
  5
86
  8
1
 62
     7
 10
257.62499999999989
 20
168.65000000000001
 30
0.0
 11
260.07499999999999
 21
168.65000000000001
 31
0.0
  0
LINE
  5
87
  8
1
 62
     7
 10
266.625
 20
159.49999999999989
 30
0.0
 11
260.32499999999999
 21
159.49999999999989
 31
0.0
  0
LINE
  5
88
  8
1
 62
     7
 10
260.32499999999999
 20
154.0
 30
0.0
 11
260.32499999999999
 21
155.25
 31
0.0
  0
LINE
  5
89
  8
1
 62
     7
 10
257.72500000000002
 20
154.0
 30
0.0
 11
257.72500000000002
 21
151.3284271247461
 31
0.0
  0
LINE
  5
8A
  8
1
 62
     7
 10
260.32499999999999
 20
137.5
 30
0.0
 11
266.625
 21
137.5
 31
0.0
  0
LINE
  5
8B
  8
1
 62
     7
 10
266.625
 20
137.5
 30
0.0
 11
266.625
 21
145.5
 31
0.0
  0
LINE
  5
8C
  8
1
 62
     7
 10
257.72500000000002
 20
151.3284271247461
 30
0.0
 11
266.625
 21
151.3284271247461
 31
0.0
  0
LINE
  5
8D
  8
1
 62
     7
 10
257.72500000000002
 20
152.40000000000001
 30
0.0
 11
266.625
 21
152.40000000000001
 31
0.0
  0
LINE
  5
8E
  8
1
 62
     7
 10
260.32499999999999
 20
132.49999999999989
 30
0.0
 11
260.57499999999999
 21
132.49999999999989
 31
0.0
  0
LINE
  5
8F
  8
1
 62
     7
 10
260.57499999999999
 20
132.49999999999989
 30
0.0
 11
260.57499999999999
 21
129.49999999999989
 31
0.0
  0
LINE
  5
90
  8
1
 62
     7
 10
260.57499999999999
 20
129.49999999999989
 30
0.0
 11
260.32499999999999
 21
129.49999999999989
 31
0.0
  0
LINE
  5
91
  8
1
 62
     7
 10
260.07499999999999
 20
128.34999999999991
 30
0.0
 11
260.07499999999999
 21
129.90000000000001
 31
0.0
  0
LINE
  5
92
  8
1
 62
     7
 10
260.32499999999999
 20
129.0
 30
0.0
 11
260.32499999999999
 21
129.90000000000001
 31
0.0
  0
LINE
  5
93
  8
1
  6
CENTER
 62
     3
 10
263.62499999999989
 20
136.49999999999989
 30
0.0
 11
263.62499999999989
 21
151.0
 31
0.0
  0
LINE
  5
94
  8
1
 62
     3
 10
243.36000000000001
 20
181.0
 30
0.0
 11
243.36000000000001
 21
184.0
 31
0.0
  0
LINE
  5
95
  8
1
 62
     3
 10
242.68999999999991
 20
184.0
 30
0.0
 11
242.68999999999991
 21
181.0
 31
0.0
  0
LINE
  5
96
  8
1
 62
     7
 10
332.60000000000002
 20
169.05000000000001
 30
0.0
 11
332.60000000000002
 21
181.0
 31
0.0
  0
LINE
  5
97
  8
1
 62
     7
 10
184.375
 20
159.49999999999989
 30
0.0
 11
184.375
 21
137.5
 31
0.0
  0
LINE
  5
98
  8
1
 62
     7
 10
163.27499999999981
 20
169.05000000000001
 30
0.0
 11
163.27499999999981
 21
168.5
 31
0.0
  0
LINE
  5
99
  8
1
 62
     7
 10
158.27499999999981
 20
169.05000000000001
 30
0.0
 11
158.27499999999981
 21
168.5
 31
0.0
  0
LINE
  5
9A
  8
1
 62
     7
 10
175.17500000000001
 20
168.5
 30
0.0
 11
175.17500000000001
 21
128.49999999999989
 31
0.0
  0
LINE
  5
9B
  8
1
 62
     7
 10
153.37499999999989
 20
128.40000000000001
 30
0.0
 11
154.77500000000001
 21
128.40000000000001
 31
0.0
  0
LINE
  5
9C
  8
1
 62
     7
 10
153.37499999999989
 20
168.59999999999991
 30
0.0
 11
153.37499999999989
 21
128.40000000000001
 31
0.0
  0
LINE
  5
9D
  8
1
 62
     7
 10
154.77500000000001
 20
168.59999999999991
 30
0.0
 11
153.37499999999989
 21
168.59999999999991
 31
0.0
  0
LINE
  5
9E
  8
1
 62
     7
 10
155.77500000000001
 20
128.49999999999989
 30
0.0
 11
175.17500000000001
 21
128.49999999999989
 31
0.0
  0
LINE
  5
9F
  8
1
 62
     7
 10
154.77500000000001
 20
129.49999999999989
 30
0.0
 11
155.77500000000001
 21
128.49999999999989
 31
0.0
  0
LINE
  5
A0
  8
1
 62
     7
 10
155.77500000000001
 20
168.5
 30
0.0
 11
154.77500000000001
 21
167.5
 31
0.0
  0
LINE
  5
A1
  8
1
 62
     7
 10
154.77500000000001
 20
168.59999999999991
 30
0.0
 11
154.77500000000001
 21
128.40000000000001
 31
0.0
  0
LINE
  5
A2
  8
1
 62
     7
 10
159.89999999999981
 20
181.0
 30
0.0
 11
159.89999999999981
 21
169.05000000000001
 31
0.0
  0
LINE
  5
A3
  8
1
 62
     7
 10
161.64999999999981
 20
181.0
 30
0.0
 11
161.64999999999981
 21
169.05000000000001
 31
0.0
  0
LINE
  5
A4
  8
1
 62
     7
 10
178.0749999999999
 20
168.0
 30
0.0
 11
178.0749999999999
 21
129.0
 31
0.0
  0
LINE
  5
A5
  8
1
 62
     7
 10
177.8249999999999
 20
129.0
 30
0.0
 11
178.0749999999999
 21
129.0
 31
0.0
  0
LINE
  5
A6
  8
1
 62
     7
 10
177.8249999999999
 20
168.0
 30
0.0
 11
178.0749999999999
 21
168.0
 31
0.0
  0
LINE
  5
A7
  8
1
 62
     7
 10
175.375
 20
128.34999999999991
 30
0.0
 11
175.375
 21
168.65000000000001
 31
0.0
  0
LINE
  5
A8
  8
1
 62
     7
 10
177.8249999999999
 20
128.34999999999991
 30
0.0
 11
175.375
 21
128.34999999999991
 31
0.0
  0
LINE
  5
A9
  8
1
 62
     7
 10
177.8249999999999
 20
168.65000000000001
 30
0.0
 11
177.8249999999999
 21
128.34999999999991
 31
0.0
  0
LINE
  5
AA
  8
1
 62
     7
 10
175.375
 20
168.65000000000001
 30
0.0
 11
177.8249999999999
 21
168.65000000000001
 31
0.0
  0
LINE
  5
AB
  8
1
 62
     7
 10
184.375
 20
159.49999999999989
 30
0.0
 11
178.0749999999999
 21
159.49999999999989
 31
0.0
  0
LINE
  5
AC
  8
1
 62
     7
 10
178.0749999999999
 20
137.5
 30
0.0
 11
184.375
 21
137.5
 31
0.0
  0
LINE
  5
AD
  8
1
 62
     7
 10
178.0749999999999
 20
132.49999999999989
 30
0.0
 11
178.3249999999999
 21
132.49999999999989
 31
0.0
  0
LINE
  5
AE
  8
1
 62
     7
 10
178.3249999999999
 20
132.49999999999989
 30
0.0
 11
178.3249999999999
 21
129.49999999999989
 31
0.0
  0
LINE
  5
AF
  8
1
 62
     7
 10
178.3249999999999
 20
129.49999999999989
 30
0.0
 11
178.0749999999999
 21
129.49999999999989
 31
0.0
  0
LINE
  5
B0
  8
1
 62
     7
 10
334.60000000000002
 20
162.68626095911111
 30
0.0
 11
334.60000000000002
 21
160.1189500386221
 31
0.0
  0
LINE
  5
B1
  8
1
 62
     7
 10
343.66230589874908
 20
144.42257578825769
 30
0.0
 11
345.88566237530563
 21
143.13892032801331
 31
0.0
  0
LINE
  5
B2
  8
1
 62
     7
 10
319.3143376246943
 20
143.13892032801331
 30
0.0
 11
321.53769410125102
 21
144.42257578825769
 31
0.0
  0
LINE
  5
B3
  8
1
 62
     7
 10
343.88566237530563
 20
139.67481871287549
 30
0.0
 11
341.66230589874908
 21
140.95847417312001
 31
0.0
  0
LINE
  5
B4
  8
1
 62
     7
 10
330.60000000000002
 20
160.1189500386221
 30
0.0
 11
330.60000000000002
 21
162.68626095911111
 31
0.0
  0
LINE
  5
B5
  8
1
 62
     7
 10
323.53769410125102
 20
140.95847417312001
 30
0.0
 11
321.3143376246943
 21
139.67481871287561
 31
0.0
  0
LINE
  5
B6
  8
1
 62
     7
 10
331.60000000000002
 20
151.3284271247461
 30
0.0
 11
331.60000000000002
 21
152.40000000000001
 31
0.0
  0
LINE
  5
B7
  8
1
 62
     7
 10
331.60000000000002
 20
152.40000000000001
 30
0.0
 11
333.60000000000002
 21
152.40000000000001
 31
0.0
  0
LINE
  5
B8
  8
1
 62
     7
 10
333.60000000000002
 20
152.40000000000001
 30
0.0
 11
333.60000000000002
 21
151.3284271247461
 31
0.0
  0
LINE
  5
B9
  8
1
 62
     7
 10
334.18101804189382
 20
128.4121210191019
 30
0.0
 11
352.4630213726108
 21
128.4121210191019
 31
0.0
  0
LINE
  5
BA
  8
1
 62
     7
 10
312.5
 20
147.0813739040895
 30
0.0
 11
312.5
 21
128.64924434687691
 31
0.0
  0
LINE
  5
BB
  8
1
 62
     7
 10
312.5
 20
149.91862609591041
 30
0.0
 11
312.5
 21
168.350755653123
 31
0.0
  0
LINE
  5
BC
  8
1
 62
     7
 10
331.01898195810611
 20
128.4121210191019
 30
0.0
 11
312.73697862738908
 21
128.4121210191019
 31
0.0
  0
LINE
  5
BD
  8
1
 62
     7
 10
352.69999999999999
 20
147.08137390408899
 30
0.0
 11
352.69999999999999
 21
128.6492443468768
 31
0.0
  0
LINE
  5
BE
  8
1
 62
     7
 10
155.77500000000001
 20
168.5
 30
0.0
 11
175.17500000000001
 21
168.5
 31
0.0
  0
LINE
  5
BF
  8
1
 62
     7
 10
334.35000000000002
 20
169.05000000000001
 30
0.0
 11
334.35000000000002
 21
181.0
 31
0.0
  0
LINE
  5
C0
  8
1
 62
     7
 10
330.85000000000002
 20
169.05000000000001
 30
0.0
 11
330.85000000000002
 21
181.0
 31
0.0
  0
LINE
  5
C1
  8
1
 62
     7
 10
330.10000000000002
 20
168.49431169107839
 30
0.0
 11
330.10000000000002
 21
169.05000000000001
 31
0.0
  0
LINE
  5
C2
  8
1
 62
     7
 10
330.10000000000002
 20
169.05000000000001
 30
0.0
 11
335.10000000000002
 21
169.05000000000001
 31
0.0
  0
LINE
  5
C3
  8
1
 62
     7
 10
335.10000000000002
 20
169.05000000000001
 30
0.0
 11
335.10000000000002
 21
168.49431169107839
 31
0.0
  0
LINE
  5
C4
  8
1
 62
     7
 10
163.27499999999981
 20
169.05000000000001
 30
0.0
 11
158.27499999999981
 21
169.05000000000001
 31
0.0
  0
LINE
  5
C5
  8
1
  6
DASHDOT
 62
     3
 10
331.106073830649
 20
148.5
 30
0.0
 11
334.10604935277581
 21
148.5
 31
0.0
  0
LINE
  5
C6
  8
1
  6
DASHDOT
 62
     3
 10
332.60000000000002
 20
147.0060716750709
 30
0.0
 11
332.60000000000002
 21
150.0060471797081
 31
0.0
  0
LINE
  5
C7
  8
1
  6
DASHDOT
 62
     3
 10
347.69066818662043
 20
163.6027892057223
 30
0.0
 11
351.43833412690913
 21
167.350455146011
 31
0.0
  0
LINE
  5
C8
  8
1
  6
DASHDOT
 62
     3
 10
317.49721079427758
 20
163.59066818662029
 30
0.0
 11
313.74954485398899
 21
167.33833412690899
 31
0.0
  0
LINE
  5
C9
  8
1
  6
DASHDOT
 62
     3
 10
317.50933181337962
 20
133.3972107942777
 30
0.0
 11
313.76166587309081
 21
129.649544853989
 31
0.0
  0
LINE
  5
CA
  8
1
  6
DASHDOT
 62
     3
 10
347.7027892057223
 20
133.40933181337951
 30
0.0
 11
351.450455146011
 21
129.6616658730909
 31
0.0
  0
LINE
  5
CB
  8
1
 62
     7
 10
155.77500000000001
 20
168.5
 30
0.0
 11
155.77500000000001
 21
128.49999999999989
 31
0.0
  0
LINE
  5
CC
  8
1
 62
     7
 10
178.0749999999999
 20
158.75
 30
0.0
 11
178.3249999999999
 21
158.75
 31
0.0
  0
LINE
  5
CD
  8
1
 62
     7
 10
178.0749999999999
 20
155.75
 30
0.0
 11
178.3249999999999
 21
155.75
 31
0.0
  0
LINE
  5
CE
  8
1
 62
     7
 10
178.3249999999999
 20
158.75
 30
0.0
 11
178.3249999999999
 21
155.75
 31
0.0
  0
LINE
  5
CF
  8
1
  6
DASHDOT
 62
     3
 10
184.375
 20
148.5
 30
0.0
 11
187.375
 21
148.5
 31
0.0
  0
LINE
  5
D0
  8
1
  6
DASHDOT
 62
     3
 10
150.375
 20
148.5
 30
0.0
 11
153.37499999999989
 21
148.5
 31
0.0
  0
LINE
  5
D1
  8
1
 62
     7
 10
250.8249999999999
 20
141.25
 30
0.0
 11
252.3249999999999
 21
141.25
 31
0.0
  0
LINE
  5
D2
  8
1
 62
     7
 10
252.3249999999999
 20
141.1999999999999
 30
0.0
 11
252.02500000000001
 21
141.1999999999999
 31
0.0
  0
LINE
  5
D3
  8
1
 62
     7
 10
239.12499999999989
 20
140.65000000000001
 30
0.0
 11
237.97499999999999
 21
140.65000000000001
 31
0.0
  0
LINE
  5
D4
  8
1
 62
     7
 10
235.625
 20
141.0
 30
0.0
 11
237.97499999999999
 21
141.0
 31
0.0
  0
LINE
  5
D5
  8
1
 62
     7
 10
239.12499999999989
 20
141.0
 30
0.0
 11
252.02500000000001
 21
141.0
 31
0.0
  0
LINE
  5
D6
  8
1
 62
     7
 10
239.12499999999989
 20
140.65000000000001
 30
0.0
 11
239.12499999999989
 21
141.0
 31
0.0
  0
LINE
  5
D7
  8
1
 62
     7
 10
256.52499999999992
 20
142.5
 30
0.0
 11
250.8249999999999
 21
142.5
 31
0.0
  0
LINE
  5
D8
  8
1
 62
     7
 10
256.32499999999999
 20
134.49999999999989
 30
0.0
 11
256.32499999999999
 21
129.55000000000001
 31
0.0
  0
LINE
  5
D9
  8
1
 62
     7
 10
257.42500000000001
 20
134.49999999999989
 30
0.0
 11
252.02500000000001
 21
134.49999999999989
 31
0.0
  0
LINE
  5
DA
  8
1
 62
     7
 10
252.02500000000001
 20
129.55000000000001
 30
0.0
 11
257.42500000000001
 21
129.55000000000001
 31
0.0
  0
LINE
  5
DB
  8
1
 62
     7
 10
252.3249999999999
 20
129.55000000000001
 30
0.0
 11
252.3249999999999
 21
141.25
 31
0.0
  0
LINE
  5
DC
  8
1
 62
     7
 10
252.02500000000001
 20
141.25
 30
0.0
 11
252.02500000000001
 21
129.55000000000001
 31
0.0
  0
LINE
  5
DD
  8
1
 62
     7
 10
256.52499999999992
 20
136.1999999999999
 30
0.0
 11
257.42500000000001
 21
135.30000000000001
 31
0.0
  0
LINE
  5
DE
  8
1
  6
DASHDOT
 62
     3
 10
261.125
 20
148.5
 30
0.0
 11
269.625
 21
148.5
 31
0.0
  0
LINE
  5
DF
  8
1
 62
     3
 10
265.125
 20
145.5
 30
0.0
 11
265.125
 21
137.5
 31
0.0
  0
LINE
  5
E0
  8
1
 62
     7
 10
264.85449999999992
 20
145.5
 30
0.0
 11
264.85449999999992
 21
137.5
 31
0.0
  0
LINE
  5
E1
  8
1
 62
     7
 10
262.39550000000003
 20
145.5
 30
0.0
 11
262.39550000000003
 21
137.5
 31
0.0
  0
LINE
  5
E2
  8
1
 62
     3
 10
262.12499999999989
 20
145.5
 30
0.0
 11
262.12499999999989
 21
137.5
 31
0.0
  0
LINE
  5
E3
  8
1
 62
     7
 10
266.625
 20
145.5
 30
0.0
 11
257.72500000000002
 21
145.5
 31
0.0
  0
LINE
  5
E4
  8
1
 62
     7
 10
257.72500000000002
 20
143.0
 30
0.0
 11
260.32499999999999
 21
143.0
 31
0.0
  0
LINE
  5
E5
  8
1
 62
     7
 10
153.37499999999989
 20
168.350755653123
 30
0.0
 11
154.77500000000001
 21
168.350755653123
 31
0.0
  0
LINE
  5
E6
  8
1
 62
     7
 10
153.37499999999989
 20
128.64924434687691
 30
0.0
 11
154.77500000000001
 21
128.64924434687691
 31
0.0
  0
LINE
  5
E7
  8
1
 62
     7
 10
240.52500000000001
 20
169.05000000000001
 30
0.0
 11
245.52499999999989
 21
169.05000000000001
 31
0.0
  0
LINE
  5
E8
  8
1
 62
     7
 10
245.52499999999989
 20
169.05000000000001
 30
0.0
 11
245.52499999999989
 21
168.5
 31
0.0
  0
LINE
  5
E9
  8
1
 62
     7
 10
240.52500000000001
 20
169.05000000000001
 30
0.0
 11
240.52500000000001
 21
168.5
 31
0.0
  0
LINE
  5
EA
  8
1
 62
     7
 10
243.90000000000001
 20
169.05000000000001
 30
0.0
 11
243.90000000000001
 21
181.0
 31
0.0
  0
LINE
  5
EB
  8
1
 62
     7
 10
242.14999999999989
 20
169.05000000000001
 30
0.0
 11
242.14999999999989
 21
181.0
 31
0.0
  0
LINE
  5
EC
  8
1
 62
     7
 10
260.07499999999999
 20
132.09999999999991
 30
0.0
 11
260.32499999999999
 21
132.09999999999991
 31
0.0
  0
LINE
  5
ED
  8
1
 62
     7
 10
260.07499999999999
 20
129.90000000000001
 30
0.0
 11
260.32499999999999
 21
129.90000000000001
 31
0.0
  0
LINE
  5
EE
  8
1
 62
     7
 10
260.32499999999999
 20
132.09999999999991
 30
0.0
 11
260.32499999999999
 21
143.0
 31
0.0
  0
LINE
  5
EF
  8
1
 62
     7
 10
260.07499999999999
 20
132.09999999999991
 30
0.0
 11
260.07499999999999
 21
143.0
 31
0.0
  0
LINE
  5
F0
  8
1
 62
     7
 10
352.69999999999999
 20
168.3507556531232
 30
0.0
 11
352.69999999999999
 21
149.91862609591089
 31
0.0
  0
LINE
  5
F1
  8
1
 62
     7
 10
352.43847494423397
 20
168.61212101910189
 30
0.0
 11
335.10000000000002
 21
168.61212101910189
 31
0.0
  0
LINE
  5
F2
  8
1
 62
     7
 10
312.76152505576601
 20
168.61212101910189
 30
0.0
 11
330.10000000000002
 21
168.61212101910189
 31
0.0
  0
ARC
  5
F3
  8
1
 62
     7
 10
265.07499999999987
 20
156.75
 30
0.0
 40
7.0000000000000417
 50
163.0422366999955
 51
196.95776330000439
  0
ARC
  5
F4
  8
1
 62
     7
 10
332.60000000000002
 20
148.5
 30
0.0
 40
15.5
 50
341.94054396060881
 51
78.059456039391065
  0
ARC
  5
F5
  8
1
 62
     7
 10
332.60000000000002
 20
148.5
 30
0.0
 40
15.50000000000003
 50
101.94054396060911
 51
198.05945603939111
  0
ARC
  5
F6
  8
1
 62
     7
 10
332.60000000000002
 20
148.5
 30
0.0
 40
15.500000000000099
 50
221.94054396060881
 51
318.05945603939108
  0
ARC
  5
F7
  8
1
 62
     7
 10
332.60000000000002
 20
148.5
 30
0.0
 40
3.0000000000000209
 50
109.47122063449051
 51
70.528779365509479
  0
ARC
  5
F8
  8
1
  6
DASHDOT
 62
     3
 10
332.60000000000002
 20
148.5
 30
0.0
 40
23.99999999999994
 50
38.690834231524853
 51
51.350088586592321
  0
ARC
  5
F9
  8
1
  6
DASHDOT
 62
     3
 10
332.60000000000002
 20
148.5
 30
0.0
 40
23.999999999999989
 50
128.69083423152489
 51
141.35008858659251
  0
ARC
  5
FA
  8
1
  6
DASHDOT
 62
     3
 10
332.60000000000002
 20
148.5
 30
0.0
 40
23.999999999999989
 50
218.69083423152469
 51
231.35008858659239
  0
ARC
  5
FB
  8
1
  6
DASHDOT
 62
     3
 10
332.60000000000002
 20
148.5
 30
0.0
 40
23.99999999999994
 50
308.69083423152478
 51
321.35008858659262
  0
ARC
  5
FC
  8
1
 62
     7
 10
332.60000000000281
 20
148.4999999999971
 30
0.0
 40
28.25
 50
44.64254834146228
 51
45.39244771193691
  0
ARC
  5
FD
  8
1
 62
     7
 10
332.6000000000015
 20
148.50000000000151
 30
0.0
 40
28.249999999999979
 50
134.60755228807571
 51
135.3574516585505
  0
ARC
  5
FE
  8
1
 62
     7
 10
332.6000000000044
 20
148.49999999999551
 30
0.0
 40
28.25
 50
224.64254834144111
 51
225.322477235631
  0
ARC
  5
FF
  8
1
 62
     7
 10
332.60000000000002
 20
148.5
 30
0.0
 40
28.250000000000011
 50
314.67752276435641
 51
315.35745165854598
  0
ARC
  5
100
  8
1
 62
     7
 10
259.77499999999998
 20
154.30000000000001
 30
0.0
 40
0.3000000000000114
 50
270.0
 51
0.0
  0
ARC
  5
101
  8
1
 62
     7
 10
259.77499999999998
 20
159.1999999999999
 30
0.0
 40
0.3000000000000114
 50
0.0
 51
90.0
  0
ARC
  5
102
  8
1
 62
     7
 10
259.33587985837539
 20
155.0
 30
0.0
 40
1.0000000000000571
 50
196.95776330000589
 51
270.0
  0
ARC
  5
103
  8
1
 62
     7
 10
259.33587985837539
 20
158.49999999999989
 30
0.0
 40
1.0
 50
90.0
 51
163.04223669999399
  0
ARC
  5
104
  8
1
 62
     7
 10
335.60000000000002
 20
162.68626095911111
 30
0.0
 40
1.0000000000000191
 50
78.059456039388692
 51
180.0
  0
ARC
  5
105
  8
1
 62
     7
 10
335.60000000000002
 20
160.1189500386221
 30
0.0
 40
1.0
 50
180.0
 51
255.5224878140705
  0
ARC
  5
106
  8
1
 62
     7
 10
344.16230589874908
 20
145.28860119204211
 30
0.0
 40
1.0000000000000799
 50
164.47751218593149
 51
240.0000000000019
  0
ARC
  5
107
  8
1
 62
     7
 10
346.38566237530563
 20
144.00494573179779
 30
0.0
 40
1.000000000000032
 50
240.00000000000111
 51
341.9405439606067
  0
ARC
  5
108
  8
1
 62
     7
 10
321.03769410125102
 20
145.28860119204211
 30
0.0
 40
1.0000000000000571
 50
299.99999999999812
 51
15.522487814068359
  0
ARC
  5
109
  8
1
 62
     7
 10
318.8143376246943
 20
144.00494573179779
 30
0.0
 40
1.0000000000000711
 50
198.0594560393923
 51
299.99999999999892
  0
ARC
  5
10A
  8
1
 62
     7
 10
341.16230589874908
 20
140.0924487693355
 30
0.0
 40
0.9999999999999836
 50
59.999999999999439
 51
135.5224878140742
  0
ARC
  5
10B
  8
1
 62
     7
 10
343.38566237530563
 20
138.8087933090911
 30
0.0
 40
0.9999999999999296
 50
318.0594560393921
 51
59.999999999998643
  0
ARC
  5
10C
  8
1
 62
     7
 10
329.60000000000002
 20
162.68626095911111
 30
0.0
 40
1.0
 50
0.0
 51
101.94054396061451
  0
ARC
  5
10D
  8
1
 62
     7
 10
329.60000000000002
 20
160.1189500386221
 30
0.0
 40
0.999999999999949
 50
284.47751218593061
 51
0.0
  0
ARC
  5
10E
  8
1
 62
     7
 10
321.8143376246943
 20
138.8087933090911
 30
0.0
 40
1.0000000000000571
 50
119.9999999999981
 51
221.94054396060841
  0
ARC
  5
10F
  8
1
 62
     7
 10
324.03769410125102
 20
140.0924487693355
 30
0.0
 40
0.9999999999999683
 50
44.477512185930358
 51
120.0000000000005
  0
CIRCLE
  5
110
  8
1
 62
     7
 10
339.74470958122163
 20
144.375
 30
0.0
 40
1.2294999999998599
  0
CIRCLE
  5
111
  8
1
 62
     7
 10
325.4552904187783
 20
144.375
 30
0.0
 40
1.2294999999998599
  0
CIRCLE
  5
112
  8
1
 62
     7
 10
332.60000000000002
 20
156.75
 30
0.0
 40
1.2294999999999721
  0
CIRCLE
  5
113
  8
1
 62
     7
 10
332.60000000000002
 20
148.5
 30
0.0
 40
11.0
  0
CIRCLE
  5
114
  8
1
 62
     7
 10
332.60000000000002
 20
131.0
 30
0.0
 40
1.5
  0
CIRCLE
  5
115
  8
1
 62
     7
 10
317.44455543377228
 20
157.24999999999989
 30
0.0
 40
1.5
  0
CIRCLE
  5
116
  8
1
 62
     7
 10
347.75544456622771
 20
157.24999999999989
 30
0.0
 40
1.5
  0
CIRCLE
  5
117
  8
1
 62
     7
 10
332.60000000000002
 20
148.5
 30
0.0
 40
19.5
  0
CIRCLE
  5
118
  8
1
 62
     7
 10
332.60000000000002
 20
148.5
 30
0.0
 40
20.149999999999981
  0
CIRCLE
  5
119
  8
1
 62
     3
 10
332.60000000000002
 20
156.75
 30
0.0
 40
1.5
  0
CIRCLE
  5
11A
  8
1
 62
     3
 10
325.4552904187783
 20
144.375
 30
0.0
 40
1.5
  0
CIRCLE
  5
11B
  8
1
 62
     3
 10
339.74470958122163
 20
144.375
 30
0.0
 40
1.5
  0
CIRCLE
  5
11C
  8
1
 62
     7
 10
349.56450115676478
 20
165.47662217586659
 30
0.0
 40
1.6500000000000341
  0
CIRCLE
  5
11D
  8
1
 62
     7
 10
315.63549884323533
 20
165.47662217586659
 30
0.0
 40
1.6499999999999759
  0
CIRCLE
  5
11E
  8
1
 62
     7
 10
315.62337782413317
 20
131.53549884323519
 30
0.0
 40
1.6500000000000341
  0
CIRCLE
  5
11F
  8
1
 62
     7
 10
349.5766221758667
 20
131.53549884323519
 30
0.0
 40
1.6499999999999191
  0
CIRCLE
  5
120
  8
1
 62
     7
 10
263.62499999999989
 20
148.5
 30
0.0
 40
1.2294999999999721
  0
CIRCLE
  5
121
  8
1
 62
     3
 10
263.62499999999989
 20
148.5
 30
0.0
 40
1.5
  0
TEXT
  5
122
  8
1
 62
     7
 10
157.21182396606599
 20
205.55152419665021
 30
0.0
 40
3.0
  1
AMB 5
 41
0.9
  7
SIMPLEX
  0
ENDSEC
  0
EOF
