  0
SECTION
  2
HEADER
  9
$ACADVER
  1
AC1009
  9
$INSBASE
 10
0.0
 20
0.0
 30
0.0
  9
$EXTMIN
 10
-86.901404711588725
 20
23.041959256435209
 30
0.0
  9
$EXTMAX
 10
257.49470000772709
 20
155.6262883508779
 30
0.0
  9
$LIMMIN
 10
-86.901404711588725
 20
23.041959256435209
  9
$LIMMAX
 10
257.4947000077272
 20
155.6262883508779
  9
$ORTHOMODE
 70
     0
  9
$REGENMODE
 70
     1
  9
$FILLMODE
 70
     1
  9
$QTEXTMODE
 70
     0
  9
$MIRRTEXT
 70
     1
  9
$DRAGMODE
 70
     2
  9
$LTSCALE
 40
1.0
  9
$OSMODE
 70
    37
  9
$ATTMODE
 70
     1
  9
$TEXTSIZE
 40
3.5
  9
$TRACEWID
 40
0.5
  9
$TEXTSTYLE
  7
STANDARD
  9
$CLAYER
  8
0
  9
$CELTYPE
  6
BYLAYER
  9
$CECOLOR
 62
   256
  9
$DIMSCALE
 40
1.0
  9
$DIMASZ
 40
0.18
  9
$DIMEXO
 40
0.0625
  9
$DIMDLI
 40
0.38
  9
$DIMRND
 40
0.0
  9
$DIMDLE
 40
0.0
  9
$DIMEXE
 40
0.18
  9
$DIMTP
 40
0.0
  9
$DIMTM
 40
0.0
  9
$DIMTXT
 40
0.18
  9
$DIMCEN
 40
0.09
  9
$DIMTSZ
 40
0.0
  9
$DIMTOL
 70
     0
  9
$DIMLIM
 70
     0
  9
$DIMTIH
 70
     1
  9
$DIMTOH
 70
     1
  9
$DIMSE1
 70
     0
  9
$DIMSE2
 70
     0
  9
$DIMTAD
 70
     0
  9
$DIMZIN
 70
     0
  9
$DIMBLK
  1

  9
$DIMASO
 70
     1
  9
$DIMSHO
 70
     1
  9
$DIMPOST
  1

  9
$DIMAPOST
  1

  9
$DIMALT
 70
     0
  9
$DIMALTD
 70
     2
  9
$DIMALTF
 40
25.399999999999999
  9
$DIMLFAC
 40
1.0
  9
$DIMTOFL
 70
     0
  9
$DIMTVP
 40
0.0
  9
$DIMTIX
 70
     0
  9
$DIMSOXD
 70
     0
  9
$DIMSAH
 70
     0
  9
$DIMBLK1
  1

  9
$DIMBLK2
  1

  9
$DIMSTYLE
  2
STANDARD
  9
$DIMCLRD
 70
     0
  9
$DIMCLRE
 70
     0
  9
$DIMCLRT
 70
     0
  9
$DIMTFAC
 40
1.0
  9
$DIMGAP
 40
0.09
  9
$LUNITS
 70
     2
  9
$LUPREC
 70
     4
  9
$SKETCHINC
 40
0.1
  9
$FILLETRAD
 40
2.0
  9
$AUNITS
 70
     0
  9
$AUPREC
 70
     0
  9
$MENU
  1
ACAD
  9
$ELEVATION
 40
0.0
  9
$PELEVATION
 40
0.0
  9
$THICKNESS
 40
0.0
  9
$LIMCHECK
 70
     0
  9
$BLIPMODE
 70
     0
  9
$CHAMFERA
 40
0.0
  9
$CHAMFERB
 40
0.0
  9
$SKPOLY
 70
     0
  9
$TDCREATE
 40
2452093.8998549762
  9
$TDUPDATE
 40
2452093.9003368062
  9
$TDINDWG
 40
0.0004856481
  9
$TDUSRTIMER
 40
0.0004856481
  9
$USRTIMER
 70
     1
  9
$ANGBASE
 50
0.0
  9
$ANGDIR
 70
     0
  9
$PDMODE
 70
     0
  9
$PDSIZE
 40
0.0
  9
$PLINEWID
 40
0.0
  9
$COORDS
 70
     1
  9
$SPLFRAME
 70
     0
  9
$SPLINETYPE
 70
     6
  9
$SPLINESEGS
 70
     8
  9
$ATTDIA
 70
     0
  9
$ATTREQ
 70
     1
  9
$HANDLING
 70
 10241
  9
$HANDSEED
  5
12C
  9
$SURFTAB1
 70
     6
  9
$SURFTAB2
 70
     6
  9
$SURFTYPE
 70
     6
  9
$SURFU
 70
     6
  9
$SURFV
 70
     6
  9
$UCSNAME
  2

  9
$UCSORG
 10
0.0
 20
0.0
 30
0.0
  9
$UCSXDIR
 10
1.0
 20
0.0
 30
0.0
  9
$UCSYDIR
 10
0.0
 20
1.0
 30
0.0
  9
$PUCSNAME
  2

  9
$PUCSORG
 10
0.0
 20
0.0
 30
0.0
  9
$PUCSXDIR
 10
1.0
 20
0.0
 30
0.0
  9
$PUCSYDIR
 10
0.0
 20
1.0
 30
0.0
  9
$USERI1
 70
     0
  9
$USERI2
 70
     0
  9
$USERI3
 70
     0
  9
$USERI4
 70
     0
  9
$USERI5
 70
     0
  9
$USERR1
 40
0.0
  9
$USERR2
 40
0.0
  9
$USERR3
 40
0.0
  9
$USERR4
 40
0.0
  9
$USERR5
 40
0.0
  9
$WORLDVIEW
 70
     1
  9
$SHADEDGE
 70
     3
  9
$SHADEDIF
 70
    70
  9
$TILEMODE
 70
     1
  9
$MAXACTVP
 70
    64
  9
$PLIMCHECK
 70
     0
  9
$PEXTMIN
 10
1.0000000000000000E+020
 20
1.0000000000000000E+020
 30
1.0000000000000000E+020
  9
$PEXTMAX
 10
-1.0000000000000000E+020
 20
-1.0000000000000000E+020
 30
-1.0000000000000000E+020
  9
$PLIMMIN
 10
0.0
 20
0.0
  9
$PLIMMAX
 10
12.0
 20
9.0
  9
$UNITMODE
 70
     0
  9
$VISRETAIN
 70
     1
  9
$PLINEGEN
 70
     0
  9
$PSLTSCALE
 70
     1
  0
ENDSEC
  0
SECTION
  2
TABLES
  0
TABLE
  2
VPORT
 70
     2
  0
VPORT
  2
*ACTIVE
 70
     0
 10
0.0
 20
0.0
 11
1.0
 21
1.0
 12
-65.339323292177312
 22
147.06344115476929
 13
0.0
 23
0.0
 14
1.0
 24
1.0
 15
0.0
 25
0.0
 16
0.0
 26
0.0
 36
1.0
 17
0.0
 27
0.0
 37
0.0
 40
9.000000203645893
 41
2.5693779904306222
 42
50.0
 43
0.0
 44
0.0
 50
0.0
 51
0.0
 71
     0
 72
   100
 73
     1
 74
     1
 75
     0
 76
     0
 77
     0
 78
     0
  0
ENDTAB
  0
TABLE
  2
LTYPE
 70
     9
  0
LTYPE
  2
CONTINUOUS
 70
     0
  3
Solid line
 72
    65
 73
     0
 40
0.0
  0
LTYPE
  2
BORDER
 70
     0
  3
__ __ . __ __ .
 72
    65
 73
     6
 40
15.86034692786323
 49
4.5315276936752076
 49
-2.2657638468376051
 49
4.5315276936752076
 49
-2.2657638468376051
 49
0.0
 49
-2.2657638468376051
  0
LTYPE
  2
CENTER
 70
     0
  3
____ _ ____ _
 72
    65
 73
     4
 40
18.126110774700841
 49
11.328819234188011
 49
-2.2657638468376051
 49
2.2657638468376051
 49
-2.2657638468376051
  0
LTYPE
  2
DASHDOT
 70
     0
  3
__ . __ . __ .
 72
    65
 73
     4
 40
9.0630553873504205
 49
4.5315276936752076
 49
-2.2657638468376051
 49
0.0
 49
-2.2657638468376051
  0
LTYPE
  2
DASHED
 70
     0
  3
__ __ __ __ __
 72
    65
 73
     2
 40
6.7972915405128154
 49
4.5315276936752076
 49
-2.2657638468376051
  0
LTYPE
  2
DIVIDE
 70
     0
  3
__ . . __ . . 
 72
    65
 73
     6
 40
11.328819234188011
 49
4.5315276936752076
 49
-2.2657638468376051
 49
0.0
 49
-2.2657638468376051
 49
0.0
 49
-2.2657638468376051
  0
LTYPE
  2
DOT
 70
     0
  3
..............
 72
    65
 73
     4
 40
4.5315276936752076
 49
0.0
 49
-2.2657638468376051
 49
0.0
 49
-2.2657638468376051
  0
LTYPE
  2
HIDDEN
 70
     0
  3
_ _ _ _ _ _ _
 72
    65
 73
     2
 40
3.3986457702564059
 49
2.2657638468376051
 49
-1.1328819234188019
  0
LTYPE
  2
PHANTOM
 70
     0
  3
_____ _ _ _____ _ _ 
 72
    65
 73
     6
 40
22.657638468376049
 49
11.328819234188011
 49
-2.2657638468376051
 49
2.2657638468376051
 49
-2.2657638468376051
 49
2.2657638468376051
 49
-2.2657638468376051
  0
ENDTAB
  0
TABLE
  2
LAYER
 70
     2
  0
LAYER
  2
0
 70
     0
 62
     7
  6
CONTINUOUS
  0
LAYER
  2
1
 70
     0
 62
     7
  6
CONTINUOUS
  0
ENDTAB
  0
TABLE
  2
STYLE
 70
     4
  0
STYLE
  2
STANDARD
 70
     0
 40
0.0
 41
1.0
 50
0.0
 71
     0
 42
3.5
  3
txt
  4

  0
STYLE
  2
SIMPLEX
 70
     0
 40
0.0
 41
1.0
 50
0.0
 71
     0
 42
3.5
  3
simplex
  4

  0
STYLE
  2
COMPLEX
 70
     0
 40
0.0
 41
1.0
 50
0.0
 71
     0
 42
3.5
  3
complex
  4

  0
STYLE
  2
ITALIC
 70
     0
 40
0.0
 41
1.0
 50
0.0
 71
     0
 42
3.5
  3
italic
  4

  0
ENDTAB
  0
TABLE
  2
VIEW
 70
     0
  0
ENDTAB
  0
TABLE
  2
UCS
 70
     0
  0
ENDTAB
  0
TABLE
  2
APPID
 70
     1
  0
APPID
  2
ACAD
 70
     0
  0
ENDTAB
  0
TABLE
  2
DIMSTYLE
 70
     1
  0
DIMSTYLE
  2
STANDARD
 70
     0
  3

  4

  5

  6

  7

 40
1.0
 41
0.18
 42
0.0625
 43
0.38
 44
0.18
 45
0.0
 46
0.0
 47
0.0
 48
0.0
140
0.18
141
0.09
142
0.0
143
25.399999999999999
144
1.0
145
0.0
146
1.0
147
0.09
 71
     0
 72
     0
 73
     1
 74
     1
 75
     0
 76
     0
 77
     0
 78
     0
170
     0
171
     2
172
     0
173
     0
174
     0
175
     0
176
     0
177
     0
178
     0
  0
ENDTAB
  0
ENDSEC
  0
SECTION
  2
BLOCKS
  0
BLOCK
  8
0
  2
$MODEL_SPACE
 70
     0
 10
0.0
 20
0.0
 30
0.0
  3
$MODEL_SPACE
  1

  0
ENDBLK
  5
20
  8
0
  0
BLOCK
 67
     1
  8
0
  2
$PAPER_SPACE
 70
     0
 10
0.0
 20
0.0
 30
0.0
  3
$PAPER_SPACE
  1

  0
ENDBLK
  5
1C
 67
     1
  8
0
  0
ENDSEC
  0
SECTION
  2
ENTITIES
  0
POINT
  5
33
  8
1
  6
DOT
 62
     7
 10
215.14470000772701
 20
70.472834869899089
 30
0.0
  0
POINT
  5
34
  8
1
  6
DOT
 62
     7
 10
229.54470000772699
 20
51.272834869899093
 30
0.0
  0
POINT
  5
35
  8
1
  6
DOT
 62
     7
 10
216.97813686172739
 20
50.139708577900109
 30
0.0
  0
POINT
  5
36
  8
1
  6
DOT
 62
     7
 10
227.71126315372641
 20
71.605961161898065
 30
0.0
  0
POINT
  5
37
  8
1
  6
DOT
 62
     7
 10
222.344700007727
 20
53.372834869899087
 30
0.0
  0
POINT
  5
38
  8
1
  6
DOT
 62
     7
 10
204.1012121197538
 20
23.041959256435209
 30
0.0
  0
LINE
  5
39
  8
1
 62
     7
 10
61.104668257939352
 20
76.872834869899094
 30
0.0
 11
84.004668257939244
 21
76.872834869899123
 31
0.0
  0
LINE
  5
3A
  8
1
 62
     7
 10
56.904668257939321
 20
76.872834869899094
 30
0.0
 11
59.754668257939329
 21
76.872834869899094
 31
0.0
  0
LINE
  5
3B
  8
1
 62
     7
 10
61.104668257939352
 20
77.722834869899089
 30
0.0
 11
61.104668257939352
 21
76.872834869899094
 31
0.0
  0
LINE
  5
3C
  8
1
 62
     7
 10
59.754668257939329
 20
77.722834869899089
 30
0.0
 11
61.104668257939352
 21
77.722834869899089
 31
0.0
  0
LINE
  5
3D
  8
1
 62
     7
 10
56.904668257939321
 20
95.972834869899103
 30
0.0
 11
56.904668257939321
 21
76.872834869899094
 31
0.0
  0
LINE
  5
3E
  8
1
 62
     7
 10
58.804668257939319
 20
95.972834869899103
 30
0.0
 11
56.904668257939321
 21
95.972834869899103
 31
0.0
  0
LINE
  5
3F
  8
1
 62
     7
 10
59.804668257939319
 20
95.872834869899123
 30
0.0
 11
58.804668257939319
 21
94.872834869899123
 31
0.0
  0
LINE
  5
40
  8
1
 62
     7
 10
84.004668257939244
 20
94.072834869899125
 30
0.0
 11
84.004668257939244
 21
76.372834869899123
 31
0.0
  0
LINE
  5
41
  8
1
 62
     7
 10
92.404668257939321
 20
94.072834869899125
 30
0.0
 11
84.004668257939244
 21
94.072834869899125
 31
0.0
  0
LINE
  5
42
  8
1
 62
     7
 10
59.754668257939329
 20
77.722834869899089
 30
0.0
 11
59.754668257939329
 21
76.872834869899094
 31
0.0
  0
LINE
  5
43
  8
1
 62
     7
 10
63.804668257939319
 20
96.272834869899086
 30
0.0
 11
68.804668257939284
 21
96.272834869899114
 31
0.0
  0
LINE
  5
44
  8
1
 62
     7
 10
68.804668257939284
 20
96.272834869899114
 30
0.0
 11
68.804668257939284
 21
95.872834869899123
 31
0.0
  0
LINE
  5
45
  8
1
 62
     7
 10
59.804668257939319
 20
95.872834869899123
 30
0.0
 11
92.404668257939278
 21
95.872834869899123
 31
0.0
  0
LINE
  5
46
  8
1
 62
     7
 10
84.004668257939244
 20
85.872834869899123
 30
0.0
 11
84.404668257939306
 21
85.872834869899123
 31
0.0
  0
LINE
  5
47
  8
1
 62
     7
 10
84.404668257939306
 20
76.872834869899123
 30
0.0
 11
84.004668257939244
 21
76.872834869899123
 31
0.0
  0
LINE
  5
48
  8
1
 62
     7
 10
84.404668257939306
 20
76.372834869899123
 30
0.0
 11
82.104668257939295
 21
76.372834869899123
 31
0.0
  0
LINE
  5
49
  8
1
 62
     7
 10
82.104668257939295
 20
76.372834869899123
 30
0.0
 11
82.104668257939295
 21
74.872834869899123
 31
0.0
  0
LINE
  5
4A
  8
1
 62
     7
 10
82.104668257939295
 20
74.872834869899123
 30
0.0
 11
91.504668257939315
 21
74.872834869899123
 31
0.0
  0
LINE
  5
4B
  8
1
 62
     7
 10
91.504668257939315
 20
81.622834869899108
 30
0.0
 11
91.504668257939315
 21
74.872834869899123
 31
0.0
  0
LINE
  5
4C
  8
1
 62
     7
 10
84.404668257939306
 20
84.872834869899123
 30
0.0
 11
92.404668257939321
 21
84.872834869899123
 31
0.0
  0
LINE
  5
4D
  8
1
 62
     7
 10
84.404668257939306
 20
94.072834869899125
 30
0.0
 11
84.404668257939306
 21
76.372834869899123
 31
0.0
  0
LINE
  5
4E
  8
1
 62
     7
 10
90.504668257939286
 20
84.872834869899123
 30
0.0
 11
90.504668257939286
 21
94.072834869899125
 31
0.0
  0
LINE
  5
4F
  8
1
 62
     7
 10
92.404668257939278
 20
95.872834869899123
 30
0.0
 11
92.404668257939278
 21
74.872834869899123
 31
0.0
  0
LINE
  5
50
  8
1
 62
     7
 10
92.404668257939321
 20
82.522834869899086
 30
0.0
 11
91.504668257939315
 21
81.622834869899108
 31
0.0
  0
LINE
  5
51
  8
1
 62
     7
 10
63.804668257939277
 20
95.872834869899123
 30
0.0
 11
63.804668257939319
 21
96.272834869899086
 31
0.0
  0
LINE
  5
52
  8
1
 62
     7
 10
58.804668257939319
 20
95.972834869899103
 30
0.0
 11
58.804668257939319
 21
76.872834869899094
 31
0.0
  0
LINE
  5
53
  8
1
 62
     7
 10
84.004668257939244
 20
44.872834869899108
 30
0.0
 11
61.104668257939302
 21
44.872834869899108
 31
0.0
  0
LINE
  5
54
  8
1
 62
     7
 10
59.754668257939272
 20
44.872834869899108
 30
0.0
 11
56.904668257939313
 21
44.872834869899108
 31
0.0
  0
LINE
  5
55
  8
1
 62
     7
 10
61.104668257939302
 20
44.022834869899107
 30
0.0
 11
59.754668257939272
 21
44.022834869899107
 31
0.0
  0
LINE
  5
56
  8
1
 62
     7
 10
56.904668257939321
 20
25.7728348698991
 30
0.0
 11
58.804668257939277
 21
25.7728348698991
 31
0.0
  0
LINE
  5
57
  8
1
 62
     7
 10
58.804668257939277
 20
26.872834869899101
 30
0.0
 11
59.804668257939291
 21
25.872834869899101
 31
0.0
  0
LINE
  5
58
  8
1
 62
     7
 10
84.004668257939244
 20
45.372834869899108
 30
0.0
 11
84.004668257939244
 21
27.672834869899098
 31
0.0
  0
LINE
  5
59
  8
1
 62
     7
 10
84.004668257939244
 20
27.672834869899098
 30
0.0
 11
92.404668257939321
 21
27.672834869899098
 31
0.0
  0
LINE
  5
5A
  8
1
 62
     7
 10
92.404668257939278
 20
25.872834869899091
 30
0.0
 11
59.804668257939291
 21
25.872834869899101
 31
0.0
  0
LINE
  5
5B
  8
1
 62
     7
 10
84.404668257939306
 20
35.872834869899101
 30
0.0
 11
84.004668257939244
 21
35.872834869899101
 31
0.0
  0
LINE
  5
5C
  8
1
 62
     7
 10
84.004668257939244
 20
44.872834869899108
 30
0.0
 11
84.404668257939306
 21
44.872834869899108
 31
0.0
  0
LINE
  5
5D
  8
1
 62
     7
 10
82.104668257939295
 20
45.372834869899108
 30
0.0
 11
84.404668257939306
 21
45.372834869899108
 31
0.0
  0
LINE
  5
5E
  8
1
 62
     7
 10
91.504668257939315
 20
46.872834869899108
 30
0.0
 11
82.104668257939295
 21
46.872834869899108
 31
0.0
  0
LINE
  5
5F
  8
1
 62
     7
 10
92.404668257939321
 20
36.872834869899101
 30
0.0
 11
84.404668257939306
 21
36.872834869899101
 31
0.0
  0
LINE
  5
60
  8
1
 62
     7
 10
84.404668257939306
 20
45.372834869899108
 30
0.0
 11
84.404668257939306
 21
27.672834869899098
 31
0.0
  0
LINE
  5
61
  8
1
 62
     7
 10
90.504668257939286
 20
27.672834869899098
 30
0.0
 11
90.504668257939286
 21
36.872834869899101
 31
0.0
  0
LINE
  5
62
  8
1
 62
     7
 10
91.504668257939315
 20
40.122834869899101
 30
0.0
 11
92.404668257939321
 21
39.22283486989911
 31
0.0
  0
LINE
  5
63
  8
1
  6
DASHDOT
 62
     3
 10
56.904668257939313
 20
60.872834869899123
 30
0.0
 11
51.904668257939313
 21
60.872834869899123
 31
0.0
  0
LINE
  5
64
  8
1
 62
     7
 10
98.304668257939284
 20
79.372834869899123
 30
0.0
 11
98.304668257939284
 21
95.372834869899108
 31
0.0
  0
LINE
  5
65
  8
1
 62
     7
 10
103.7046682579393
 20
75.972834869899117
 30
0.0
 11
110.40466825793921
 21
75.972834869899117
 31
0.0
  0
LINE
  5
66
  8
1
 62
     7
 10
103.7046682579393
 20
78.772834869899114
 30
0.0
 11
110.40466825793921
 21
78.772834869899114
 31
0.0
  0
LINE
  5
67
  8
1
 62
     3
 10
103.1046682579392
 20
75.372834869899123
 30
0.0
 11
110.40466825793921
 21
75.372834869899123
 31
0.0
  0
LINE
  5
68
  8
1
 62
     3
 10
103.1046682579392
 20
79.372834869899123
 30
0.0
 11
110.40466825793921
 21
79.372834869899123
 31
0.0
  0
LINE
  5
69
  8
1
 62
     3
 10
99.243898742480596
 20
78.772834869899114
 30
0.0
 11
98.204668257939275
 21
79.372834869899123
 31
0.0
  0
LINE
  5
6A
  8
1
 62
     3
 10
103.7046682579393
 20
78.772834869899114
 30
0.0
 11
99.243898742480596
 21
78.772834869899114
 31
0.0
  0
LINE
  5
6B
  8
1
 62
     3
 10
99.243898742480596
 20
75.972834869899117
 30
0.0
 11
98.204668257939275
 21
75.372834869899123
 31
0.0
  0
LINE
  5
6C
  8
1
 62
     3
 10
103.7046682579393
 20
75.972834869899117
 30
0.0
 11
99.243898742480596
 21
75.972834869899117
 31
0.0
  0
LINE
  5
6D
  8
1
 62
     7
 10
99.243898742480596
 20
75.372834869899123
 30
0.0
 11
99.243898742480596
 21
79.372834869899123
 31
0.0
  0
LINE
  5
6E
  8
1
 62
     7
 10
103.1046682579392
 20
75.372834869899123
 30
0.0
 11
103.1046682579392
 21
79.372834869899123
 31
0.0
  0
LINE
  5
6F
  8
1
 62
     7
 10
103.1046682579392
 20
79.372834869899123
 30
0.0
 11
97.704668257939261
 21
79.372834869899123
 31
0.0
  0
LINE
  5
70
  8
1
 62
     7
 10
103.7046682579393
 20
78.772834869899114
 30
0.0
 11
103.1046682579392
 21
79.372834869899123
 31
0.0
  0
LINE
  5
71
  8
1
 62
     7
 10
103.7046682579393
 20
75.972834869899117
 30
0.0
 11
103.7046682579393
 21
78.772834869899114
 31
0.0
  0
LINE
  5
72
  8
1
 62
     7
 10
103.1046682579392
 20
75.372834869899123
 30
0.0
 11
103.7046682579393
 21
75.972834869899117
 31
0.0
  0
LINE
  5
73
  8
1
 62
     7
 10
97.704668257939261
 20
75.372834869899123
 30
0.0
 11
103.1046682579392
 21
75.372834869899123
 31
0.0
  0
LINE
  5
74
  8
1
 62
     7
 10
94.004668257939286
 20
73.872834869899123
 30
0.0
 11
94.004668257939286
 21
80.872834869899123
 31
0.0
  0
LINE
  5
75
  8
1
 62
     7
 10
94.004668257939286
 20
80.872834869899123
 30
0.0
 11
97.704668257939261
 21
80.872834869899123
 31
0.0
  0
LINE
  5
76
  8
1
 62
     7
 10
93.704668257939261
 20
80.353219627628448
 30
0.0
 11
94.004668257939286
 21
80.872834869899123
 31
0.0
  0
LINE
  5
77
  8
1
 62
     7
 10
93.704668257939261
 20
74.392450112169783
 30
0.0
 11
93.704668257939261
 21
80.353219627628448
 31
0.0
  0
LINE
  5
78
  8
1
 62
     7
 10
94.004668257939286
 20
73.872834869899123
 30
0.0
 11
93.704668257939261
 21
74.392450112169783
 31
0.0
  0
LINE
  5
79
  8
1
 62
     7
 10
97.704668257939261
 20
73.872834869899123
 30
0.0
 11
94.004668257939286
 21
73.872834869899123
 31
0.0
  0
LINE
  5
7A
  8
1
 62
     7
 10
93.90466825793925
 20
27.372834869899119
 30
0.0
 11
93.90466825793925
 21
32.372834869899123
 31
0.0
  0
LINE
  5
7B
  8
1
 62
     7
 10
98.304668257939284
 20
26.372834869899108
 30
0.0
 11
97.704668257939261
 21
26.372834869899108
 31
0.0
  0
LINE
  5
7C
  8
1
 62
     7
 10
97.704668257939261
 20
95.372834869899108
 30
0.0
 11
98.304668257939284
 21
95.372834869899108
 31
0.0
  0
LINE
  5
7D
  8
1
 62
     7
 10
92.704668257939261
 20
96.022834869899114
 30
0.0
 11
97.704668257939261
 21
96.022834869899114
 31
0.0
  0
LINE
  5
7E
  8
1
 62
     7
 10
97.704668257939261
 20
96.022834869899114
 30
0.0
 11
97.704668257939261
 21
73.872834869899123
 31
0.0
  0
LINE
  5
7F
  8
1
 62
     7
 10
97.704668257939261
 20
25.722834869899149
 30
0.0
 11
92.704668257939261
 21
25.722834869899149
 31
0.0
  0
LINE
  5
80
  8
1
 62
     7
 10
92.704668257939261
 20
25.722834869899149
 30
0.0
 11
92.704668257939261
 21
46.872834869899108
 31
0.0
  0
LINE
  5
81
  8
1
 62
     7
 10
97.704668257939261
 20
81.872834869899123
 30
0.0
 11
92.704668257939261
 21
81.872834869899123
 31
0.0
  0
LINE
  5
82
  8
1
 62
     7
 10
95.204668257939261
 20
26.272834869899089
 30
0.0
 11
92.704668257939261
 21
26.272834869899089
 31
0.0
  0
LINE
  5
83
  8
1
 62
     7
 10
95.204668257939261
 20
33.472834869899152
 30
0.0
 11
95.204668257939261
 21
26.272834869899089
 31
0.0
  0
LINE
  5
84
  8
1
 62
     7
 10
92.704668257939261
 20
33.472834869899152
 30
0.0
 11
95.204668257939261
 21
33.472834869899152
 31
0.0
  0
LINE
  5
85
  8
1
 62
     7
 10
98.304668257939284
 20
27.7728348698991
 30
0.0
 11
95.204668257939261
 21
27.7728348698991
 31
0.0
  0
LINE
  5
86
  8
1
 62
     7
 10
98.304668257939284
 20
31.972834869899149
 30
0.0
 11
95.204668257939261
 21
31.972834869899149
 31
0.0
  0
LINE
  5
87
  8
1
 62
     7
 10
97.704668257939261
 20
44.372834869899123
 30
0.0
 11
92.704668257939261
 21
44.372834869899123
 31
0.0
  0
LINE
  5
88
  8
1
 62
     7
 10
97.704668257939261
 20
27.7728348698991
 30
0.0
 11
97.704668257939261
 21
25.722834869899149
 31
0.0
  0
LINE
  5
89
  8
1
 62
     7
 10
98.304668257939284
 20
73.872834869899123
 30
0.0
 11
92.804668257939284
 21
73.872834869899123
 31
0.0
  0
LINE
  5
8A
  8
1
 62
     7
 10
92.804668257939284
 20
47.872834869899123
 30
0.0
 11
98.304668257939284
 21
47.872834869899123
 31
0.0
  0
LINE
  5
8B
  8
1
 62
     7
 10
92.804668257939284
 20
67.943902681764598
 30
0.0
 11
110.40466825793931
 21
67.943902681764598
 31
0.0
  0
LINE
  5
8C
  8
1
 62
     7
 10
92.804668257939284
 20
70.372834869899123
 30
0.0
 11
110.40466825793921
 21
70.372834869899123
 31
0.0
  0
LINE
  5
8D
  8
1
 62
     7
 10
92.804668257939284
 20
53.372834869899123
 30
0.0
 11
110.40466825793921
 21
53.372834869899123
 31
0.0
  0
LINE
  5
8E
  8
1
 62
     7
 10
110.40466825793921
 20
40.872834869899108
 30
0.0
 11
98.304668257939284
 21
40.872834869899108
 31
0.0
  0
LINE
  5
8F
  8
1
 62
     7
 10
110.40466825793921
 20
80.872834869899123
 30
0.0
 11
110.40466825793931
 21
67.943902681764598
 31
0.0
  0
LINE
  5
90
  8
1
 62
     7
 10
98.304668257939284
 20
80.872834869899123
 30
0.0
 11
110.40466825793921
 21
80.872834869899123
 31
0.0
  0
LINE
  5
91
  8
1
 62
     7
 10
92.804668257939284
 20
73.872834869899123
 30
0.0
 11
92.804668257939284
 21
67.943902681764598
 31
0.0
  0
LINE
  5
92
  8
1
 62
     3
 10
107.90466825793921
 20
40.872834869899108
 30
0.0
 11
107.90466825793921
 21
53.372834869899123
 31
0.0
  0
LINE
  5
93
  8
1
 62
     3
 10
102.90466825793921
 20
40.872834869899108
 30
0.0
 11
102.90466825793921
 21
53.372834869899123
 31
0.0
  0
LINE
  5
94
  8
1
 62
     7
 10
107.15466825793921
 20
40.872834869899108
 30
0.0
 11
107.15466825793921
 21
53.372834869899123
 31
0.0
  0
LINE
  5
95
  8
1
 62
     7
 10
103.65466825793921
 20
40.872834869899108
 30
0.0
 11
103.65466825793921
 21
53.372834869899123
 31
0.0
  0
LINE
  5
96
  8
1
 62
     7
 10
98.304668257939284
 20
26.372834869899108
 30
0.0
 11
98.304668257939284
 21
47.872834869899123
 31
0.0
  0
LINE
  5
97
  8
1
 62
     7
 10
97.704668257939261
 20
47.872834869899123
 30
0.0
 11
97.704668257939261
 21
31.972834869899149
 31
0.0
  0
LINE
  5
98
  8
1
 62
     7
 10
98.304668257939284
 20
73.872834869899123
 30
0.0
 11
98.304668257939284
 21
75.372834869899123
 31
0.0
  0
LINE
  5
99
  8
1
  6
DASHDOT
 62
     3
 10
101.40466825793921
 20
60.872834869899123
 30
0.0
 11
109.40466825793921
 21
60.872834869899123
 31
0.0
  0
LINE
  5
9A
  8
1
  6
DASHDOT
 62
     3
 10
105.40466825793921
 20
56.872834869899123
 30
0.0
 11
105.40466825793921
 21
64.872834869899123
 31
0.0
  0
LINE
  5
9B
  8
1
  6
DASHDOT
 62
     3
 10
110.40466825793921
 20
60.872834869899123
 30
0.0
 11
115.40466825793921
 21
60.872834869899123
 31
0.0
  0
LINE
  5
9C
  8
1
  6
DASHDOT
 62
     3
 10
105.40466825793921
 20
55.239675871011087
 30
0.0
 11
105.40466825793921
 21
39.005993868787129
 31
0.0
  0
LINE
  5
9D
  8
1
  6
DASHDOT
 62
     3
 10
-28.40140471158875
 20
60.872834869899101
 30
0.0
 11
-23.401404711588739
 21
60.872834869899101
 31
0.0
  0
LINE
  5
9E
  8
1
  6
DASHDOT
 62
     3
 10
-81.901404711588754
 20
60.872834869899101
 30
0.0
 11
-86.901404711588725
 21
60.872834869899101
 31
0.0
  0
LINE
  5
9F
  8
1
 62
     7
 10
-81.901404711588754
 20
25.7728348698991
 30
0.0
 11
-81.901404711588754
 21
95.972834869899103
 31
0.0
  0
LINE
  5
A0
  8
1
 62
     7
 10
-28.40140471158875
 20
40.872834869899087
 30
0.0
 11
-28.40140471158875
 21
80.872834869899094
 31
0.0
  0
LINE
  5
A1
  8
1
 62
     7
 10
-75.001404711588705
 20
95.872834869899123
 30
0.0
 11
-75.001404711588705
 21
96.272834869899086
 31
0.0
  0
LINE
  5
A2
  8
1
 62
     7
 10
-46.401404711588746
 20
95.872834869899123
 30
0.0
 11
-46.401404711588746
 21
25.872834869899091
 31
0.0
  0
LINE
  5
A3
  8
1
 62
     7
 10
-79.001404711588719
 20
95.872834869899123
 30
0.0
 11
-46.401404711588746
 21
95.872834869899123
 31
0.0
  0
LINE
  5
A4
  8
1
 62
     7
 10
-71.58140471158876
 20
120.4228989370134
 30
0.0
 11
-71.58140471158876
 21
96.272834869899086
 31
0.0
  0
LINE
  5
A5
  8
1
 62
     7
 10
-73.421404711588792
 20
120.4228989370134
 30
0.0
 11
-73.421404711588792
 21
96.272834869899086
 31
0.0
  0
LINE
  5
A6
  8
1
 62
     7
 10
-70.001404711588705
 20
96.272834869899086
 30
0.0
 11
-70.001404711588705
 21
95.872834869899123
 31
0.0
  0
LINE
  5
A7
  8
1
 62
     7
 10
-75.001404711588705
 20
96.272834869899086
 30
0.0
 11
-70.001404711588705
 21
96.272834869899086
 31
0.0
  0
LINE
  5
A8
  8
1
 62
     7
 10
-79.001404711588719
 20
25.872834869899101
 30
0.0
 11
-79.001404711588719
 21
95.872834869899123
 31
0.0
  0
LINE
  5
A9
  8
1
 62
     7
 10
-80.001404711588705
 20
25.7728348698991
 30
0.0
 11
-80.001404711588705
 21
95.972834869899103
 31
0.0
  0
LINE
  5
AA
  8
1
 62
     7
 10
-79.001404711588719
 20
95.872834869899123
 30
0.0
 11
-80.001404711588705
 21
94.872834869899123
 31
0.0
  0
LINE
  5
AB
  8
1
 62
     7
 10
-80.001404711588705
 20
26.872834869899101
 30
0.0
 11
-79.001404711588719
 21
25.872834869899101
 31
0.0
  0
LINE
  5
AC
  8
1
 62
     7
 10
-79.001404711588719
 20
25.872834869899101
 30
0.0
 11
-46.401404711588746
 21
25.872834869899091
 31
0.0
  0
LINE
  5
AD
  8
1
 62
     7
 10
-80.001404711588705
 20
95.972834869899103
 30
0.0
 11
-81.901404711588754
 21
95.972834869899103
 31
0.0
  0
LINE
  5
AE
  8
1
 62
     7
 10
-81.901404711588754
 20
25.7728348698991
 30
0.0
 11
-80.001404711588705
 21
25.7728348698991
 31
0.0
  0
LINE
  5
AF
  8
1
 62
     7
 10
-40.501404711588748
 20
80.872834869899094
 30
0.0
 11
-28.40140471158875
 21
80.872834869899094
 31
0.0
  0
LINE
  5
B0
  8
1
 62
     7
 10
-28.40140471158875
 20
40.872834869899087
 30
0.0
 11
-40.501404711588748
 21
40.872834869899087
 31
0.0
  0
LINE
  5
B1
  8
1
 62
     7
 10
-46.101404711588749
 20
25.722834869899099
 30
0.0
 11
-46.101404711588749
 21
96.022834869899114
 31
0.0
  0
LINE
  5
B2
  8
1
 62
     7
 10
-41.101404711588749
 20
25.722834869899099
 30
0.0
 11
-46.101404711588749
 21
25.722834869899099
 31
0.0
  0
LINE
  5
B3
  8
1
 62
     7
 10
-46.101404711588749
 20
96.022834869899114
 30
0.0
 11
-41.101404711588749
 21
96.022834869899114
 31
0.0
  0
LINE
  5
B4
  8
1
 62
     7
 10
-41.101404711588749
 20
95.372834869899108
 30
0.0
 11
-40.501404711588748
 21
95.372834869899108
 31
0.0
  0
LINE
  5
B5
  8
1
 62
     7
 10
-40.501404711588748
 20
26.372834869899091
 30
0.0
 11
-41.101404711588749
 21
26.372834869899101
 31
0.0
  0
LINE
  5
B6
  8
1
 62
     7
 10
-40.501404711588748
 20
95.372834869899108
 30
0.0
 11
-40.501404711588748
 21
26.372834869899091
 31
0.0
  0
LINE
  5
B7
  8
1
 62
     7
 10
-41.101404711588749
 20
25.722834869899099
 30
0.0
 11
-41.101404711588749
 21
96.022834869899114
 31
0.0
  0
LINE
  5
B8
  8
1
  6
DASHDOT
 62
     3
 10
218.52950977953341
 20
60.872834869899101
 30
0.0
 11
226.15989023592081
 21
60.872834869899101
 31
0.0
  0
LINE
  5
B9
  8
1
  6
DASHDOT
 62
     3
 10
222.344700007727
 20
64.688025098092837
 30
0.0
 11
222.344700007727
 21
57.057644641705359
 31
0.0
  0
LINE
  5
BA
  8
1
  6
DASHDOT
 62
     3
 10
254.85393427277859
 20
93.382069134950598
 30
0.0
 11
249.23243536234551
 21
87.760570224517636
 31
0.0
  0
LINE
  5
BB
  8
1
  6
DASHDOT
 62
     3
 10
254.85393427277859
 20
28.363600604847541
 30
0.0
 11
249.23243536234551
 21
33.985099515280581
 31
0.0
  0
LINE
  5
BC
  8
1
  6
DASHDOT
 62
     3
 10
189.8354657426755
 20
28.363600604847601
 30
0.0
 11
195.45696465310851
 21
33.985099515280581
 31
0.0
  0
LINE
  5
BD
  8
1
 62
     7
 10
65.384668257939254
 20
120.4228989370134
 30
0.0
 11
67.224668257939285
 21
120.4228989370134
 31
0.0
  0
LINE
  5
BE
  8
1
 62
     7
 10
67.224668257939285
 20
120.4228989370134
 30
0.0
 11
67.224668257939285
 21
96.272834869899086
 31
0.0
  0
LINE
  5
BF
  8
1
 62
     7
 10
65.384668257939254
 20
120.4228989370134
 30
0.0
 11
65.384668257939254
 21
96.272834869899086
 31
0.0
  0
LINE
  5
C0
  8
1
 62
     7
 10
220.50470000772711
 20
120.4228989370134
 30
0.0
 11
220.50470000772711
 21
96.272834869899086
 31
0.0
  0
LINE
  5
C1
  8
1
 62
     7
 10
222.344700007727
 20
120.4228989370134
 30
0.0
 11
222.344700007727
 21
96.272834869899086
 31
0.0
  0
LINE
  5
C2
  8
1
 62
     7
 10
224.184700007727
 20
120.4228989370134
 30
0.0
 11
224.184700007727
 21
96.272834869899086
 31
0.0
  0
LINE
  5
C3
  8
1
 62
     3
 10
65.914668257939226
 20
120.4228989370134
 30
0.0
 11
65.914668257939226
 21
123.3837040816512
 31
0.0
  0
LINE
  5
C4
  8
1
 62
     3
 10
66.694668257939313
 20
123.3837040816512
 30
0.0
 11
66.694668257939313
 21
120.4228989370134
 31
0.0
  0
LINE
  5
C5
  8
1
 62
     7
 10
224.844700007727
 20
96.272834869899086
 30
0.0
 11
224.844700007727
 21
95.933817457385175
 31
0.0
  0
LINE
  5
C6
  8
1
 62
     7
 10
219.844700007727
 20
96.272834869899086
 30
0.0
 11
224.844700007727
 21
96.272834869899086
 31
0.0
  0
LINE
  5
C7
  8
1
 62
     7
 10
257.44470000772702
 20
27.76615125465305
 30
0.0
 11
257.44470000772702
 21
58.998668388499759
 31
0.0
  0
LINE
  5
C8
  8
1
  6
DASHDOT
 62
     3
 10
189.8354657426755
 20
93.38206913495064
 30
0.0
 11
195.45696465310851
 21
87.760570224517565
 31
0.0
  0
LINE
  5
C9
  8
1
 62
     7
 10
257.44470000772702
 20
62.747001351298472
 30
0.0
 11
257.44470000772702
 21
93.979518485145135
 31
0.0
  0
LINE
  5
CA
  8
1
 62
     7
 10
219.844700007727
 20
96.272834869899086
 30
0.0
 11
219.844700007727
 21
95.933817457385175
 31
0.0
  0
LINE
  5
CB
  8
1
 62
     7
 10
219.844700007727
 20
67.943902681764555
 30
0.0
 11
219.844700007727
 21
70.372834869899094
 31
0.0
  0
LINE
  5
CC
  8
1
 62
     7
 10
219.844700007727
 20
70.372834869899094
 30
0.0
 11
224.844700007727
 21
70.372834869899094
 31
0.0
  0
LINE
  5
CD
  8
1
 62
     7
 10
224.844700007727
 20
70.372834869899094
 30
0.0
 11
224.844700007727
 21
67.943902681764555
 31
0.0
  0
LINE
  5
CE
  8
1
 62
     7
 10
206.0143972279036
 20
46.825728010502999
 30
0.0
 11
202.8810679758457
 21
45.016699523367613
 31
0.0
  0
LINE
  5
CF
  8
1
 62
     7
 10
218.344700007727
 20
82.038845358415813
 30
0.0
 11
218.344700007727
 21
85.656902332686556
 31
0.0
  0
LINE
  5
D0
  8
1
 62
     7
 10
241.8083320396083
 20
45.016699523367613
 30
0.0
 11
238.67500278755051
 21
46.825728010502949
 31
0.0
  0
LINE
  5
D1
  8
1
 62
     7
 10
198.88106797584581
 20
51.944902753643127
 30
0.0
 11
202.0143972279036
 21
53.753931240778499
 31
0.0
  0
LINE
  5
D2
  8
1
 62
     7
 10
242.67500278755051
 20
53.753931240778478
 30
0.0
 11
245.80833203960839
 21
51.944902753643113
 31
0.0
  0
LINE
  5
D3
  8
1
 62
     7
 10
226.344700007727
 20
85.656902332686556
 30
0.0
 11
226.344700007727
 21
82.038845358415813
 31
0.0
  0
LINE
  5
D4
  8
1
 62
     7
 10
255.45138362297311
 20
95.972834869899103
 30
0.0
 11
224.844700007727
 21
95.972834869899103
 31
0.0
  0
LINE
  5
D5
  8
1
 62
     7
 10
187.244700007727
 20
93.979518485145135
 30
0.0
 11
187.244700007727
 21
62.747001351298472
 31
0.0
  0
LINE
  5
D6
  8
1
 62
     7
 10
189.238016392481
 20
25.7728348698991
 30
0.0
 11
220.47053352632781
 21
25.77283486989915
 31
0.0
  0
LINE
  5
D7
  8
1
 62
     7
 10
187.244700007727
 20
58.998668388499688
 30
0.0
 11
187.244700007727
 21
27.76615125465305
 31
0.0
  0
LINE
  5
D8
  8
1
 62
     7
 10
224.2188664891265
 20
25.77283486989915
 30
0.0
 11
255.45138362297311
 21
25.7728348698991
 31
0.0
  0
LINE
  5
D9
  8
1
 62
     7
 10
219.844700007727
 20
95.972834869899103
 30
0.0
 11
189.238016392481
 21
95.972834869899103
 31
0.0
  0
LINE
  5
DA
  8
1
 62
     7
 10
56.904668257939321
 20
76.872834869899094
 30
0.0
 11
56.904668257939313
 21
44.872834869899108
 31
0.0
  0
LINE
  5
DB
  8
1
 62
     7
 10
56.904668257939313
 20
44.872834869899108
 30
0.0
 11
56.904668257939321
 21
25.7728348698991
 31
0.0
  0
LINE
  5
DC
  8
1
 62
     7
 10
58.804668257939291
 20
44.872834869899108
 30
0.0
 11
58.804668257939277
 21
25.7728348698991
 31
0.0
  0
LINE
  5
DD
  8
1
 62
     7
 10
58.804668257939319
 20
76.872834869899094
 30
0.0
 11
58.804668257939291
 21
44.872834869899108
 31
0.0
  0
LINE
  5
DE
  8
1
 62
     7
 10
59.754668257939329
 20
76.872834869899094
 30
0.0
 11
59.754668257939272
 21
44.872834869899108
 31
0.0
  0
LINE
  5
DF
  8
1
 62
     7
 10
61.104668257939352
 20
76.872834869899094
 30
0.0
 11
61.104668257939302
 21
44.872834869899108
 31
0.0
  0
LINE
  5
E0
  8
1
 62
     7
 10
61.104668257939302
 20
44.872834869899108
 30
0.0
 11
61.104668257939302
 21
44.022834869899107
 31
0.0
  0
LINE
  5
E1
  8
1
 62
     7
 10
59.754668257939272
 20
44.872834869899108
 30
0.0
 11
59.754668257939272
 21
44.022834869899107
 31
0.0
  0
LINE
  5
E2
  8
1
 62
     7
 10
82.104668257939295
 20
46.872834869899108
 30
0.0
 11
82.104668257939295
 21
45.372834869899108
 31
0.0
  0
LINE
  5
E3
  8
1
 62
     7
 10
82.104668257939295
 20
74.872834869899123
 30
0.0
 11
82.104668257939295
 21
46.872834869899108
 31
0.0
  0
LINE
  5
E4
  8
1
 62
     7
 10
91.504668257939315
 20
74.872834869899123
 30
0.0
 11
91.504668257939315
 21
46.872834869899108
 31
0.0
  0
LINE
  5
E5
  8
1
 62
     7
 10
91.504668257939315
 20
46.872834869899108
 30
0.0
 11
91.504668257939315
 21
40.122834869899101
 31
0.0
  0
LINE
  5
E6
  8
1
 62
     7
 10
92.404668257939278
 20
46.872834869899108
 30
0.0
 11
92.404668257939278
 21
25.872834869899091
 31
0.0
  0
LINE
  5
E7
  8
1
 62
     7
 10
92.704668257939261
 20
46.872834869899108
 30
0.0
 11
92.704668257939261
 21
74.872834869899123
 31
0.0
  0
LINE
  5
E8
  8
1
 62
     7
 10
92.404668257939278
 20
74.872834869899123
 30
0.0
 11
92.404668257939278
 21
46.872834869899108
 31
0.0
  0
LINE
  5
E9
  8
1
 62
     7
 10
92.704668257939261
 20
74.872834869899123
 30
0.0
 11
92.704668257939261
 21
96.022834869899114
 31
0.0
  0
LINE
  5
EA
  8
1
 62
     7
 10
92.804668257939284
 20
53.372834869899123
 30
0.0
 11
92.804668257939284
 21
47.872834869899123
 31
0.0
  0
LINE
  5
EB
  8
1
 62
     7
 10
92.804668257939284
 20
67.943902681764598
 30
0.0
 11
92.804668257939284
 21
53.372834869899123
 31
0.0
  0
LINE
  5
EC
  8
1
 62
     7
 10
110.40466825793921
 20
53.372834869899123
 30
0.0
 11
110.40466825793921
 21
40.872834869899108
 31
0.0
  0
LINE
  5
ED
  8
1
 62
     7
 10
110.40466825793931
 20
67.943902681764598
 30
0.0
 11
110.40466825793921
 21
53.372834869899123
 31
0.0
  0
LINE
  5
EE
  8
1
 62
     3
 10
66.304668257939269
 20
120.4228989370134
 30
0.0
 11
66.304668257939269
 21
123.3837040816512
 31
0.0
  0
LINE
  5
EF
  8
1
 62
     7
 10
-73.421404711588792
 20
120.4228989370134
 30
0.0
 11
-71.58140471158876
 21
120.4228989370134
 31
0.0
  0
LINE
  5
F0
  8
1
 62
     3
 10
-72.891404711588805
 20
120.4228989370134
 30
0.0
 11
-72.891404711588805
 21
123.3837040816512
 31
0.0
  0
LINE
  5
F1
  8
1
 62
     3
 10
-72.111404711588719
 20
123.3837040816512
 30
0.0
 11
-72.111404711588719
 21
120.4228989370134
 31
0.0
  0
LINE
  5
F2
  8
1
 62
     3
 10
-72.501404711588762
 20
120.4228989370134
 30
0.0
 11
-72.501404711588762
 21
123.3837040816512
 31
0.0
  0
LINE
  5
F3
  8
1
 62
     3
 10
221.034700007727
 20
120.4228989370134
 30
0.0
 11
221.034700007727
 21
123.3837040816512
 31
0.0
  0
LINE
  5
F4
  8
1
 62
     3
 10
221.8147000077272
 20
123.3837040816512
 30
0.0
 11
221.8147000077272
 21
120.4228989370134
 31
0.0
  0
LINE
  5
F5
  8
1
 62
     3
 10
221.42470000772721
 20
120.4228989370134
 30
0.0
 11
221.42470000772721
 21
123.3837040816512
 31
0.0
  0
LINE
  5
F6
  8
1
 62
     7
 10
224.184700007727
 20
120.4228989370134
 30
0.0
 11
220.50470000772711
 21
120.4228989370134
 31
0.0
  0
LINE
  5
F7
  8
1
 62
     3
 10
222.874700007727
 20
120.4228989370134
 30
0.0
 11
222.874700007727
 21
123.3837040816512
 31
0.0
  0
LINE
  5
F8
  8
1
 62
     3
 10
223.6547000077272
 20
123.3837040816512
 30
0.0
 11
223.6547000077272
 21
120.4228989370134
 31
0.0
  0
LINE
  5
F9
  8
1
 62
     3
 10
223.26470000772721
 20
120.4228989370134
 30
0.0
 11
223.26470000772721
 21
123.3837040816512
 31
0.0
  0
ARC
  5
FA
  8
1
 62
     7
 10
203.8810679758457
 20
43.284648715798753
 30
0.0
 40
1.999999999999992
 50
120.0000000000001
 51
223.60896063078189
  0
ARC
  5
FB
  8
1
 62
     7
 10
216.344700007727
 20
85.656902332686556
 30
0.0
 40
2.0
 50
0.0
 51
103.6089606307829
  0
ARC
  5
FC
  8
1
 62
     7
 10
207.0143972279036
 20
45.093677202934103
 30
0.0
 40
2.0000000000000271
 50
45.826620131871117
 51
119.9999999999999
  0
ARC
  5
FD
  8
1
 62
     7
 10
216.344700007727
 20
82.038845358415813
 30
0.0
 40
1.9999999999999629
 50
285.82662013187058
 51
0.0
  0
ARC
  5
FE
  8
1
 62
     7
 10
237.67500278755051
 20
45.093677202934089
 30
0.0
 40
1.999999999999992
 50
59.999999999999858
 51
134.1733798681295
  0
ARC
  5
FF
  8
1
 62
     7
 10
201.0143972279036
 20
55.48598204834736
 30
0.0
 40
1.999999999999992
 50
300.00000000000011
 51
14.17337986812716
  0
ARC
  5
100
  8
1
 62
     7
 10
240.80833203960819
 20
43.284648715798717
 30
0.0
 40
2.0000000000000711
 50
316.39103936921907
 51
60.000000000000057
  0
ARC
  5
101
  8
1
 62
     7
 10
197.8810679758457
 20
53.676953561212002
 30
0.0
 40
1.999999999999992
 50
196.3910393692174
 51
299.99999999999989
  0
ARC
  5
102
  8
1
 62
     7
 10
246.80833203960839
 20
53.676953561211988
 30
0.0
 40
2.0000000000000102
 50
240.0000000000002
 51
343.60896063078201
  0
ARC
  5
103
  8
1
 62
     7
 10
243.6750027875504
 20
55.48598204834736
 30
0.0
 40
2.000000000000115
 50
165.8266201318734
 51
240.0000000000002
  0
ARC
  5
104
  8
1
 62
     7
 10
228.344700007727
 20
82.038845358415813
 30
0.0
 40
2.0
 50
180.0
 51
254.17337986812879
  0
ARC
  5
105
  8
1
 62
     7
 10
228.344700007727
 20
85.656902332686556
 30
0.0
 40
1.9999999999999929
 50
76.391039369217921
 51
180.0
  0
ARC
  5
106
  8
1
 62
     7
 10
-41.853488044922059
 20
76.372834869899123
 30
0.0
 40
3.7520833333333332
 50
291.12202138239212
 51
68.877978617607525
  0
ARC
  5
107
  8
1
 62
     7
 10
94.554668257939284
 20
32.372834869899123
 30
0.0
 40
0.6499999999999773
 50
0.0
 51
180.0
  0
ARC
  5
108
  8
1
 62
     7
 10
94.554668257939284
 20
27.372834869899119
 30
0.0
 40
0.6500000000000341
 50
180.0
 51
0.0
  0
ARC
  5
109
  8
1
 62
     7
 10
96.952584924605901
 20
29.872834869899119
 30
0.0
 40
3.7520833333333501
 50
291.12202138239343
 51
68.877978617606558
  0
ARC
  5
10A
  8
1
 62
     7
 10
-41.853488044922059
 20
29.872834869899101
 30
0.0
 40
3.7520833333333341
 50
291.1220213823924
 51
68.877978617607553
  0
ARC
  5
10B
  8
1
  6
DASHDOT
 62
     3
 10
222.344700007727
 20
60.872834869899101
 30
0.0
 40
42.00000000000005
 50
39.534976200094142
 51
50.465023799905907
  0
ARC
  5
10C
  8
1
  6
DASHDOT
 62
     3
 10
222.344700007727
 20
60.872834869899101
 30
0.0
 40
42.000000000000028
 50
309.53497620009409
 51
320.46502379990591
  0
ARC
  5
10D
  8
1
  6
DASHDOT
 62
     3
 10
222.344700007727
 20
60.872834869899101
 30
0.0
 40
42.000000000000028
 50
219.53497620009409
 51
230.46502379990591
  0
ARC
  5
10E
  8
1
 62
     7
 10
222.344700007727
 20
60.872834869899101
 30
0.0
 40
48.249999999999979
 50
43.326027417769041
 51
46.673972582231031
  0
ARC
  5
10F
  8
1
 62
     7
 10
222.344700007727
 20
60.872834869899101
 30
0.0
 40
48.25
 50
133.3260274177689
 51
136.67397258223099
  0
ARC
  5
110
  8
1
 62
     7
 10
222.344700007727
 20
60.872834869899101
 30
0.0
 40
48.250000000000028
 50
223.32602741776901
 51
226.67397258223099
  0
ARC
  5
111
  8
1
 62
     7
 10
222.344700007727
 20
60.872834869899101
 30
0.0
 40
48.249999999999979
 50
313.32602741776901
 51
316.67397258223082
  0
ARC
  5
112
  8
1
  6
DASHDOT
 62
     3
 10
222.344700007727
 20
60.872834869899101
 30
0.0
 40
41.999999999999957
 50
129.53497620009401
 51
140.46502379990591
  0
ARC
  5
113
  8
1
 62
     7
 10
222.344700007727
 20
60.872834869899101
 30
0.0
 40
7.4999999999999929
 50
109.47122063449071
 51
70.528779365509266
  0
ARC
  5
114
  8
1
 62
     7
 10
222.344700007727
 20
60.872834869899101
 30
0.0
 40
27.5
 50
223.6089606307828
 51
316.39103936921703
  0
ARC
  5
115
  8
1
 62
     7
 10
222.344700007727
 20
60.872834869899101
 30
0.0
 40
27.5
 50
103.6089606307829
 51
196.39103936921711
  0
ARC
  5
116
  8
1
 62
     7
 10
222.344700007727
 20
60.872834869899101
 30
0.0
 40
27.5
 50
343.60896063078269
 51
76.391039369217154
  0
CIRCLE
  5
117
  8
1
 62
     7
 10
105.40466825793921
 20
60.872834869899123
 30
0.0
 40
1.75
  0
CIRCLE
  5
118
  8
1
 62
     3
 10
105.40466825793921
 20
60.872834869899123
 30
0.0
 40
2.5
  0
CIRCLE
  5
119
  8
1
 62
     7
 10
252.04318481756209
 20
90.571319679734117
 30
0.0
 40
2.6500000000000061
  0
CIRCLE
  5
11A
  8
1
 62
     7
 10
252.04318481756209
 20
31.174350060064071
 30
0.0
 40
2.6500000000000061
  0
CIRCLE
  5
11B
  8
1
 62
     7
 10
192.6462151978921
 20
31.174350060064089
 30
0.0
 40
2.6500000000000061
  0
CIRCLE
  5
11C
  8
1
 62
     7
 10
192.6462151978921
 20
90.571319679734088
 30
0.0
 40
2.6500000000000061
  0
CIRCLE
  5
11D
  8
1
 62
     7
 10
222.344700007727
 20
60.872834869899101
 30
0.0
 40
19.99999999999989
  0
CIRCLE
  5
11E
  8
1
 62
     7
 10
222.344700007727
 20
60.872834869899101
 30
0.0
 40
35.150000000000091
  0
CIRCLE
  5
11F
  8
1
 62
     7
 10
222.344700007727
 20
60.872834869899101
 30
0.0
 40
34.5
  0
CIRCLE
  5
120
  8
1
 62
     7
 10
222.344700007727
 20
29.872834869899091
 30
0.0
 40
3.1499999999999759
  0
CIRCLE
  5
121
  8
1
 62
     7
 10
249.19148752504461
 20
76.372834869899094
 30
0.0
 40
3.1500000000000061
  0
CIRCLE
  5
122
  8
1
 62
     7
 10
195.4979124904095
 20
76.372834869899123
 30
0.0
 40
3.1500000000000061
  0
TEXT
  5
124
  8
1
 62
     7
 10
-75.817287253413497
 20
151.1262883508779
 30
0.0
 40
4.5
  1
AMB 80
 41
0.9
  7
SIMPLEX
  0
ENDSEC
  0
EOF
