  0
SECTION
  2
HEADER
  9
$ACADVER
  1
AC1009
  9
$INSBASE
 10
0.0
 20
0.0
 30
0.0
  9
$EXTMIN
 10
-69.872173555219916
 20
19.833818565995159
 30
0.0
  9
$EXTMAX
 10
263.3697594860011
 20
129.324774537141
 30
0.0
  9
$LIMMIN
 10
-69.872173555219916
 20
19.833818565995159
  9
$LIMMAX
 10
263.3697594860011
 20
129.32477453714091
  9
$ORTHOMODE
 70
     0
  9
$REGENMODE
 70
     1
  9
$FILLMODE
 70
     1
  9
$QTEXTMODE
 70
     0
  9
$MIRRTEXT
 70
     1
  9
$DRAGMODE
 70
     2
  9
$LTSCALE
 40
1.0
  9
$OSMODE
 70
    37
  9
$ATTMODE
 70
     1
  9
$TEXTSIZE
 40
3.5
  9
$TRACEWID
 40
0.5
  9
$TEXTSTYLE
  7
STANDARD
  9
$CLAYER
  8
0
  9
$CELTYPE
  6
BYLAYER
  9
$CECOLOR
 62
   256
  9
$DIMSCALE
 40
1.0
  9
$DIMASZ
 40
0.18
  9
$DIMEXO
 40
0.0625
  9
$DIMDLI
 40
0.38
  9
$DIMRND
 40
0.0
  9
$DIMDLE
 40
0.0
  9
$DIMEXE
 40
0.18
  9
$DIMTP
 40
0.0
  9
$DIMTM
 40
0.0
  9
$DIMTXT
 40
0.18
  9
$DIMCEN
 40
0.09
  9
$DIMTSZ
 40
0.0
  9
$DIMTOL
 70
     0
  9
$DIMLIM
 70
     0
  9
$DIMTIH
 70
     1
  9
$DIMTOH
 70
     1
  9
$DIMSE1
 70
     0
  9
$DIMSE2
 70
     0
  9
$DIMTAD
 70
     0
  9
$DIMZIN
 70
     0
  9
$DIMBLK
  1

  9
$DIMASO
 70
     1
  9
$DIMSHO
 70
     1
  9
$DIMPOST
  1

  9
$DIMAPOST
  1

  9
$DIMALT
 70
     0
  9
$DIMALTD
 70
     2
  9
$DIMALTF
 40
25.399999999999999
  9
$DIMLFAC
 40
1.0
  9
$DIMTOFL
 70
     0
  9
$DIMTVP
 40
0.0
  9
$DIMTIX
 70
     0
  9
$DIMSOXD
 70
     0
  9
$DIMSAH
 70
     0
  9
$DIMBLK1
  1

  9
$DIMBLK2
  1

  9
$DIMSTYLE
  2
STANDARD
  9
$DIMCLRD
 70
     0
  9
$DIMCLRE
 70
     0
  9
$DIMCLRT
 70
     0
  9
$DIMTFAC
 40
1.0
  9
$DIMGAP
 40
0.09
  9
$LUNITS
 70
     2
  9
$LUPREC
 70
     4
  9
$SKETCHINC
 40
0.1
  9
$FILLETRAD
 40
2.0
  9
$AUNITS
 70
     0
  9
$AUPREC
 70
     0
  9
$MENU
  1
ACAD
  9
$ELEVATION
 40
0.0
  9
$PELEVATION
 40
0.0
  9
$THICKNESS
 40
0.0
  9
$LIMCHECK
 70
     0
  9
$BLIPMODE
 70
     0
  9
$CHAMFERA
 40
0.0
  9
$CHAMFERB
 40
0.0
  9
$SKPOLY
 70
     0
  9
$TDCREATE
 40
2452093.8810601849
  9
$TDUPDATE
 40
2452093.8883975688
  9
$TDINDWG
 40
0.0074530093
  9
$TDUSRTIMER
 40
0.0074530093
  9
$USRTIMER
 70
     1
  9
$ANGBASE
 50
0.0
  9
$ANGDIR
 70
     0
  9
$PDMODE
 70
     0
  9
$PDSIZE
 40
0.0
  9
$PLINEWID
 40
0.0
  9
$COORDS
 70
     1
  9
$SPLFRAME
 70
     0
  9
$SPLINETYPE
 70
     6
  9
$SPLINESEGS
 70
     8
  9
$ATTDIA
 70
     0
  9
$ATTREQ
 70
     1
  9
$HANDLING
 70
 10241
  9
$HANDSEED
  5
195
  9
$SURFTAB1
 70
     6
  9
$SURFTAB2
 70
     6
  9
$SURFTYPE
 70
     6
  9
$SURFU
 70
     6
  9
$SURFV
 70
     6
  9
$UCSNAME
  2

  9
$UCSORG
 10
0.0
 20
0.0
 30
0.0
  9
$UCSXDIR
 10
1.0
 20
0.0
 30
0.0
  9
$UCSYDIR
 10
0.0
 20
1.0
 30
0.0
  9
$PUCSNAME
  2

  9
$PUCSORG
 10
0.0
 20
0.0
 30
0.0
  9
$PUCSXDIR
 10
1.0
 20
0.0
 30
0.0
  9
$PUCSYDIR
 10
0.0
 20
1.0
 30
0.0
  9
$USERI1
 70
     0
  9
$USERI2
 70
     0
  9
$USERI3
 70
     0
  9
$USERI4
 70
     0
  9
$USERI5
 70
     0
  9
$USERR1
 40
0.0
  9
$USERR2
 40
0.0
  9
$USERR3
 40
0.0
  9
$USERR4
 40
0.0
  9
$USERR5
 40
0.0
  9
$WORLDVIEW
 70
     1
  9
$SHADEDGE
 70
     3
  9
$SHADEDIF
 70
    70
  9
$TILEMODE
 70
     1
  9
$MAXACTVP
 70
    64
  9
$PLIMCHECK
 70
     0
  9
$PEXTMIN
 10
1.0000000000000000E+020
 20
1.0000000000000000E+020
 30
1.0000000000000000E+020
  9
$PEXTMAX
 10
-1.0000000000000000E+020
 20
-1.0000000000000000E+020
 30
-1.0000000000000000E+020
  9
$PLIMMIN
 10
0.0
 20
0.0
  9
$PLIMMAX
 10
12.0
 20
9.0
  9
$UNITMODE
 70
     0
  9
$VISRETAIN
 70
     1
  9
$PLINEGEN
 70
     0
  9
$PSLTSCALE
 70
     1
  0
ENDSEC
  0
SECTION
  2
TABLES
  0
TABLE
  2
VPORT
 70
     2
  0
VPORT
  2
*ACTIVE
 70
     0
 10
0.0
 20
0.0
 11
1.0
 21
1.0
 12
-42.270994571284056
 22
125.0819173318104
 13
0.0
 23
0.0
 14
1.0
 24
1.0
 15
0.0
 25
0.0
 16
0.0
 26
0.0
 36
1.0
 17
0.0
 27
0.0
 37
0.0
 40
8.9999999483628699
 41
2.5693779904306222
 42
50.0
 43
0.0
 44
0.0
 50
0.0
 51
0.0
 71
     0
 72
   100
 73
     1
 74
     1
 75
     0
 76
     0
 77
     0
 78
     0
  0
ENDTAB
  0
TABLE
  2
LTYPE
 70
     9
  0
LTYPE
  2
CONTINUOUS
 70
     0
  3
Solid line
 72
    65
 73
     0
 40
0.0
  0
LTYPE
  2
BORDER
 70
     0
  3
__ __ . __ __ .
 72
    65
 73
     6
 40
15.346667969003599
 49
4.3847622768581713
 49
-2.1923811384290861
 49
4.3847622768581713
 49
-2.1923811384290861
 49
0.0
 49
-2.1923811384290861
  0
LTYPE
  2
CENTER
 70
     0
  3
____ _ ____ _
 72
    65
 73
     4
 40
17.539049107432682
 49
10.96190569214542
 49
-2.1923811384290861
 49
2.1923811384290861
 49
-2.1923811384290861
  0
LTYPE
  2
DASHDOT
 70
     0
  3
__ . __ . __ .
 72
    65
 73
     4
 40
8.7695245537163427
 49
4.3847622768581713
 49
-2.1923811384290861
 49
0.0
 49
-2.1923811384290861
  0
LTYPE
  2
DASHED
 70
     0
  3
__ __ __ __ __
 72
    65
 73
     2
 40
6.5771434152872574
 49
4.3847622768581713
 49
-2.1923811384290861
  0
LTYPE
  2
DIVIDE
 70
     0
  3
__ . . __ . . 
 72
    65
 73
     6
 40
10.96190569214542
 49
4.3847622768581713
 49
-2.1923811384290861
 49
0.0
 49
-2.1923811384290861
 49
0.0
 49
-2.1923811384290861
  0
LTYPE
  2
DOT
 70
     0
  3
..............
 72
    65
 73
     4
 40
4.3847622768581713
 49
0.0
 49
-2.1923811384290861
 49
0.0
 49
-2.1923811384290861
  0
LTYPE
  2
HIDDEN
 70
     0
  3
_ _ _ _ _ _ _
 72
    65
 73
     2
 40
3.2885717076436278
 49
2.1923811384290861
 49
-1.0961905692145431
  0
LTYPE
  2
PHANTOM
 70
     0
  3
_____ _ _ _____ _ _ 
 72
    65
 73
     6
 40
21.92381138429085
 49
10.96190569214542
 49
-2.1923811384290861
 49
2.1923811384290861
 49
-2.1923811384290861
 49
2.1923811384290861
 49
-2.1923811384290861
  0
ENDTAB
  0
TABLE
  2
LAYER
 70
     2
  0
LAYER
  2
0
 70
     0
 62
     7
  6
CONTINUOUS
  0
LAYER
  2
1
 70
     0
 62
     7
  6
CONTINUOUS
  0
ENDTAB
  0
TABLE
  2
STYLE
 70
     4
  0
STYLE
  2
STANDARD
 70
     0
 40
0.0
 41
1.0
 50
0.0
 71
     0
 42
3.5
  3
txt
  4

  0
STYLE
  2
SIMPLEX
 70
     0
 40
0.0
 41
1.0
 50
0.0
 71
     0
 42
3.5
  3
simplex
  4

  0
STYLE
  2
COMPLEX
 70
     0
 40
0.0
 41
1.0
 50
0.0
 71
     0
 42
3.5
  3
complex
  4

  0
STYLE
  2
ITALIC
 70
     0
 40
0.0
 41
1.0
 50
0.0
 71
     0
 42
3.5
  3
italic
  4

  0
ENDTAB
  0
TABLE
  2
VIEW
 70
     0
  0
ENDTAB
  0
TABLE
  2
UCS
 70
     0
  0
ENDTAB
  0
TABLE
  2
APPID
 70
     1
  0
APPID
  2
ACAD
 70
     0
  0
ENDTAB
  0
TABLE
  2
DIMSTYLE
 70
     1
  0
DIMSTYLE
  2
STANDARD
 70
     0
  3

  4

  5

  6

  7

 40
1.0
 41
0.18
 42
0.0625
 43
0.38
 44
0.18
 45
0.0
 46
0.0
 47
0.0
 48
0.0
140
0.18
141
0.09
142
0.0
143
25.399999999999999
144
1.0
145
0.0
146
1.0
147
0.09
 71
     0
 72
     0
 73
     1
 74
     1
 75
     0
 76
     0
 77
     0
 78
     0
170
     0
171
     2
172
     0
173
     0
174
     0
175
     0
176
     0
177
     0
178
     0
  0
ENDTAB
  0
ENDSEC
  0
SECTION
  2
BLOCKS
  0
BLOCK
  8
0
  2
$MODEL_SPACE
 70
     0
 10
0.0
 20
0.0
 30
0.0
  3
$MODEL_SPACE
  1

  0
ENDBLK
  5
20
  8
0
  0
BLOCK
 67
     1
  8
0
  2
$PAPER_SPACE
 70
     0
 10
0.0
 20
0.0
 30
0.0
  3
$PAPER_SPACE
  1

  0
ENDBLK
  5
1C
 67
     1
  8
0
  0
ENDSEC
  0
SECTION
  2
ENTITIES
  0
LINE
  5
33
  8
1
 62
     7
 10
54.800816183155689
 20
49.98381856599525
 30
0.0
 11
54.550816183155703
 21
49.98381856599525
 31
0.0
  0
LINE
  5
34
  8
1
 62
     7
 10
142.76764839419681
 20
38.983818565995243
 30
0.0
 11
165.06764839419679
 21
38.983818565995243
 31
0.0
  0
LINE
  5
35
  8
1
  6
DASHDOT
 62
     3
 10
122.7676483941968
 20
42.983818565995243
 30
0.0
 11
126.7676483941968
 21
42.983818565995243
 31
0.0
  0
LINE
  5
36
  8
1
  6
DASHDOT
 62
     3
 10
167.56764839419679
 20
42.983818565995243
 30
0.0
 11
171.56764839419679
 21
42.983818565995243
 31
0.0
  0
LINE
  5
37
  8
1
 62
     7
 10
157.76764839419681
 20
20.483818565995211
 30
0.0
 11
157.4676483941968
 21
20.483818565995211
 31
0.0
  0
LINE
  5
38
  8
1
 62
     7
 10
157.76764839419681
 20
20.483818565995211
 30
0.0
 11
157.76764839419681
 21
31.233818565995222
 31
0.0
  0
LINE
  5
39
  8
1
 62
     7
 10
157.76764839419681
 20
65.483818565995222
 30
0.0
 11
157.76764839419681
 21
64.533818565995219
 31
0.0
  0
LINE
  5
3A
  8
1
 62
     7
 10
157.4676483941968
 20
65.483818565995222
 30
0.0
 11
157.76764839419681
 21
65.483818565995222
 31
0.0
  0
LINE
  5
3B
  8
1
 62
     7
 10
158.56764839419679
 20
65.233818565995222
 30
0.0
 11
158.56764839419679
 21
61.233818565995222
 31
0.0
  0
LINE
  5
3C
  8
1
 62
     7
 10
157.76764839419681
 20
65.23381856599525
 30
0.0
 11
158.56764839419679
 21
65.233818565995222
 31
0.0
  0
LINE
  5
3D
  8
1
 62
     7
 10
157.76764839419681
 20
61.233818565995222
 30
0.0
 11
158.56764839419679
 21
61.233818565995222
 31
0.0
  0
LINE
  5
3E
  8
1
 62
     7
 10
157.4676483941968
 20
61.93381856599521
 30
0.0
 11
157.76764839419681
 21
61.933818565995253
 31
0.0
  0
LINE
  5
3F
  8
1
 62
     7
 10
157.4676483941968
 20
64.533818565995219
 30
0.0
 11
157.76764839419681
 21
64.533818565995219
 31
0.0
  0
LINE
  5
40
  8
1
 62
     7
 10
155.81764839419679
 20
61.733818565995207
 30
0.0
 11
155.01764839419681
 21
61.733818565995207
 31
0.0
  0
LINE
  5
41
  8
1
 62
     7
 10
155.81764839419679
 20
64.733818565995222
 30
0.0
 11
155.81764839419679
 21
61.733818565995207
 31
0.0
  0
LINE
  5
42
  8
1
 62
     7
 10
155.01764839419681
 20
64.733818565995222
 30
0.0
 11
155.81764839419679
 21
64.733818565995222
 31
0.0
  0
LINE
  5
43
  8
1
 62
     7
 10
157.4676483941968
 20
61.93381856599521
 30
0.0
 11
157.4676483941968
 21
49.983818565995243
 31
0.0
  0
LINE
  5
44
  8
1
 62
     7
 10
155.01764839419681
 20
53.233818565995207
 30
0.0
 11
157.4676483941968
 21
53.233818565995207
 31
0.0
  0
LINE
  5
45
  8
1
 62
     7
 10
155.01764839419681
 20
29.43381856599521
 30
0.0
 11
157.4676483941968
 21
29.43381856599521
 31
0.0
  0
LINE
  5
46
  8
1
 62
     7
 10
155.01764839419681
 20
19.833818565995209
 30
0.0
 11
155.01764839419681
 21
35.983818565995243
 31
0.0
  0
LINE
  5
47
  8
1
 62
     7
 10
157.4676483941968
 20
19.833818565995209
 30
0.0
 11
155.01764839419681
 21
19.833818565995209
 31
0.0
  0
LINE
  5
48
  8
1
 62
     7
 10
157.4676483941968
 20
66.133818565995242
 30
0.0
 11
157.4676483941968
 21
64.533818565995219
 31
0.0
  0
LINE
  5
49
  8
1
 62
     7
 10
155.01764839419681
 20
66.133818565995227
 30
0.0
 11
157.4676483941968
 21
66.133818565995242
 31
0.0
  0
LINE
  5
4A
  8
1
 62
     7
 10
167.56764839419679
 20
53.983818565995207
 30
0.0
 11
165.06764839419679
 21
53.983818565995207
 31
0.0
  0
LINE
  5
4B
  8
1
 62
     7
 10
165.06764839419679
 20
31.983818565995211
 30
0.0
 11
167.56764839419679
 21
31.983818565995211
 31
0.0
  0
LINE
  5
4C
  8
1
 62
     7
 10
157.76764839419681
 20
50.483818565995207
 30
0.0
 11
164.06764839419679
 21
50.483818565995207
 31
0.0
  0
LINE
  5
4D
  8
1
 62
     7
 10
157.76764839419681
 20
35.483818565995207
 30
0.0
 11
164.06764839419679
 21
35.483818565995207
 31
0.0
  0
LINE
  5
4E
  8
1
 62
     7
 10
165.06764839419679
 20
51.483818565995207
 30
0.0
 11
164.06764839419679
 21
50.483818565995207
 31
0.0
  0
LINE
  5
4F
  8
1
 62
     7
 10
164.06764839419679
 20
35.483818565995207
 30
0.0
 11
165.06764839419679
 21
34.483818565995207
 31
0.0
  0
LINE
  5
50
  8
1
 62
     7
 10
164.06764839419679
 20
50.483818565995207
 30
0.0
 11
164.06764839419679
 21
49.983818565995243
 31
0.0
  0
LINE
  5
51
  8
1
 62
     7
 10
157.76764839419681
 20
25.483818565995211
 30
0.0
 11
167.56764839419679
 21
25.483818565995229
 31
0.0
  0
LINE
  5
52
  8
1
 62
     7
 10
157.76764839419681
 20
61.933818565995253
 30
0.0
 11
157.76764839419681
 21
49.983818565995243
 31
0.0
  0
LINE
  5
53
  8
1
 62
     7
 10
156.72852825257229
 20
35.483818565995207
 30
0.0
 11
157.16764839419679
 21
35.483818565995207
 31
0.0
  0
LINE
  5
54
  8
1
 62
     7
 10
156.72852825257229
 20
29.983818565995222
 30
0.0
 11
157.16764839419679
 21
29.983818565995222
 31
0.0
  0
LINE
  5
55
  8
1
 62
     7
 10
160.01764839419681
 20
34.233818565995207
 30
0.0
 11
160.4676483941968
 21
33.783818565995233
 31
0.0
  0
LINE
  5
56
  8
1
 62
     7
 10
160.4676483941968
 20
33.783818565995233
 30
0.0
 11
160.4676483941968
 21
31.68381856599521
 31
0.0
  0
LINE
  5
57
  8
1
 62
     7
 10
160.4676483941968
 20
31.68381856599521
 30
0.0
 11
160.01764839419681
 21
31.233818565995222
 31
0.0
  0
LINE
  5
58
  8
1
 62
     7
 10
160.01764839419681
 20
34.233818565995207
 30
0.0
 11
160.01764839419681
 21
31.233818565995222
 31
0.0
  0
LINE
  5
59
  8
1
 62
     7
 10
158.74707125760281
 20
34.233818565995207
 30
0.0
 11
158.74707125760281
 21
31.233818565995222
 31
0.0
  0
LINE
  5
5A
  8
1
 62
     3
 10
160.4676483941968
 20
33.783818565995233
 30
0.0
 11
158.74707125760281
 21
33.783818565995233
 31
0.0
  0
LINE
  5
5B
  8
1
 62
     3
 10
158.74707125760281
 20
33.783818565995233
 30
0.0
 11
157.9676483941968
 21
34.233818565995207
 31
0.0
  0
LINE
  5
5C
  8
1
 62
     3
 10
160.4676483941968
 20
31.68381856599521
 30
0.0
 11
158.74707125760281
 21
31.68381856599521
 31
0.0
  0
LINE
  5
5D
  8
1
 62
     3
 10
158.74707125760281
 20
31.68381856599521
 30
0.0
 11
157.9676483941968
 21
31.233818565995222
 31
0.0
  0
LINE
  5
5E
  8
1
 62
     7
 10
157.4676483941968
 20
34.233818565995207
 30
0.0
 11
160.01764839419681
 21
34.233818565995207
 31
0.0
  0
LINE
  5
5F
  8
1
 62
     7
 10
160.01764839419681
 20
31.233818565995222
 30
0.0
 11
157.4676483941968
 21
31.233818565995222
 31
0.0
  0
LINE
  5
60
  8
1
 62
     7
 10
160.4676483941968
 20
33.783818565995233
 30
0.0
 11
162.05425093457521
 21
33.783818565995233
 31
0.0
  0
LINE
  5
61
  8
1
 62
     7
 10
162.05425093457521
 20
33.783818565995233
 30
0.0
 11
162.66046871722429
 21
32.733818565995207
 31
0.0
  0
LINE
  5
62
  8
1
 62
     7
 10
162.66046871722429
 20
32.733818565995207
 30
0.0
 11
162.05425093457521
 21
31.68381856599521
 31
0.0
  0
LINE
  5
63
  8
1
 62
     7
 10
162.05425093457521
 20
31.68381856599521
 30
0.0
 11
160.4676483941968
 21
31.68381856599521
 31
0.0
  0
LINE
  5
64
  8
1
 62
     7
 10
162.05425093457521
 20
33.783818565995233
 30
0.0
 11
162.05425093457521
 21
31.68381856599521
 31
0.0
  0
LINE
  5
65
  8
1
 62
     3
 10
157.76764839419681
 20
56.483818565995207
 30
0.0
 11
167.56764839419679
 21
56.483818565995207
 31
0.0
  0
LINE
  5
66
  8
1
 62
     3
 10
157.76764839419681
 20
59.483818565995207
 30
0.0
 11
167.56764839419679
 21
59.483818565995207
 31
0.0
  0
LINE
  5
67
  8
1
  6
CENTER
 62
     3
 10
155.81764839419679
 20
57.983818565995207
 30
0.0
 11
169.51764839419681
 21
57.983818565995207
 31
0.0
  0
LINE
  5
68
  8
1
 62
     7
 10
157.76764839419681
 20
56.783818565995219
 30
0.0
 11
167.56764839419679
 21
56.783818565995219
 31
0.0
  0
LINE
  5
69
  8
1
 62
     7
 10
157.76764839419681
 20
59.18381856599521
 30
0.0
 11
167.56764839419679
 21
59.18381856599521
 31
0.0
  0
LINE
  5
6A
  8
1
 62
     7
 10
167.56764839419679
 20
60.483818565995207
 30
0.0
 11
157.76764839419681
 21
60.483818565995207
 31
0.0
  0
LINE
  5
6B
  8
1
 62
     7
 10
167.56764839419679
 20
60.483818565995207
 30
0.0
 11
167.56764839419679
 21
53.983818565995207
 31
0.0
  0
LINE
  5
6C
  8
1
 62
     7
 10
155.01764839419681
 20
49.983818565995243
 30
0.0
 11
155.01764839419681
 21
66.133818565995227
 31
0.0
  0
LINE
  5
6D
  8
1
 62
     7
 10
165.06764839419679
 20
31.983818565995211
 30
0.0
 11
165.06764839419679
 21
38.983818565995243
 31
0.0
  0
LINE
  5
6E
  8
1
 62
     7
 10
157.4676483941968
 20
35.983818565995243
 30
0.0
 11
157.4676483941968
 21
19.833818565995209
 31
0.0
  0
LINE
  5
6F
  8
1
 62
     7
 10
157.76764839419681
 20
35.983818565995243
 30
0.0
 11
157.76764839419681
 21
34.233818565995207
 31
0.0
  0
LINE
  5
70
  8
1
 62
     7
 10
164.06764839419679
 20
35.983818565995243
 30
0.0
 11
164.06764839419679
 21
35.483818565995207
 31
0.0
  0
LINE
  5
71
  8
1
 62
     7
 10
128.2676483941967
 20
20.983818565995239
 30
0.0
 11
128.2676483941967
 21
33.983818565995207
 31
0.0
  0
LINE
  5
72
  8
1
 62
     7
 10
128.2676483941967
 20
22.98381856599525
 30
0.0
 11
126.7676483941968
 21
22.98381856599525
 31
0.0
  0
LINE
  5
73
  8
1
 62
     7
 10
126.7676483941968
 20
22.98381856599525
 30
0.0
 11
126.7676483941968
 21
33.983818565995207
 31
0.0
  0
LINE
  5
74
  8
1
 62
     7
 10
151.26764839419681
 20
21.733818565995239
 30
0.0
 11
151.26764839419681
 21
19.983818565995229
 31
0.0
  0
LINE
  5
75
  8
1
 62
     7
 10
148.76764839419681
 20
32.53381856599524
 30
0.0
 11
148.76764839419681
 21
21.183818565995239
 31
0.0
  0
LINE
  5
76
  8
1
 62
     7
 10
151.26764839419681
 20
21.183818565995239
 30
0.0
 11
148.76764839419681
 21
21.183818565995239
 31
0.0
  0
LINE
  5
77
  8
1
 62
     7
 10
129.2676483941967
 20
19.983818565995229
 30
0.0
 11
128.2676483941967
 21
20.983818565995239
 31
0.0
  0
LINE
  5
78
  8
1
 62
     7
 10
128.813603745596
 20
31.983818565995239
 30
0.0
 11
128.2676483941967
 21
30.483818565995239
 31
0.0
  0
LINE
  5
79
  8
1
 62
     7
 10
148.76764839419681
 20
31.983818565995239
 30
0.0
 11
143.76764839419681
 21
31.983818565995239
 31
0.0
  0
LINE
  5
7A
  8
1
 62
     7
 10
142.61764839419681
 20
32.344756983315108
 30
0.0
 11
142.61764839419681
 21
31.483818565995239
 31
0.0
  0
LINE
  5
7B
  8
1
 62
     7
 10
143.76764839419681
 20
36.983818565995243
 30
0.0
 11
143.76764839419681
 21
31.483818565995239
 31
0.0
  0
LINE
  5
7C
  8
1
 62
     7
 10
143.76764839419681
 20
33.633818565995199
 30
0.0
 11
142.76764839419681
 21
33.633818565995199
 31
0.0
  0
LINE
  5
7D
  8
1
 62
     7
 10
128.813603745596
 20
32.549787370638619
 30
0.0
 11
128.813603745596
 21
31.983818565995239
 31
0.0
  0
LINE
  5
7E
  8
1
 62
     7
 10
126.7676483941968
 20
33.983818565995207
 30
0.0
 11
128.7676483941967
 21
33.983818565995207
 31
0.0
  0
LINE
  5
7F
  8
1
 62
     7
 10
134.92764839419681
 20
38.983818565995243
 30
0.0
 11
129.6076483941967
 21
38.983818565995243
 31
0.0
  0
LINE
  5
80
  8
1
 62
     7
 10
128.7676483941967
 20
33.665165218047932
 30
0.0
 11
131.2176483941968
 21
33.665165218047918
 31
0.0
  0
LINE
  5
81
  8
1
 62
     7
 10
128.7676483941967
 20
37.30247191394254
 30
0.0
 11
131.2176483941968
 21
37.30247191394254
 31
0.0
  0
LINE
  5
82
  8
1
 62
     7
 10
141.92764839419681
 20
38.983818565995243
 30
0.0
 11
136.6076483941967
 21
38.983818565995243
 31
0.0
  0
LINE
  5
83
  8
1
 62
     7
 10
135.7676483941967
 20
32.823818565995239
 30
0.0
 11
135.7676483941967
 21
38.143818565995218
 31
0.0
  0
LINE
  5
84
  8
1
 62
     7
 10
142.76764839419681
 20
33.665165218047932
 30
0.0
 11
140.31764839419679
 21
33.665165218047918
 31
0.0
  0
LINE
  5
85
  8
1
 62
     7
 10
138.2176483941968
 20
33.665165218047918
 30
0.0
 11
133.31764839419671
 21
33.665165218047918
 31
0.0
  0
LINE
  5
86
  8
1
 62
     7
 10
138.2176483941968
 20
37.30247191394254
 30
0.0
 11
133.31764839419671
 21
37.30247191394254
 31
0.0
  0
LINE
  5
87
  8
1
 62
     7
 10
142.76764839419681
 20
37.30247191394254
 30
0.0
 11
140.31764839419679
 21
37.30247191394254
 31
0.0
  0
LINE
  5
88
  8
1
 62
     7
 10
141.92764839419681
 20
31.983818565995239
 30
0.0
 11
128.813603745596
 21
31.983818565995239
 31
0.0
  0
LINE
  5
89
  8
1
 62
     7
 10
128.2676483941967
 20
31.983818565995239
 30
0.0
 11
128.7676483941967
 21
31.983818565995239
 31
0.0
  0
LINE
  5
8A
  8
1
 62
     7
 10
128.7676483941967
 20
31.983818565995239
 30
0.0
 11
128.7676483941967
 21
38.143818565995218
 31
0.0
  0
LINE
  5
8B
  8
1
 62
     7
 10
142.76764839419681
 20
31.483818565995239
 30
0.0
 11
142.76764839419681
 21
38.983818565995243
 31
0.0
  0
LINE
  5
8C
  8
1
 62
     7
 10
142.61764839419681
 20
31.483818565995239
 30
0.0
 11
143.76764839419681
 21
31.483818565995239
 31
0.0
  0
LINE
  5
8D
  8
1
 62
     7
 10
154.26764839419681
 20
35.983818565995243
 30
0.0
 11
165.06764839419679
 21
35.983818565995243
 31
0.0
  0
LINE
  5
8E
  8
1
 62
     7
 10
152.77801136527859
 20
19.983818565995229
 30
0.0
 11
154.76764839419681
 21
19.983818565995229
 31
0.0
  0
LINE
  5
8F
  8
1
 62
     7
 10
149.76764839419681
 20
21.733818565995239
 30
0.0
 11
151.76764839419681
 21
21.733818565995239
 31
0.0
  0
LINE
  5
90
  8
1
 62
     7
 10
149.76764839419681
 20
32.53381856599524
 30
0.0
 11
149.76764839419681
 21
21.733818565995239
 31
0.0
  0
LINE
  5
91
  8
1
 62
     7
 10
144.76764839419681
 20
32.53381856599524
 30
0.0
 11
149.76764839419681
 21
32.53381856599524
 31
0.0
  0
LINE
  5
92
  8
1
 62
     7
 10
144.76764839419681
 20
36.983818565995243
 30
0.0
 11
144.76764839419681
 21
32.53381856599524
 31
0.0
  0
LINE
  5
93
  8
1
 62
     7
 10
142.76764839419681
 20
36.983818565995243
 30
0.0
 11
144.76764839419681
 21
36.983818565995243
 31
0.0
  0
LINE
  5
94
  8
1
 62
     7
 10
154.76764839419681
 20
19.983818565995229
 30
0.0
 11
154.76764839419681
 21
35.983818565995243
 31
0.0
  0
LINE
  5
95
  8
1
 62
     7
 10
152.77801136527859
 20
19.983818565995229
 30
0.0
 11
151.76764839419681
 21
21.733818565995239
 31
0.0
  0
LINE
  5
96
  8
1
 62
     7
 10
153.76764839419681
 20
29.183818565995232
 30
0.0
 11
154.76764839419681
 21
28.183818565995239
 31
0.0
  0
LINE
  5
97
  8
1
 62
     7
 10
153.76764839419681
 20
35.483818565995243
 30
0.0
 11
153.76764839419681
 21
29.183818565995232
 31
0.0
  0
LINE
  5
98
  8
1
 62
     7
 10
151.26764839419681
 20
19.983818565995229
 30
0.0
 11
129.2676483941967
 21
19.983818565995229
 31
0.0
  0
LINE
  5
99
  8
1
  6
CENTER
 62
     3
 10
225.2808212707194
 20
34.358818565995207
 30
0.0
 11
229.17793558774949
 21
36.608818565995179
 31
0.0
  0
LINE
  5
9A
  8
1
  6
CENTER
 62
     3
 10
240.2197594860011
 20
60.233818565995271
 30
0.0
 11
240.2197594860011
 21
55.733818565995293
 31
0.0
  0
LINE
  5
9B
  8
1
  6
DASHDOT
 62
     3
 10
240.2197594860011
 20
40.76387281101438
 30
0.0
 11
240.2197594860011
 21
45.203764320976092
 31
0.0
  0
LINE
  5
9C
  8
1
  6
DASHDOT
 62
     3
 10
242.43970524098191
 20
42.983818565995243
 30
0.0
 11
237.99981373102011
 21
42.983818565995243
 31
0.0
  0
LINE
  5
9D
  8
1
 62
     7
 10
133.84764839419671
 20
91.265452502817496
 30
0.0
 11
135.68764839419671
 21
91.265452502817496
 31
0.0
  0
LINE
  5
9E
  8
1
 62
     7
 10
135.68764839419671
 20
91.265452502817496
 30
0.0
 11
135.68764839419671
 21
66.98381856599525
 31
0.0
  0
LINE
  5
9F
  8
1
 62
     7
 10
133.84764839419671
 20
91.265452502817496
 30
0.0
 11
133.84764839419671
 21
66.98381856599525
 31
0.0
  0
LINE
  5
A0
  8
1
 62
     7
 10
132.2676483941967
 20
66.98381856599525
 30
0.0
 11
137.2676483941967
 21
66.98381856599525
 31
0.0
  0
LINE
  5
A1
  8
1
 62
     7
 10
137.7676483941967
 20
66.48381856599525
 30
0.0
 11
137.2676483941967
 21
66.98381856599525
 31
0.0
  0
LINE
  5
A2
  8
1
 62
     7
 10
137.7676483941967
 20
65.98381856599525
 30
0.0
 11
137.7676483941967
 21
66.48381856599525
 31
0.0
  0
LINE
  5
A3
  8
1
 62
     7
 10
131.7676483941967
 20
66.48381856599525
 30
0.0
 11
131.7676483941967
 21
65.98381856599525
 31
0.0
  0
LINE
  5
A4
  8
1
 62
     7
 10
132.2676483941967
 20
66.98381856599525
 30
0.0
 11
131.7676483941967
 21
66.48381856599525
 31
0.0
  0
LINE
  5
A5
  8
1
 62
     3
 10
134.37764839419671
 20
91.265452502817496
 30
0.0
 11
134.37764839419671
 21
94.22625764745527
 31
0.0
  0
LINE
  5
A6
  8
1
 62
     3
 10
135.15764839419671
 20
94.22625764745527
 30
0.0
 11
135.15764839419671
 21
91.265452502817496
 31
0.0
  0
LINE
  5
A7
  8
1
 62
     7
 10
126.7676483941968
 20
74.73381856599525
 30
0.0
 11
128.2676483941967
 21
74.73381856599525
 31
0.0
  0
LINE
  5
A8
  8
1
 62
     7
 10
126.7676483941968
 20
83.233818565995236
 30
0.0
 11
128.2676483941967
 21
83.233818565995236
 31
0.0
  0
LINE
  5
A9
  8
1
 62
     7
 10
126.7676483941968
 20
85.983818565995236
 30
0.0
 11
128.2676483941967
 21
85.983818565995236
 31
0.0
  0
LINE
  5
AA
  8
1
 62
     7
 10
151.26764839419681
 20
65.98381856599525
 30
0.0
 11
151.26764839419681
 21
64.23381856599525
 31
0.0
  0
LINE
  5
AB
  8
1
 62
     7
 10
148.76764839419681
 20
64.783818565995219
 30
0.0
 11
148.76764839419681
 21
53.433818565995253
 31
0.0
  0
LINE
  5
AC
  8
1
 62
     7
 10
148.76764839419681
 20
64.783818565995219
 30
0.0
 11
151.26764839419681
 21
64.783818565995219
 31
0.0
  0
LINE
  5
AD
  8
1
 62
     7
 10
128.2676483941967
 20
64.98381856599525
 30
0.0
 11
129.2676483941967
 21
65.98381856599525
 31
0.0
  0
LINE
  5
AE
  8
1
 62
     7
 10
128.2676483941967
 20
55.483818565995243
 30
0.0
 11
128.813603745596
 21
53.983818565995243
 31
0.0
  0
LINE
  5
AF
  8
1
 62
     7
 10
143.76764839419681
 20
53.983818565995243
 30
0.0
 11
148.76764839419681
 21
53.983818565995243
 31
0.0
  0
LINE
  5
B0
  8
1
 62
     7
 10
142.61764839419681
 20
54.48381856599525
 30
0.0
 11
142.61764839419681
 21
53.622880148675357
 31
0.0
  0
LINE
  5
B1
  8
1
 62
     7
 10
143.76764839419681
 20
54.48381856599525
 30
0.0
 11
143.76764839419681
 21
48.983818565995243
 31
0.0
  0
LINE
  5
B2
  8
1
 62
     7
 10
142.76764839419681
 20
52.333818565995273
 30
0.0
 11
143.76764839419681
 21
52.333818565995273
 31
0.0
  0
LINE
  5
B3
  8
1
 62
     7
 10
143.76764839419681
 20
54.48381856599525
 30
0.0
 11
142.76764839419681
 21
54.48381856599525
 31
0.0
  0
LINE
  5
B4
  8
1
 62
     7
 10
128.813603745596
 20
53.983818565995243
 30
0.0
 11
128.813603745596
 21
53.417849761351853
 31
0.0
  0
LINE
  5
B5
  8
1
 62
     7
 10
128.7676483941967
 20
51.98381856599525
 30
0.0
 11
126.7676483941968
 21
51.98381856599525
 31
0.0
  0
LINE
  5
B6
  8
1
 62
     7
 10
129.6076483941967
 20
46.983818565995243
 30
0.0
 11
134.92764839419681
 21
46.983818565995243
 31
0.0
  0
LINE
  5
B7
  8
1
 62
     7
 10
133.31764839419671
 20
52.302471913942547
 30
0.0
 11
138.2176483941968
 21
52.302471913942547
 31
0.0
  0
LINE
  5
B8
  8
1
 62
     7
 10
131.2176483941968
 20
52.302471913942547
 30
0.0
 11
128.7676483941967
 21
52.30247191394254
 31
0.0
  0
LINE
  5
B9
  8
1
 62
     7
 10
131.2176483941968
 20
48.665165218047918
 30
0.0
 11
128.7676483941967
 21
48.665165218047918
 31
0.0
  0
LINE
  5
BA
  8
1
 62
     7
 10
136.6076483941967
 20
46.983818565995243
 30
0.0
 11
141.92764839419681
 21
46.983818565995243
 31
0.0
  0
LINE
  5
BB
  8
1
 62
     7
 10
140.31764839419679
 20
52.302471913942547
 30
0.0
 11
142.76764839419681
 21
52.30247191394254
 31
0.0
  0
LINE
  5
BC
  8
1
 62
     7
 10
138.2176483941968
 20
48.665165218047918
 30
0.0
 11
133.31764839419671
 21
48.665165218047918
 31
0.0
  0
LINE
  5
BD
  8
1
 62
     7
 10
140.31764839419679
 20
48.665165218047918
 30
0.0
 11
142.76764839419681
 21
48.665165218047918
 31
0.0
  0
LINE
  5
BE
  8
1
 62
     7
 10
128.813603745596
 20
53.983818565995243
 30
0.0
 11
141.92764839419681
 21
53.983818565995243
 31
0.0
  0
LINE
  5
BF
  8
1
 62
     7
 10
128.7676483941967
 20
53.983818565995243
 30
0.0
 11
128.2676483941967
 21
53.983818565995243
 31
0.0
  0
LINE
  5
C0
  8
1
 62
     7
 10
142.76764839419681
 20
54.48381856599525
 30
0.0
 11
142.61764839419681
 21
54.48381856599525
 31
0.0
  0
LINE
  5
C1
  8
1
 62
     7
 10
165.06764839419679
 20
49.983818565995243
 30
0.0
 11
154.26764839419681
 21
49.983818565995243
 31
0.0
  0
LINE
  5
C2
  8
1
 62
     7
 10
154.76764839419681
 20
65.98381856599525
 30
0.0
 11
152.77801136527859
 21
65.98381856599525
 31
0.0
  0
LINE
  5
C3
  8
1
 62
     7
 10
151.76764839419681
 20
64.23381856599525
 30
0.0
 11
149.76764839419681
 21
64.23381856599525
 31
0.0
  0
LINE
  5
C4
  8
1
 62
     7
 10
149.76764839419681
 20
64.23381856599525
 30
0.0
 11
149.76764839419681
 21
53.433818565995253
 31
0.0
  0
LINE
  5
C5
  8
1
 62
     7
 10
149.76764839419681
 20
53.433818565995253
 30
0.0
 11
144.76764839419681
 21
53.433818565995253
 31
0.0
  0
LINE
  5
C6
  8
1
 62
     7
 10
144.76764839419681
 20
53.433818565995253
 30
0.0
 11
144.76764839419681
 21
48.983818565995243
 31
0.0
  0
LINE
  5
C7
  8
1
 62
     7
 10
144.76764839419681
 20
48.983818565995243
 30
0.0
 11
142.76764839419681
 21
48.983818565995243
 31
0.0
  0
LINE
  5
C8
  8
1
 62
     7
 10
154.76764839419681
 20
49.983818565995243
 30
0.0
 11
154.76764839419681
 21
65.98381856599525
 31
0.0
  0
LINE
  5
C9
  8
1
 62
     7
 10
151.76764839419681
 20
64.23381856599525
 30
0.0
 11
152.77801136527859
 21
65.98381856599525
 31
0.0
  0
LINE
  5
CA
  8
1
 62
     7
 10
142.76764839419681
 20
46.783489604387889
 30
0.0
 11
165.06764839419679
 21
46.783489604387889
 31
0.0
  0
LINE
  5
CB
  8
1
 62
     7
 10
142.76764839419681
 20
47.883818565995227
 30
0.0
 11
165.06764839419679
 21
47.883818565995227
 31
0.0
  0
LINE
  5
CC
  8
1
 62
     7
 10
154.76764839419681
 20
57.783818565995233
 30
0.0
 11
153.76764839419681
 21
56.783818565995219
 31
0.0
  0
LINE
  5
CD
  8
1
 62
     7
 10
153.76764839419681
 20
56.783818565995219
 30
0.0
 11
153.76764839419681
 21
50.483818565995243
 31
0.0
  0
LINE
  5
CE
  8
1
  6
CENTER
 62
     3
 10
255.15869770128259
 20
34.358818565995207
 30
0.0
 11
251.2615833842527
 21
36.608818565995207
 31
0.0
  0
LINE
  5
CF
  8
1
 62
     7
 10
238.11975948600099
 20
81.633818565995242
 30
0.0
 11
238.11975948600099
 21
76.333818565995202
 31
0.0
  0
LINE
  5
D0
  8
1
 62
     7
 10
242.31975948600109
 20
81.633818565995242
 30
0.0
 11
242.31975948600109
 21
76.333818565995202
 31
0.0
  0
LINE
  5
D1
  8
1
 62
     7
 10
245.21975948600101
 20
84.983818565995236
 30
0.0
 11
245.21975948600101
 21
68.753286685326955
 31
0.0
  0
LINE
  5
D2
  8
1
 62
     7
 10
244.2197594860011
 20
85.983818565995236
 30
0.0
 11
236.2197594860011
 21
85.983818565995236
 31
0.0
  0
LINE
  5
D3
  8
1
 62
     7
 10
235.21975948600101
 20
84.983818565995236
 30
0.0
 11
235.21975948600101
 21
65.587413412833214
 31
0.0
  0
LINE
  5
D4
  8
1
 62
     7
 10
238.96975948600101
 20
46.783489604387889
 30
0.0
 11
238.96975948600101
 21
47.883818565995227
 31
0.0
  0
LINE
  5
D5
  8
1
 62
     7
 10
238.96975948600101
 20
47.883818565995227
 30
0.0
 11
241.46975948600101
 21
47.883818565995227
 31
0.0
  0
LINE
  5
D6
  8
1
 62
     7
 10
241.46975948600101
 20
47.883818565995227
 30
0.0
 11
241.46975948600101
 21
46.783489604387889
 31
0.0
  0
LINE
  5
D7
  8
1
 62
     7
 10
129.2676483941967
 20
65.98381856599525
 30
0.0
 11
151.26764839419681
 21
65.98381856599525
 31
0.0
  0
LINE
  5
D8
  8
1
  6
DASHDOT
 62
     3
 10
67.350816183155786
 20
42.98381856599525
 30
0.0
 11
71.3508161831558
 21
42.98381856599525
 31
0.0
  0
LINE
  5
D9
  8
1
  6
DASHDOT
 62
     3
 10
22.55081618315581
 20
42.98381856599525
 30
0.0
 11
26.550816183155799
 21
42.98381856599525
 31
0.0
  0
LINE
  5
DA
  8
1
 62
     7
 10
28.05081618315581
 20
85.983818565995179
 30
0.0
 11
28.0508161831557
 21
20.983818565995161
 31
0.0
  0
LINE
  5
DB
  8
1
 62
     7
 10
67.350816183155786
 20
25.483818565995151
 30
0.0
 11
67.350816183155786
 21
60.483818565995257
 31
0.0
  0
LINE
  5
DC
  8
1
 62
     7
 10
26.550816183155799
 20
22.98381856599525
 30
0.0
 11
26.550816183155799
 21
85.983818565995179
 31
0.0
  0
LINE
  5
DD
  8
1
 62
     7
 10
29.0508161831557
 20
65.983818565995165
 30
0.0
 11
51.050816183155689
 21
65.983818565995165
 31
0.0
  0
LINE
  5
DE
  8
1
  6
DASHDOT
 62
     3
 10
56.184650523702487
 20
32.85881856599525
 30
0.0
 11
59.376765883053118
 21
32.85881856599525
 31
0.0
  0
LINE
  5
DF
  8
1
 62
     7
 10
57.550816183155689
 20
34.85881856599525
 30
0.0
 11
58.350816183155779
 21
34.85881856599525
 31
0.0
  0
LINE
  5
E0
  8
1
 62
     7
 10
58.350816183155779
 20
34.85881856599525
 30
0.0
 11
58.350816183155779
 21
30.858818565995151
 31
0.0
  0
LINE
  5
E1
  8
1
 62
     7
 10
57.550816183155689
 20
30.858818565995151
 30
0.0
 11
58.350816183155779
 21
30.858818565995151
 31
0.0
  0
LINE
  5
E2
  8
1
 62
     7
 10
58.350816183155779
 20
34.85881856599525
 30
0.0
 11
58.350816183155779
 21
30.858818565995151
 31
0.0
  0
LINE
  5
E3
  8
1
 62
     7
 10
58.350816183155779
 20
34.85881856599525
 30
0.0
 11
58.350816183155779
 21
30.858818565995151
 31
0.0
  0
LINE
  5
E4
  8
1
 62
     7
 10
51.050816183155689
 20
19.983818565995151
 30
0.0
 11
51.050816183155689
 21
64.233818565995165
 31
0.0
  0
LINE
  5
E5
  8
1
 62
     7
 10
57.550816183155689
 20
20.483818565995151
 30
0.0
 11
57.250816183155699
 21
20.483818565995151
 31
0.0
  0
LINE
  5
E6
  8
1
 62
     7
 10
57.550816183155689
 20
65.483818565995165
 30
0.0
 11
57.550816183155689
 21
20.483818565995151
 31
0.0
  0
LINE
  5
E7
  8
1
 62
     7
 10
57.250816183155699
 20
65.483818565995165
 30
0.0
 11
57.550816183155689
 21
65.483818565995165
 31
0.0
  0
LINE
  5
E8
  8
1
 62
     7
 10
58.350816183155779
 20
65.233818565995165
 30
0.0
 11
58.350816183155779
 21
61.23381856599525
 31
0.0
  0
LINE
  5
E9
  8
1
 62
     7
 10
57.550816183155689
 20
65.233818565995165
 30
0.0
 11
58.350816183155779
 21
65.233818565995165
 31
0.0
  0
LINE
  5
EA
  8
1
 62
     7
 10
57.550816183155689
 20
61.23381856599525
 30
0.0
 11
58.350816183155779
 21
61.23381856599525
 31
0.0
  0
LINE
  5
EB
  8
1
 62
     7
 10
57.250816183155699
 20
19.833818565995159
 30
0.0
 11
54.800816183155689
 21
19.833818565995159
 31
0.0
  0
LINE
  5
EC
  8
1
 62
     7
 10
57.250816183155699
 20
66.133818565995256
 30
0.0
 11
57.250816183155699
 21
19.833818565995159
 31
0.0
  0
LINE
  5
ED
  8
1
 62
     7
 10
54.800816183155689
 20
66.133818565995256
 30
0.0
 11
57.250816183155699
 21
66.133818565995256
 31
0.0
  0
LINE
  5
EE
  8
1
 62
     7
 10
57.600816183155779
 20
25.483818565995151
 30
0.0
 11
67.350816183155786
 21
25.483818565995151
 31
0.0
  0
LINE
  5
EF
  8
1
 62
     7
 10
67.350816183155786
 20
60.483818565995257
 30
0.0
 11
57.550816183155689
 21
60.483818565995257
 31
0.0
  0
LINE
  5
F0
  8
1
 62
     7
 10
54.800816183155689
 20
66.133818565995256
 30
0.0
 11
54.800816183155689
 21
19.833818565995159
 31
0.0
  0
LINE
  5
F1
  8
1
 62
     7
 10
52.561179154237607
 20
19.98381856599525
 30
0.0
 11
54.550816183155703
 21
19.98381856599525
 31
0.0
  0
LINE
  5
F2
  8
1
 62
     7
 10
52.561179154237607
 20
19.98381856599525
 30
0.0
 11
51.550816183155703
 21
21.73381856599525
 31
0.0
  0
LINE
  5
F3
  8
1
 62
     7
 10
51.550816183155703
 20
64.233818565995165
 30
0.0
 11
52.561179154237607
 21
65.983818565995165
 31
0.0
  0
LINE
  5
F4
  8
1
 62
     7
 10
54.550816183155703
 20
65.983818565995165
 30
0.0
 11
54.550816183155703
 21
19.98381856599525
 31
0.0
  0
LINE
  5
F5
  8
1
 62
     7
 10
51.550816183155703
 20
64.233818565995165
 30
0.0
 11
51.050816183155689
 21
64.233818565995165
 31
0.0
  0
LINE
  5
F6
  8
1
 62
     7
 10
54.550816183155703
 20
65.983818565995165
 30
0.0
 11
52.561179154237607
 21
65.983818565995165
 31
0.0
  0
LINE
  5
F7
  8
1
 62
     7
 10
51.550816183155703
 20
21.73381856599525
 30
0.0
 11
51.550816183155703
 21
64.233818565995165
 31
0.0
  0
LINE
  5
F8
  8
1
 62
     7
 10
52.561179154237607
 20
19.98381856599525
 30
0.0
 11
52.561179154237607
 21
65.983818565995165
 31
0.0
  0
LINE
  5
F9
  8
1
 62
     7
 10
51.050816183155689
 20
21.73381856599525
 30
0.0
 11
51.550816183155703
 21
21.73381856599525
 31
0.0
  0
LINE
  5
FA
  8
1
 62
     7
 10
54.550816183155703
 20
35.98381856599525
 30
0.0
 11
54.800816183155689
 21
35.98381856599525
 31
0.0
  0
LINE
  5
FB
  8
1
 62
     7
 10
29.0508161831557
 20
19.983818565995151
 30
0.0
 11
51.050816183155689
 21
19.983818565995151
 31
0.0
  0
LINE
  5
FC
  8
1
 62
     7
 10
29.0508161831557
 20
19.983818565995151
 30
0.0
 11
28.0508161831557
 21
20.983818565995161
 31
0.0
  0
LINE
  5
FD
  8
1
 62
     7
 10
28.0508161831557
 20
64.983818565995165
 30
0.0
 11
29.0508161831557
 21
65.983818565995165
 31
0.0
  0
LINE
  5
FE
  8
1
 62
     7
 10
51.050816183155689
 20
65.983818565995165
 30
0.0
 11
51.050816183155689
 21
64.233818565995165
 31
0.0
  0
LINE
  5
FF
  8
1
 62
     7
 10
26.550816183155799
 20
85.983818565995179
 30
0.0
 11
28.05081618315581
 21
85.983818565995179
 31
0.0
  0
LINE
  5
100
  8
1
 62
     7
 10
28.05081618315581
 20
22.98381856599525
 30
0.0
 11
26.550816183155799
 21
22.98381856599525
 31
0.0
  0
LINE
  5
101
  8
1
 62
     7
 10
32.050816183155689
 20
66.983818565995165
 30
0.0
 11
31.5508161831557
 21
66.483818565995165
 31
0.0
  0
LINE
  5
102
  8
1
 62
     7
 10
31.5508161831557
 20
66.483818565995165
 30
0.0
 11
31.5508161831557
 21
65.983818565995165
 31
0.0
  0
LINE
  5
103
  8
1
 62
     7
 10
37.550816183155703
 20
65.983818565995165
 30
0.0
 11
37.550816183155703
 21
66.483818565995165
 31
0.0
  0
LINE
  5
104
  8
1
 62
     7
 10
37.550816183155703
 20
66.483818565995165
 30
0.0
 11
37.050816183155703
 21
66.983818565995165
 31
0.0
  0
LINE
  5
105
  8
1
 62
     7
 10
32.050816183155689
 20
66.983818565995165
 30
0.0
 11
37.050816183155703
 21
66.983818565995165
 31
0.0
  0
LINE
  5
106
  8
1
 62
     7
 10
33.630816183155709
 20
91.265452502817496
 30
0.0
 11
33.630816183155709
 21
66.983818565995165
 31
0.0
  0
LINE
  5
107
  8
1
 62
     7
 10
35.470816183155712
 20
91.265452502817496
 30
0.0
 11
35.470816183155712
 21
66.983818565995165
 31
0.0
  0
LINE
  5
108
  8
1
 62
     7
 10
29.0508161831557
 20
19.983818565995151
 30
0.0
 11
29.0508161831557
 21
65.983818565995165
 31
0.0
  0
LINE
  5
109
  8
1
  6
DASHDOT
 62
     3
 10
-46.872173555219987
 20
45.203764320976092
 30
0.0
 11
-46.872173555219987
 21
40.76387281101438
 31
0.0
  0
LINE
  5
10A
  8
1
  6
DASHDOT
 62
     3
 10
-44.652227800239061
 20
42.983818565995243
 30
0.0
 11
-49.092119310200736
 21
42.983818565995243
 31
0.0
  0
LINE
  5
10B
  8
1
 62
     7
 10
249.19978452477761
 20
64.906618348480791
 30
0.0
 11
249.0586744474719
 21
64.37998837051606
 31
0.0
  0
LINE
  5
10C
  8
1
 62
     7
 10
251.27470150499471
 20
91.350637937094845
 30
0.0
 11
244.65411304808981
 21
66.64226543992153
 31
0.0
  0
LINE
  5
10D
  8
1
 62
     7
 10
253.0520050253665
 20
90.874410894106234
 30
0.0
 11
246.4314165684616
 21
66.16603839693289
 31
0.0
  0
LINE
  5
10E
  8
1
 62
     7
 10
254.8293085457384
 20
90.398183851117565
 30
0.0
 11
248.2087200888335
 21
65.689811353944279
 31
0.0
  0
LINE
  5
10F
  8
1
 62
     7
 10
244.01660200273901
 20
66.813086009689187
 30
0.0
 11
248.84623113418431
 21
65.518990784176594
 31
0.0
  0
LINE
  5
110
  8
1
 62
     7
 10
249.19978452477761
 20
64.906618348480791
 30
0.0
 11
248.84623113418431
 21
65.518990784176594
 31
0.0
  0
LINE
  5
111
  8
1
 62
     7
 10
243.26311948973739
 20
65.932902641131179
 30
0.0
 11
243.4042295670431
 21
66.45953261909591
 31
0.0
  0
LINE
  5
112
  8
1
 62
     7
 10
244.01660200273901
 20
66.813086009689187
 30
0.0
 11
243.4042295670431
 21
66.45953261909591
 31
0.0
  0
LINE
  5
113
  8
1
 62
     7
 10
-55.852198593996469
 20
64.906618348480791
 30
0.0
 11
-55.671933329557532
 21
64.233859222755115
 31
0.0
  0
LINE
  5
114
  8
1
 62
     7
 10
-53.083830637680457
 20
66.16603839693289
 30
0.0
 11
-59.704419094585468
 21
90.874410894106234
 31
0.0
  0
LINE
  5
115
  8
1
 62
     7
 10
-54.861134158052359
 20
65.689811353944279
 30
0.0
 11
-61.48172261495737
 21
90.398183851117565
 31
0.0
  0
LINE
  5
116
  8
1
 62
     7
 10
-55.498645203403143
 20
65.518990784176594
 30
0.0
 11
-51.872173555219987
 21
66.490700933681623
 31
0.0
  0
LINE
  5
117
  8
1
 62
     7
 10
-55.498645203403143
 20
65.518990784176594
 30
0.0
 11
-55.852198593996469
 21
64.906618348480791
 31
0.0
  0
LINE
  5
118
  8
1
 62
     7
 10
-51.872173555219987
 20
68.753286685326955
 30
0.0
 11
-57.927115574213573
 21
91.350637937094845
 31
0.0
  0
LINE
  5
119
  8
1
 62
     7
 10
-48.972173555219968
 20
81.633818565995256
 30
0.0
 11
-48.972173555219968
 21
76.33381856599523
 31
0.0
  0
LINE
  5
11A
  8
1
 62
     7
 10
-44.772173555219993
 20
81.633818565995256
 30
0.0
 11
-44.772173555219993
 21
76.33381856599523
 31
0.0
  0
LINE
  5
11B
  8
1
 62
     7
 10
-41.872173555219987
 20
84.98381856599525
 30
0.0
 11
-41.872173555219987
 21
63.840472180609453
 31
0.0
  0
LINE
  5
11C
  8
1
 62
     7
 10
-42.872173555219987
 20
85.98381856599525
 30
0.0
 11
-50.872173555220002
 21
85.98381856599525
 31
0.0
  0
LINE
  5
11D
  8
1
 62
     7
 10
-51.872173555219987
 20
84.98381856599525
 30
0.0
 11
-51.872173555219987
 21
63.840472180609453
 31
0.0
  0
LINE
  5
11E
  8
1
 62
     3
 10
134.7676483941967
 20
91.265452502817496
 30
0.0
 11
134.7676483941967
 21
94.22625764745527
 31
0.0
  0
LINE
  5
11F
  8
1
 62
     7
 10
33.630816183155709
 20
91.265452502817496
 30
0.0
 11
35.470816183155712
 21
91.265452502817496
 31
0.0
  0
LINE
  5
120
  8
1
 62
     3
 10
34.160816183155688
 20
91.265452502817496
 30
0.0
 11
34.160816183155603
 21
94.226257647455228
 31
0.0
  0
LINE
  5
121
  8
1
 62
     3
 10
34.940816183155789
 20
94.22625764745527
 30
0.0
 11
34.940816183155789
 21
91.265452502817496
 31
0.0
  0
LINE
  5
122
  8
1
 62
     3
 10
34.550816183155753
 20
91.265452502817496
 30
0.0
 11
34.550816183155753
 21
94.22625764745527
 31
0.0
  0
LINE
  5
123
  8
1
 62
     3
 10
-60.969781927024187
 20
90.535357945021914
 30
0.0
 11
-61.736094687294063
 21
93.395276100837037
 31
0.0
  0
LINE
  5
124
  8
1
 62
     3
 10
-60.982672542788407
 20
93.597154956017079
 30
0.0
 11
-60.216359782518637
 21
90.737236800201913
 31
0.0
  0
LINE
  5
125
  8
1
 62
     3
 10
-60.593070854771398
 20
90.636297372611935
 30
0.0
 11
-61.359383615041189
 21
93.496215528427086
 31
0.0
  0
LINE
  5
126
  8
1
 62
     7
 10
-57.927115574213573
 20
91.350637937094845
 30
0.0
 11
-61.48172261495737
 21
90.398183851117565
 31
0.0
  0
LINE
  5
127
  8
1
 62
     3
 10
-59.192478406652292
 20
91.011584988010583
 30
0.0
 11
-59.958791166922182
 21
93.871503143825706
 31
0.0
  0
LINE
  5
128
  8
1
 62
     3
 10
-59.205369022416541
 20
94.073381999005662
 30
0.0
 11
-58.439056262146742
 21
91.213463843190553
 31
0.0
  0
LINE
  5
129
  8
1
 62
     3
 10
-58.81576733439951
 20
91.112524415600589
 30
0.0
 11
-59.582080094669287
 21
93.972442571415726
 31
0.0
  0
LINE
  5
12A
  8
1
 62
     3
 10
255.08368061807511
 20
93.395276100837037
 30
0.0
 11
254.31736785780529
 21
90.535357945021914
 31
0.0
  0
LINE
  5
12B
  8
1
 62
     3
 10
253.5639457132996
 20
90.737236800201913
 30
0.0
 11
254.3302584735695
 21
93.597154956017079
 31
0.0
  0
LINE
  5
12C
  8
1
 62
     3
 10
254.70696954582229
 20
93.496215528427086
 30
0.0
 11
253.94065678555239
 21
90.636297372611935
 31
0.0
  0
LINE
  5
12D
  8
1
 62
     7
 10
254.8293085457384
 20
90.398183851117565
 30
0.0
 11
251.27470150499471
 21
91.350637937094845
 31
0.0
  0
LINE
  5
12E
  8
1
 62
     3
 10
253.30637709770329
 20
93.871503143825706
 30
0.0
 11
252.54006433743339
 21
91.011584988010583
 31
0.0
  0
LINE
  5
12F
  8
1
 62
     3
 10
251.78664219292779
 20
91.213463843190553
 30
0.0
 11
252.5529549531976
 21
94.073381999005662
 31
0.0
  0
LINE
  5
130
  8
1
 62
     3
 10
252.9296660254503
 20
93.972442571415726
 30
0.0
 11
252.16335326518049
 21
91.112524415600589
 31
0.0
  0
LINE
  5
131
  8
1
 62
     7
 10
126.7676483941968
 20
51.98381856599525
 30
0.0
 11
126.7676483941968
 21
85.983818565995236
 31
0.0
  0
LINE
  5
132
  8
1
 62
     7
 10
126.7676483941968
 20
33.983818565995207
 30
0.0
 11
126.7676483941968
 21
51.98381856599525
 31
0.0
  0
LINE
  5
133
  8
1
 62
     7
 10
128.7676483941967
 20
47.823818565995239
 30
0.0
 11
128.7676483941967
 21
53.983818565995243
 31
0.0
  0
LINE
  5
134
  8
1
 62
     7
 10
128.7676483941967
 20
38.143818565995218
 30
0.0
 11
128.7676483941967
 21
47.823818565995239
 31
0.0
  0
LINE
  5
135
  8
1
 62
     7
 10
128.2676483941967
 20
51.98381856599525
 30
0.0
 11
128.2676483941967
 21
85.983818565995236
 31
0.0
  0
LINE
  5
136
  8
1
 62
     7
 10
128.2676483941967
 20
33.983818565995207
 30
0.0
 11
128.2676483941967
 21
51.98381856599525
 31
0.0
  0
LINE
  5
137
  8
1
 62
     7
 10
135.7676483941967
 20
47.823818565995239
 30
0.0
 11
135.7676483941967
 21
53.143818565995218
 31
0.0
  0
LINE
  5
138
  8
1
 62
     7
 10
135.7676483941967
 20
38.143818565995218
 30
0.0
 11
135.7676483941967
 21
47.823818565995239
 31
0.0
  0
LINE
  5
139
  8
1
 62
     7
 10
142.76764839419681
 20
46.783489604387889
 30
0.0
 11
142.76764839419681
 21
54.48381856599525
 31
0.0
  0
LINE
  5
13A
  8
1
 62
     7
 10
142.76764839419681
 20
38.983818565995243
 30
0.0
 11
142.76764839419681
 21
46.783489604387889
 31
0.0
  0
LINE
  5
13B
  8
1
 62
     7
 10
165.06764839419679
 20
46.783489604387889
 30
0.0
 11
165.06764839419679
 21
53.983818565995207
 31
0.0
  0
LINE
  5
13C
  8
1
 62
     7
 10
165.06764839419679
 20
38.983818565995243
 30
0.0
 11
165.06764839419679
 21
46.783489604387889
 31
0.0
  0
LINE
  5
13D
  8
1
 62
     7
 10
167.56764839419679
 20
53.983818565995207
 30
0.0
 11
167.56764839419679
 21
31.983818565995211
 31
0.0
  0
LINE
  5
13E
  8
1
 62
     7
 10
167.56764839419679
 20
31.983818565995211
 30
0.0
 11
167.56764839419679
 21
25.483818565995229
 31
0.0
  0
ARC
  5
13F
  8
1
 62
     7
 10
156.72852825257229
 20
34.483818565995207
 30
0.0
 40
1.0
 50
90.0
 51
163.04223669999649
  0
ARC
  5
140
  8
1
 62
     7
 10
156.72852825257229
 20
30.983818565995211
 30
0.0
 40
1.0000000000000111
 50
196.95776330000299
 51
270.0
  0
ARC
  5
141
  8
1
 62
     7
 10
157.16764839419679
 20
35.18381856599521
 30
0.0
 40
0.3000000000000114
 50
0.0
 51
90.0
  0
ARC
  5
142
  8
1
 62
     7
 10
157.16764839419679
 20
30.283818565995229
 30
0.0
 40
0.3000000000000078
 50
270.0
 51
0.0
  0
ARC
  5
143
  8
1
 62
     7
 10
129.6076483941967
 20
38.143818565995218
 30
0.0
 40
0.8400000000000105
 50
90.0
 51
180.0
  0
ARC
  5
144
  8
1
 62
     7
 10
134.92764839419681
 20
32.823818565995239
 30
0.0
 40
0.8399999999999998
 50
270.0
 51
0.0
  0
ARC
  5
145
  8
1
 62
     7
 10
129.6076483941967
 20
32.823818565995239
 30
0.0
 40
0.8399999999999749
 50
180.0
 51
270.0
  0
ARC
  5
146
  8
1
 62
     7
 10
134.92764839419681
 20
38.143818565995218
 30
0.0
 40
0.8400000000000034
 50
0.0
 51
90.0
  0
ARC
  5
147
  8
1
 62
     7
 10
136.6076483941967
 20
38.143818565995218
 30
0.0
 40
0.8400000000000105
 50
90.0
 51
180.0
  0
ARC
  5
148
  8
1
 62
     7
 10
141.92764839419681
 20
32.823818565995239
 30
0.0
 40
0.8399999999999998
 50
270.0
 51
0.0
  0
ARC
  5
149
  8
1
 62
     7
 10
136.6076483941967
 20
32.823818565995239
 30
0.0
 40
0.8399999999999749
 50
180.0
 51
270.0
  0
ARC
  5
14A
  8
1
 62
     7
 10
141.92764839419681
 20
38.143818565995218
 30
0.0
 40
0.8400000000000034
 50
0.0
 51
90.0
  0
ARC
  5
14B
  8
1
 62
     7
 10
154.26764839419681
 20
35.483818565995243
 30
0.0
 40
0.5
 50
90.0
 51
180.0
  0
ARC
  5
14C
  8
1
 62
     7
 10
129.6076483941967
 20
47.823818565995239
 30
0.0
 40
0.8399999999999749
 50
180.0
 51
270.0
  0
ARC
  5
14D
  8
1
 62
     7
 10
134.92764839419681
 20
53.143818565995218
 30
0.0
 40
0.8400000000000034
 50
0.0
 51
90.0
  0
ARC
  5
14E
  8
1
 62
     7
 10
129.6076483941967
 20
53.143818565995218
 30
0.0
 40
0.8400000000000105
 50
90.0
 51
180.0
  0
ARC
  5
14F
  8
1
 62
     7
 10
134.92764839419681
 20
47.823818565995239
 30
0.0
 40
0.8399999999999963
 50
270.0
 51
0.0
  0
ARC
  5
150
  8
1
 62
     7
 10
136.6076483941967
 20
47.823818565995239
 30
0.0
 40
0.8399999999999749
 50
180.0
 51
270.0
  0
ARC
  5
151
  8
1
 62
     7
 10
141.92764839419681
 20
53.143818565995218
 30
0.0
 40
0.8400000000000034
 50
0.0
 51
90.0
  0
ARC
  5
152
  8
1
 62
     7
 10
136.6076483941967
 20
53.143818565995218
 30
0.0
 40
0.8400000000000105
 50
90.0
 51
180.0
  0
ARC
  5
153
  8
1
 62
     7
 10
141.92764839419681
 20
47.823818565995239
 30
0.0
 40
0.8399999999999963
 50
270.0
 51
0.0
  0
ARC
  5
154
  8
1
 62
     7
 10
154.26764839419681
 20
50.483818565995243
 30
0.0
 40
0.5
 50
180.0
 51
270.0
  0
ARC
  5
155
  8
1
 62
     7
 10
236.2197594860011
 20
84.983818565995236
 30
0.0
 40
1.0
 50
90.0
 51
180.0
  0
ARC
  5
156
  8
1
 62
     7
 10
244.2197594860011
 20
84.983818565995236
 30
0.0
 40
1.0
 50
0.0
 51
90.0
  0
ARC
  5
157
  8
1
 62
     7
 10
-53.872173555219987
 20
63.840472180609453
 30
0.0
 40
1.9999999999999909
 50
288.55300453502019
 51
0.0
  0
ARC
  5
158
  8
1
 62
     7
 10
-39.872173555219987
 20
63.840472180609453
 30
0.0
 40
2.0
 50
180.0
 51
251.44699546497949
  0
ARC
  5
159
  8
1
 62
     7
 10
-50.872173555220002
 20
84.98381856599525
 30
0.0
 40
1.0
 50
90.0
 51
180.0
  0
ARC
  5
15A
  8
1
 62
     7
 10
-42.872173555219987
 20
84.98381856599525
 30
0.0
 40
1.0
 50
0.0
 51
90.0
  0
ARC
  5
15B
  8
1
 62
     7
 10
162.4676483941968
 20
32.733818565995207
 30
0.0
 40
7.000000000000024
 50
163.0422366999959
 51
196.95776330000399
  0
ARC
  5
15C
  8
1
 62
     7
 10
132.2676483941967
 20
35.483818565995243
 30
0.0
 40
2.1000000000000081
 50
239.9999999999998
 51
299.9999999999996
  0
ARC
  5
15D
  8
1
 62
     7
 10
132.2676483941967
 20
35.483818565995243
 30
0.0
 40
2.0999999999999952
 50
299.9999999999996
 51
60.000000000000178
  0
ARC
  5
15E
  8
1
 62
     7
 10
132.2676483941967
 20
35.483818565995243
 30
0.0
 40
2.0999999999999912
 50
120.0000000000005
 51
239.9999999999998
  0
ARC
  5
15F
  8
1
 62
     7
 10
132.2676483941967
 20
35.483818565995243
 30
0.0
 40
2.0999999999999761
 50
60.000000000000178
 51
120.0000000000005
  0
ARC
  5
160
  8
1
 62
     7
 10
139.2676483941967
 20
35.483818565995243
 30
0.0
 40
2.1000000000000081
 50
239.9999999999998
 51
299.9999999999996
  0
ARC
  5
161
  8
1
 62
     7
 10
139.2676483941967
 20
35.483818565995243
 30
0.0
 40
2.0999999999999952
 50
299.9999999999996
 51
60.000000000000178
  0
ARC
  5
162
  8
1
 62
     7
 10
139.2676483941967
 20
35.483818565995243
 30
0.0
 40
2.0999999999999912
 50
120.0000000000005
 51
239.9999999999998
  0
ARC
  5
163
  8
1
 62
     7
 10
139.2676483941967
 20
35.483818565995243
 30
0.0
 40
2.0999999999999761
 50
60.000000000000178
 51
120.0000000000005
  0
ARC
  5
164
  8
1
  6
CENTER
 62
     3
 10
240.2197594860011
 20
42.983818565995243
 30
0.0
 40
15.00000000000003
 50
201.39755539065939
 51
218.60244460934101
  0
ARC
  5
165
  8
1
  6
CENTER
 62
     3
 10
240.2197594860011
 20
42.983818565995243
 30
0.0
 40
14.99999999999998
 50
81.397555390659463
 51
98.602444609340864
  0
ARC
  5
166
  8
1
  6
CENTER
 62
     3
 10
240.2197594860011
 20
42.983818565995243
 30
0.0
 40
14.99999999999998
 50
321.39755539065931
 51
338.60244460934052
  0
ARC
  5
167
  8
1
 62
     7
 10
132.2676483941967
 20
50.483818565995243
 30
0.0
 40
2.0999999999999761
 50
60.000000000000178
 51
120.0000000000005
  0
ARC
  5
168
  8
1
 62
     7
 10
132.2676483941967
 20
50.483818565995243
 30
0.0
 40
2.0999999999999952
 50
299.9999999999996
 51
60.000000000000178
  0
ARC
  5
169
  8
1
 62
     7
 10
132.2676483941967
 20
50.483818565995243
 30
0.0
 40
2.0999999999999912
 50
120.0000000000005
 51
239.9999999999998
  0
ARC
  5
16A
  8
1
 62
     7
 10
132.2676483941967
 20
50.483818565995243
 30
0.0
 40
2.1000000000000081
 50
239.9999999999998
 51
299.9999999999996
  0
ARC
  5
16B
  8
1
 62
     7
 10
139.2676483941967
 20
50.483818565995243
 30
0.0
 40
2.0999999999999761
 50
60.000000000000178
 51
120.0000000000005
  0
ARC
  5
16C
  8
1
 62
     7
 10
139.2676483941967
 20
50.483818565995243
 30
0.0
 40
2.0999999999999952
 50
299.9999999999996
 51
60.000000000000178
  0
ARC
  5
16D
  8
1
 62
     7
 10
139.2676483941967
 20
50.483818565995243
 30
0.0
 40
2.0999999999999912
 50
120.0000000000005
 51
239.9999999999998
  0
ARC
  5
16E
  8
1
 62
     7
 10
139.2676483941967
 20
50.483818565995243
 30
0.0
 40
2.1000000000000081
 50
239.9999999999998
 51
299.9999999999996
  0
ARC
  5
16F
  8
1
 62
     7
 10
240.2197594860011
 20
76.333818565995202
 30
0.0
 40
2.100000000000108
 50
180.0
 51
270.0
  0
ARC
  5
170
  8
1
 62
     7
 10
240.2197594860011
 20
81.633818565995242
 30
0.0
 40
2.099999999999993
 50
0.0
 51
90.0
  0
ARC
  5
171
  8
1
 62
     7
 10
240.2197594860011
 20
76.333818565995202
 30
0.0
 40
2.100000000000108
 50
270.0
 51
0.0
  0
ARC
  5
172
  8
1
 62
     7
 10
240.2197594860011
 20
81.633818565995242
 30
0.0
 40
2.099999999999993
 50
90.0
 51
180.0
  0
ARC
  5
173
  8
1
 62
     7
 10
-46.872173555219987
 20
42.983818565995243
 30
0.0
 40
22.999999999999929
 50
102.555857798586
 51
77.44414220141401
  0
ARC
  5
174
  8
1
 62
     7
 10
-46.872173555219987
 20
76.33381856599523
 30
0.0
 40
2.099999999999993
 50
180.0
 51
270.0
  0
ARC
  5
175
  8
1
 62
     7
 10
-46.872173555219987
 20
81.633818565995256
 30
0.0
 40
2.099999999999993
 50
0.0
 51
90.0
  0
ARC
  5
176
  8
1
 62
     7
 10
-46.872173555219987
 20
42.983818565995243
 30
0.0
 40
20.000000000000011
 50
108.5530045350207
 51
0.0
  0
ARC
  5
177
  8
1
 62
     7
 10
-46.872173555219987
 20
42.983818565995243
 30
0.0
 40
20.000000000000011
 50
0.0
 51
71.44699546497931
  0
ARC
  5
178
  8
1
 62
     7
 10
-46.872173555219987
 20
76.33381856599523
 30
0.0
 40
2.099999999999993
 50
270.0
 51
0.0
  0
ARC
  5
179
  8
1
 62
     7
 10
-46.872173555219987
 20
81.633818565995256
 30
0.0
 40
2.099999999999993
 50
90.0
 51
180.0
  0
CIRCLE
  5
17A
  8
1
 62
     7
 10
240.2197594860011
 20
42.983818565995243
 30
0.0
 40
22.500000000000028
  0
CIRCLE
  5
17B
  8
1
 62
     7
 10
240.2197594860011
 20
42.983818565995243
 30
0.0
 40
23.149999999999999
  0
CIRCLE
  5
17C
  8
1
 62
     7
 10
240.2197594860011
 20
42.983818565995243
 30
0.0
 40
17.500000000000021
  0
CIRCLE
  5
17D
  8
1
 62
     7
 10
240.2197594860011
 20
42.983818565995243
 30
0.0
 40
7.5
  0
CIRCLE
  5
17E
  8
1
 62
     7
 10
240.2197594860011
 20
42.983818565995243
 30
0.0
 40
8.5
  0
CIRCLE
  5
17F
  8
1
 62
     7
 10
240.2197594860011
 20
42.983818565995243
 30
0.0
 40
11.0
  0
CIRCLE
  5
180
  8
1
 62
     3
 10
240.2197594860011
 20
57.983818565995243
 30
0.0
 40
1.5
  0
CIRCLE
  5
181
  8
1
 62
     7
 10
240.2197594860011
 20
57.983818565995243
 30
0.0
 40
1.2000000000000171
  0
CIRCLE
  5
182
  8
1
 62
     7
 10
227.22937842923449
 20
35.483818565995243
 30
0.0
 40
1.2000000000000171
  0
CIRCLE
  5
183
  8
1
 62
     3
 10
227.22937842923449
 20
35.483818565995243
 30
0.0
 40
1.5
  0
CIRCLE
  5
184
  8
1
 62
     7
 10
253.21014054276759
 20
35.483818565995207
 30
0.0
 40
1.1999999999999891
  0
CIRCLE
  5
185
  8
1
 62
     3
 10
253.21014054276759
 20
35.483818565995207
 30
0.0
 40
1.5
  0
CIRCLE
  5
186
  8
1
 62
     7
 10
240.2197594860011
 20
63.23381856599525
 30
0.0
 40
2.0
  0
CIRCLE
  5
187
  8
1
 62
     7
 10
222.68274505936631
 20
32.858818565995243
 30
0.0
 40
2.0
  0
CIRCLE
  5
188
  8
1
 62
     7
 10
257.75677391263588
 20
32.858818565995207
 30
0.0
 40
2.0
  0
CIRCLE
  5
189
  8
1
 62
     7
 10
240.2197594860011
 20
42.983818565995243
 30
0.0
 40
4.0
  0
CIRCLE
  5
18A
  8
1
 62
     7
 10
-46.872173555219987
 20
42.983818565995243
 30
0.0
 40
4.0
  0
CIRCLE
  5
18B
  8
1
 62
     7
 10
-46.872173555219987
 20
42.983818565995243
 30
0.0
 40
9.0
  0
TEXT
  5
18D
  8
1
 62
     7
 10
-54.555780742586691
 20
125.3247745371409
 30
0.0
 40
4.0
  1
AMC 10
 41
0.9
  7
SIMPLEX
  0
ENDSEC
  0
EOF
