  0
SECTION
  2
HEADER
  9
$ACADVER
  1
AC1009
  9
$INSBASE
 10
0.0
 20
0.0
 30
0.0
  9
$EXTMIN
 10
-159.78459701075289
 20
-4.7214399350315084
 30
0.0
  9
$EXTMAX
 10
195.10445540485429
 20
105.7843727888522
 30
0.0
  9
$LIMMIN
 10
-159.78459701075289
 20
-4.7214399350315039
  9
$LIMMAX
 10
195.10445540485429
 20
105.7843727888521
  9
$ORTHOMODE
 70
     0
  9
$REGENMODE
 70
     1
  9
$FILLMODE
 70
     1
  9
$QTEXTMODE
 70
     0
  9
$MIRRTEXT
 70
     1
  9
$DRAGMODE
 70
     2
  9
$LTSCALE
 40
1.0
  9
$OSMODE
 70
    37
  9
$ATTMODE
 70
     1
  9
$TEXTSIZE
 40
3.5
  9
$TRACEWID
 40
0.5
  9
$TEXTSTYLE
  7
STANDARD
  9
$CLAYER
  8
0
  9
$CELTYPE
  6
BYLAYER
  9
$CECOLOR
 62
   256
  9
$DIMSCALE
 40
1.0
  9
$DIMASZ
 40
0.18
  9
$DIMEXO
 40
0.0625
  9
$DIMDLI
 40
0.38
  9
$DIMRND
 40
0.0
  9
$DIMDLE
 40
0.0
  9
$DIMEXE
 40
0.18
  9
$DIMTP
 40
0.0
  9
$DIMTM
 40
0.0
  9
$DIMTXT
 40
0.18
  9
$DIMCEN
 40
0.09
  9
$DIMTSZ
 40
0.0
  9
$DIMTOL
 70
     0
  9
$DIMLIM
 70
     0
  9
$DIMTIH
 70
     1
  9
$DIMTOH
 70
     1
  9
$DIMSE1
 70
     0
  9
$DIMSE2
 70
     0
  9
$DIMTAD
 70
     0
  9
$DIMZIN
 70
     0
  9
$DIMBLK
  1

  9
$DIMASO
 70
     1
  9
$DIMSHO
 70
     1
  9
$DIMPOST
  1

  9
$DIMAPOST
  1

  9
$DIMALT
 70
     0
  9
$DIMALTD
 70
     2
  9
$DIMALTF
 40
25.399999999999999
  9
$DIMLFAC
 40
1.0
  9
$DIMTOFL
 70
     0
  9
$DIMTVP
 40
0.0
  9
$DIMTIX
 70
     0
  9
$DIMSOXD
 70
     0
  9
$DIMSAH
 70
     0
  9
$DIMBLK1
  1

  9
$DIMBLK2
  1

  9
$DIMSTYLE
  2
STANDARD
  9
$DIMCLRD
 70
     0
  9
$DIMCLRE
 70
     0
  9
$DIMCLRT
 70
     0
  9
$DIMTFAC
 40
1.0
  9
$DIMGAP
 40
0.09
  9
$LUNITS
 70
     2
  9
$LUPREC
 70
     4
  9
$SKETCHINC
 40
0.1
  9
$FILLETRAD
 40
2.0
  9
$AUNITS
 70
     0
  9
$AUPREC
 70
     0
  9
$MENU
  1
ACAD
  9
$ELEVATION
 40
0.0
  9
$PELEVATION
 40
0.0
  9
$THICKNESS
 40
0.0
  9
$LIMCHECK
 70
     0
  9
$BLIPMODE
 70
     0
  9
$CHAMFERA
 40
0.0
  9
$CHAMFERB
 40
0.0
  9
$SKPOLY
 70
     0
  9
$TDCREATE
 40
2452093.8890390042
  9
$TDUPDATE
 40
2452093.889674074
  9
$TDINDWG
 40
0.0006388889
  9
$TDUSRTIMER
 40
0.0006388889
  9
$USRTIMER
 70
     1
  9
$ANGBASE
 50
0.0
  9
$ANGDIR
 70
     0
  9
$PDMODE
 70
     0
  9
$PDSIZE
 40
0.0
  9
$PLINEWID
 40
0.0
  9
$COORDS
 70
     1
  9
$SPLFRAME
 70
     0
  9
$SPLINETYPE
 70
     6
  9
$SPLINESEGS
 70
     8
  9
$ATTDIA
 70
     0
  9
$ATTREQ
 70
     1
  9
$HANDLING
 70
 10241
  9
$HANDSEED
  5
194
  9
$SURFTAB1
 70
     6
  9
$SURFTAB2
 70
     6
  9
$SURFTYPE
 70
     6
  9
$SURFU
 70
     6
  9
$SURFV
 70
     6
  9
$UCSNAME
  2

  9
$UCSORG
 10
0.0
 20
0.0
 30
0.0
  9
$UCSXDIR
 10
1.0
 20
0.0
 30
0.0
  9
$UCSYDIR
 10
0.0
 20
1.0
 30
0.0
  9
$PUCSNAME
  2

  9
$PUCSORG
 10
0.0
 20
0.0
 30
0.0
  9
$PUCSXDIR
 10
1.0
 20
0.0
 30
0.0
  9
$PUCSYDIR
 10
0.0
 20
1.0
 30
0.0
  9
$USERI1
 70
     0
  9
$USERI2
 70
     0
  9
$USERI3
 70
     0
  9
$USERI4
 70
     0
  9
$USERI5
 70
     0
  9
$USERR1
 40
0.0
  9
$USERR2
 40
0.0
  9
$USERR3
 40
0.0
  9
$USERR4
 40
0.0
  9
$USERR5
 40
0.0
  9
$WORLDVIEW
 70
     1
  9
$SHADEDGE
 70
     3
  9
$SHADEDIF
 70
    70
  9
$TILEMODE
 70
     1
  9
$MAXACTVP
 70
    64
  9
$PLIMCHECK
 70
     0
  9
$PEXTMIN
 10
1.0000000000000000E+020
 20
1.0000000000000000E+020
 30
1.0000000000000000E+020
  9
$PEXTMAX
 10
-1.0000000000000000E+020
 20
-1.0000000000000000E+020
 30
-1.0000000000000000E+020
  9
$PLIMMIN
 10
0.0
 20
0.0
  9
$PLIMMAX
 10
12.0
 20
9.0
  9
$UNITMODE
 70
     0
  9
$VISRETAIN
 70
     1
  9
$PLINEGEN
 70
     0
  9
$PSLTSCALE
 70
     1
  0
ENDSEC
  0
SECTION
  2
TABLES
  0
TABLE
  2
VPORT
 70
     2
  0
VPORT
  2
*ACTIVE
 70
     0
 10
0.0
 20
0.0
 11
1.0
 21
1.0
 12
-131.00187950069929
 22
97.941515842695281
 13
0.0
 23
0.0
 14
1.0
 24
1.0
 15
0.0
 25
0.0
 16
0.0
 26
0.0
 36
1.0
 17
0.0
 27
0.0
 37
0.0
 40
9.0000001096871252
 41
2.5693779904306222
 42
50.0
 43
0.0
 44
0.0
 50
0.0
 51
0.0
 71
     0
 72
   100
 73
     1
 74
     1
 75
     0
 76
     0
 77
     0
 78
     0
  0
ENDTAB
  0
TABLE
  2
LTYPE
 70
     9
  0
LTYPE
  2
CONTINUOUS
 70
     0
  3
Solid line
 72
    65
 73
     0
 40
0.0
  0
LTYPE
  2
BORDER
 70
     0
  3
__ __ . __ __ .
 72
    65
 73
     6
 40
16.343574782297701
 49
4.6695927949421989
 49
-2.334796397471099
 49
4.6695927949421989
 49
-2.334796397471099
 49
0.0
 49
-2.334796397471099
  0
LTYPE
  2
CENTER
 70
     0
  3
____ _ ____ _
 72
    65
 73
     4
 40
18.678371179768789
 49
11.673981987355489
 49
-2.334796397471099
 49
2.334796397471099
 49
-2.334796397471099
  0
LTYPE
  2
DASHDOT
 70
     0
  3
__ . __ . __ .
 72
    65
 73
     4
 40
9.3391855898843996
 49
4.6695927949421989
 49
-2.334796397471099
 49
0.0
 49
-2.334796397471099
  0
LTYPE
  2
DASHED
 70
     0
  3
__ __ __ __ __
 72
    65
 73
     2
 40
7.0043891924132993
 49
4.6695927949421989
 49
-2.334796397471099
  0
LTYPE
  2
DIVIDE
 70
     0
  3
__ . . __ . . 
 72
    65
 73
     6
 40
11.673981987355489
 49
4.6695927949421989
 49
-2.334796397471099
 49
0.0
 49
-2.334796397471099
 49
0.0
 49
-2.334796397471099
  0
LTYPE
  2
DOT
 70
     0
  3
..............
 72
    65
 73
     4
 40
4.6695927949421989
 49
0.0
 49
-2.334796397471099
 49
0.0
 49
-2.334796397471099
  0
LTYPE
  2
HIDDEN
 70
     0
  3
_ _ _ _ _ _ _
 72
    65
 73
     2
 40
3.5021945962066501
 49
2.334796397471099
 49
-1.1673981987355491
  0
LTYPE
  2
PHANTOM
 70
     0
  3
_____ _ _ _____ _ _ 
 72
    65
 73
     6
 40
23.347963974710989
 49
11.673981987355489
 49
-2.334796397471099
 49
2.334796397471099
 49
-2.334796397471099
 49
2.334796397471099
 49
-2.334796397471099
  0
ENDTAB
  0
TABLE
  2
LAYER
 70
     2
  0
LAYER
  2
0
 70
     0
 62
     7
  6
CONTINUOUS
  0
LAYER
  2
1
 70
     0
 62
     7
  6
CONTINUOUS
  0
ENDTAB
  0
TABLE
  2
STYLE
 70
     4
  0
STYLE
  2
STANDARD
 70
     0
 40
0.0
 41
1.0
 50
0.0
 71
     0
 42
3.5
  3
txt
  4

  0
STYLE
  2
SIMPLEX
 70
     0
 40
0.0
 41
1.0
 50
0.0
 71
     0
 42
3.5
  3
simplex
  4

  0
STYLE
  2
COMPLEX
 70
     0
 40
0.0
 41
1.0
 50
0.0
 71
     0
 42
3.5
  3
complex
  4

  0
STYLE
  2
ITALIC
 70
     0
 40
0.0
 41
1.0
 50
0.0
 71
     0
 42
3.5
  3
italic
  4

  0
ENDTAB
  0
TABLE
  2
VIEW
 70
     0
  0
ENDTAB
  0
TABLE
  2
UCS
 70
     0
  0
ENDTAB
  0
TABLE
  2
APPID
 70
     1
  0
APPID
  2
ACAD
 70
     0
  0
ENDTAB
  0
TABLE
  2
DIMSTYLE
 70
     1
  0
DIMSTYLE
  2
STANDARD
 70
     0
  3

  4

  5

  6

  7

 40
1.0
 41
0.18
 42
0.0625
 43
0.38
 44
0.18
 45
0.0
 46
0.0
 47
0.0
 48
0.0
140
0.18
141
0.09
142
0.0
143
25.399999999999999
144
1.0
145
0.0
146
1.0
147
0.09
 71
     0
 72
     0
 73
     1
 74
     1
 75
     0
 76
     0
 77
     0
 78
     0
170
     0
171
     2
172
     0
173
     0
174
     0
175
     0
176
     0
177
     0
178
     0
  0
ENDTAB
  0
ENDSEC
  0
SECTION
  2
BLOCKS
  0
BLOCK
  8
0
  2
$MODEL_SPACE
 70
     0
 10
0.0
 20
0.0
 30
0.0
  3
$MODEL_SPACE
  1

  0
ENDBLK
  5
20
  8
0
  0
BLOCK
 67
     1
  8
0
  2
$PAPER_SPACE
 70
     0
 10
0.0
 20
0.0
 30
0.0
  3
$PAPER_SPACE
  1

  0
ENDBLK
  5
1C
 67
     1
  8
0
  0
ENDSEC
  0
SECTION
  2
ENTITIES
  0
LINE
  5
33
  8
1
  6
DASHDOT
 62
     3
 10
150.52687050767631
 20
10.00071382947335
 30
0.0
 11
155.47307495822341
 21
12.85640630046367
 31
0.0
  0
LINE
  5
34
  8
1
  6
DASHDOT
 62
     3
 10
169.45445540485429
 20
42.784252535958828
 30
0.0
 11
169.45445540485429
 21
37.072867593978167
 31
0.0
  0
LINE
  5
35
  8
1
  6
DASHDOT
 62
     3
 10
166.6323254503196
 20
20.92856006496849
 30
0.0
 11
172.276585359389
 21
20.92856006496849
 31
0.0
  0
LINE
  5
36
  8
1
  6
DASHDOT
 62
     3
 10
169.45445540485429
 20
18.106430110433841
 30
0.0
 11
169.45445540485429
 21
23.75069001950316
 31
0.0
  0
LINE
  5
37
  8
1
  6
DASHDOT
 62
     3
 10
188.38204030203221
 20
10.000713829473311
 30
0.0
 11
183.43583585148511
 21
12.85640630046365
 31
0.0
  0
LINE
  5
38
  8
1
 62
     7
 10
76.190723777998343
 20
36.678560064968501
 30
0.0
 11
76.190723777998343
 21
29.428560064968501
 31
0.0
  0
LINE
  5
39
  8
1
 62
     7
 10
64.190723777998329
 20
25.928560064968501
 30
0.0
 11
88.690723777998357
 21
25.928560064968501
 31
0.0
  0
LINE
  5
3A
  8
1
 62
     7
 10
64.190723777998343
 20
27.428560064968501
 30
0.0
 11
88.690723777998357
 21
27.428560064968501
 31
0.0
  0
LINE
  5
3B
  8
1
 62
     7
 10
77.190723777998343
 20
37.178560064968501
 30
0.0
 11
76.690723777998343
 21
37.178560064968501
 31
0.0
  0
LINE
  5
3C
  8
1
 62
     7
 10
88.690723777998357
 20
28.928560064968501
 30
0.0
 11
76.690723777998343
 21
28.928560064968501
 31
0.0
  0
LINE
  5
3D
  8
1
 62
     7
 10
77.190723777998343
 20
46.428560064968501
 30
0.0
 11
77.190723777998343
 21
28.928560064968501
 31
0.0
  0
LINE
  5
3E
  8
1
 62
     7
 10
74.056749181782763
 20
46.428560064968501
 30
0.0
 11
77.190723777998343
 21
46.428560064968501
 31
0.0
  0
LINE
  5
3F
  8
1
 62
     7
 10
73.190723777998343
 20
44.928560064968487
 30
0.0
 11
74.056749181782763
 21
46.428560064968501
 31
0.0
  0
LINE
  5
40
  8
1
 62
     7
 10
71.190723777998343
 20
44.928560064968487
 30
0.0
 11
73.190723777998343
 21
44.928560064968487
 31
0.0
  0
LINE
  5
41
  8
1
 62
     7
 10
71.190723777998343
 20
33.378560064968489
 30
0.0
 11
71.190723777998343
 21
44.928560064968487
 31
0.0
  0
LINE
  5
42
  8
1
 62
     7
 10
66.190723777998343
 20
33.378560064968489
 30
0.0
 11
71.190723777998343
 21
33.378560064968489
 31
0.0
  0
LINE
  5
43
  8
1
 62
     7
 10
66.190723777998343
 20
28.928560064968501
 30
0.0
 11
66.190723777998343
 21
33.378560064968489
 31
0.0
  0
LINE
  5
44
  8
1
 62
     7
 10
64.190723777998343
 20
28.928560064968501
 30
0.0
 11
66.190723777998343
 21
28.928560064968501
 31
0.0
  0
LINE
  5
45
  8
1
 62
     7
 10
64.190723777998343
 20
33.928560064968501
 30
0.0
 11
48.190723777998343
 21
33.928560064968501
 31
0.0
  0
LINE
  5
46
  8
1
 62
     7
 10
48.190723777998343
 20
-3.071439935031508
 30
0.0
 11
48.190723777998343
 21
14.968560064968489
 31
0.0
  0
LINE
  5
47
  8
1
 62
     7
 10
64.190723777998343
 20
34.528560064968502
 30
0.0
 11
64.190723777998329
 21
25.928560064968501
 31
0.0
  0
LINE
  5
48
  8
1
 62
     7
 10
65.390723777998346
 20
34.528560064968502
 30
0.0
 11
64.190723777998343
 21
34.528560064968502
 31
0.0
  0
LINE
  5
49
  8
1
 62
     7
 10
61.390723777998353
 20
27.850099095885849
 30
0.0
 11
64.190723777998343
 21
27.850099095885859
 31
0.0
  0
LINE
  5
4A
  8
1
 62
     7
 10
58.99072377799834
 20
27.850099095885849
 30
0.0
 11
53.390723777998353
 21
27.850099095885849
 31
0.0
  0
LINE
  5
4B
  8
1
 62
     7
 10
58.99072377799834
 20
32.007021034051157
 30
0.0
 11
53.390723777998353
 21
32.007021034051157
 31
0.0
  0
LINE
  5
4C
  8
1
 62
     7
 10
61.390723777998353
 20
32.007021034051157
 30
0.0
 11
64.190723777998343
 21
32.007021034051142
 31
0.0
  0
LINE
  5
4D
  8
1
 62
     7
 10
56.19072377799835
 20
32.9685600649685
 30
0.0
 11
56.19072377799835
 21
26.888560064968502
 31
0.0
  0
LINE
  5
4E
  8
1
 62
     7
 10
57.150723777998351
 20
25.928560064968501
 30
0.0
 11
63.230723777998342
 21
25.928560064968501
 31
0.0
  0
LINE
  5
4F
  8
1
 62
     7
 10
50.99072377799834
 20
27.850099095885849
 30
0.0
 11
48.190723777998343
 21
27.850099095885859
 31
0.0
  0
LINE
  5
50
  8
1
 62
     7
 10
50.99072377799834
 20
32.007021034051157
 30
0.0
 11
48.190723777998343
 21
32.007021034051142
 31
0.0
  0
LINE
  5
51
  8
1
 62
     7
 10
49.150723777998337
 20
25.928560064968501
 30
0.0
 11
55.230723777998342
 21
25.928560064968501
 31
0.0
  0
LINE
  5
52
  8
1
 62
     7
 10
64.190723777998343
 20
31.528560064968499
 30
0.0
 11
65.390723777998346
 21
31.528560064968499
 31
0.0
  0
LINE
  5
53
  8
1
 62
     7
 10
46.690723777998322
 20
54.178560064968522
 30
0.0
 11
48.190723777998322
 21
54.178560064968522
 31
0.0
  0
LINE
  5
54
  8
1
 62
     7
 10
46.690723777998322
 20
63.678560064968522
 30
0.0
 11
48.190723777998322
 21
63.678560064968522
 31
0.0
  0
LINE
  5
55
  8
1
 62
     7
 10
46.690723777998322
 20
32.428560064968522
 30
0.0
 11
48.190723777998322
 21
32.428560064968522
 31
0.0
  0
LINE
  5
56
  8
1
 62
     7
 10
46.690723777998322
 20
65.928560064968508
 30
0.0
 11
48.190723777998322
 21
65.928560064968508
 31
0.0
  0
LINE
  5
57
  8
1
 62
     7
 10
70.190723777998343
 20
33.928560064968501
 30
0.0
 11
65.390723777998346
 21
33.928560064968501
 31
0.0
  0
LINE
  5
58
  8
1
 62
     7
 10
72.690723777998343
 20
46.428560064968501
 30
0.0
 11
72.690723777998343
 21
44.928560064968487
 31
0.0
  0
LINE
  5
59
  8
1
 62
     7
 10
70.190723777998343
 20
45.478560064968491
 30
0.0
 11
70.190723777998343
 21
33.378560064968489
 31
0.0
  0
LINE
  5
5A
  8
1
 62
     7
 10
70.190723777998343
 20
45.478560064968491
 30
0.0
 11
72.690723777998343
 21
45.478560064968491
 31
0.0
  0
LINE
  5
5B
  8
1
 62
     7
 10
65.390723777998346
 20
34.528560064968502
 30
0.0
 11
65.390723777998346
 21
28.928560064968501
 31
0.0
  0
LINE
  5
5C
  8
1
 62
     7
 10
48.190723777998343
 20
44.928560064968487
 30
0.0
 11
49.690723777998343
 21
46.428560064968501
 31
0.0
  0
LINE
  5
5D
  8
1
 62
     7
 10
52.190723777998357
 20
47.428560064968487
 30
0.0
 11
51.690723777998357
 21
46.928560064968501
 31
0.0
  0
LINE
  5
5E
  8
1
 62
     7
 10
51.690723777998357
 20
46.928560064968501
 30
0.0
 11
51.690723777998357
 21
46.428560064968501
 31
0.0
  0
LINE
  5
5F
  8
1
 62
     7
 10
57.690723777998322
 20
46.428560064968501
 30
0.0
 11
57.690723777998322
 21
46.928560064968501
 31
0.0
  0
LINE
  5
60
  8
1
 62
     7
 10
57.690723777998322
 20
46.928560064968501
 30
0.0
 11
57.190723777998322
 21
47.428560064968487
 31
0.0
  0
LINE
  5
61
  8
1
 62
     7
 10
49.690723777998343
 20
46.428560064968501
 30
0.0
 11
72.690723777998343
 21
46.428560064968501
 31
0.0
  0
LINE
  5
62
  8
1
 62
     3
 10
54.300723777998343
 20
71.710194001790754
 30
0.0
 11
54.300723777998343
 21
74.670999146428528
 31
0.0
  0
LINE
  5
63
  8
1
 62
     3
 10
55.080723777998337
 20
74.670999146428528
 30
0.0
 11
55.080723777998337
 21
71.710194001790754
 31
0.0
  0
LINE
  5
64
  8
1
 62
     7
 10
52.190723777998357
 20
47.428560064968487
 30
0.0
 11
57.190723777998322
 21
47.428560064968487
 31
0.0
  0
LINE
  5
65
  8
1
 62
     7
 10
53.770723777998342
 20
71.710194001790754
 30
0.0
 11
53.770723777998342
 21
47.428560064968487
 31
0.0
  0
LINE
  5
66
  8
1
 62
     7
 10
55.610723777998352
 20
71.710194001790754
 30
0.0
 11
55.610723777998352
 21
47.428560064968487
 31
0.0
  0
LINE
  5
67
  8
1
 62
     7
 10
53.770723777998342
 20
71.710194001790754
 30
0.0
 11
55.610723777998352
 21
71.710194001790754
 31
0.0
  0
LINE
  5
68
  8
1
 62
     7
 10
184.71105207734789
 20
70.757739915813488
 30
0.0
 11
178.0904636204429
 21
46.049367418640173
 31
0.0
  0
LINE
  5
69
  8
1
 62
     7
 10
182.9337485569761
 20
71.233966958802142
 30
0.0
 11
176.31316010007109
 21
46.525594461628799
 31
0.0
  0
LINE
  5
6A
  8
1
 62
     7
 10
181.15644503660411
 20
71.710194001790754
 30
0.0
 11
174.5358565796993
 21
47.001821504617453
 31
0.0
  0
LINE
  5
6B
  8
1
 62
     7
 10
173.89834553434841
 20
47.172642074385102
 30
0.0
 11
178.72797466579371
 21
45.87854684887251
 31
0.0
  0
LINE
  5
6C
  8
1
 62
     7
 10
179.0815280563871
 20
45.266174413176707
 30
0.0
 11
178.72797466579371
 21
45.87854684887251
 31
0.0
  0
LINE
  5
6D
  8
1
 62
     7
 10
178.9521185338358
 20
44.783211500032174
 30
0.0
 11
179.0815280563871
 21
45.266174413176707
 31
0.0
  0
LINE
  5
6E
  8
1
 62
     7
 10
173.28597309865259
 20
46.819088683791819
 30
0.0
 11
173.15656357610141
 21
46.336125770647278
 31
0.0
  0
LINE
  5
6F
  8
1
 62
     7
 10
173.89834553434841
 20
47.172642074385102
 30
0.0
 11
173.28597309865259
 21
46.819088683791819
 31
0.0
  0
LINE
  5
70
  8
1
 62
     7
 10
167.35445540485441
 20
61.578560064968492
 30
0.0
 11
167.35445540485441
 21
56.278560064968481
 31
0.0
  0
LINE
  5
71
  8
1
 62
     7
 10
171.55445540485439
 20
61.578560064968492
 30
0.0
 11
171.55445540485439
 21
56.278560064968481
 31
0.0
  0
LINE
  5
72
  8
1
 62
     7
 10
174.45445540485429
 20
64.928560064968494
 30
0.0
 11
174.45445540485429
 21
47.023632883680087
 31
0.0
  0
LINE
  5
73
  8
1
 62
     7
 10
173.45445540485429
 20
65.928560064968508
 30
0.0
 11
165.45445540485429
 21
65.928560064968508
 31
0.0
  0
LINE
  5
74
  8
1
 62
     7
 10
164.45445540485429
 20
64.928560064968494
 30
0.0
 11
164.45445540485429
 21
45.933559565068499
 31
0.0
  0
LINE
  5
75
  8
1
 62
     7
 10
167.45445540485429
 20
27.428560064968501
 30
0.0
 11
171.45445540485429
 21
27.428560064968501
 31
0.0
  0
LINE
  5
76
  8
1
 62
     7
 10
171.45445540485429
 20
27.428560064968501
 30
0.0
 11
171.45445540485429
 21
25.51113575992434
 31
0.0
  0
LINE
  5
77
  8
1
 62
     7
 10
167.45445540485429
 20
25.51113575992434
 30
0.0
 11
167.45445540485429
 21
27.428560064968501
 31
0.0
  0
LINE
  5
78
  8
1
  6
DASHDOT
 62
     3
 10
46.690723777998322
 20
20.92856006496849
 30
0.0
 11
42.690723777998322
 21
20.92856006496849
 31
0.0
  0
LINE
  5
79
  8
1
 62
     7
 10
76.190723777998343
 20
12.42856006496849
 30
0.0
 11
76.190723777998343
 21
5.178560064968492
 31
0.0
  0
LINE
  5
7A
  8
1
 62
     7
 10
88.690723777998357
 20
15.928560064968501
 30
0.0
 11
64.190723777998329
 21
15.928560064968501
 31
0.0
  0
LINE
  5
7B
  8
1
 62
     7
 10
76.690723777998343
 20
4.678560064968492
 30
0.0
 11
77.190723777998343
 21
4.678560064968492
 31
0.0
  0
LINE
  5
7C
  8
1
 62
     7
 10
76.690723777998343
 20
12.92856006496849
 30
0.0
 11
88.690723777998357
 21
12.92856006496849
 31
0.0
  0
LINE
  5
7D
  8
1
 62
     7
 10
77.190723777998343
 20
12.92856006496849
 30
0.0
 11
77.190723777998343
 21
-4.5714399350315089
 31
0.0
  0
LINE
  5
7E
  8
1
 62
     7
 10
77.190723777998343
 20
-4.5714399350315089
 30
0.0
 11
74.056749181782763
 21
-4.5714399350315089
 31
0.0
  0
LINE
  5
7F
  8
1
 62
     7
 10
74.056749181782763
 20
-4.5714399350315089
 30
0.0
 11
73.190723777998343
 21
-3.071439935031508
 31
0.0
  0
LINE
  5
80
  8
1
 62
     7
 10
73.190723777998343
 20
-3.071439935031508
 30
0.0
 11
71.190723777998343
 21
-3.071439935031508
 31
0.0
  0
LINE
  5
81
  8
1
 62
     7
 10
71.190723777998343
 20
-3.071439935031508
 30
0.0
 11
71.190723777998343
 21
8.4785600649684891
 31
0.0
  0
LINE
  5
82
  8
1
 62
     7
 10
71.190723777998343
 20
8.4785600649684891
 30
0.0
 11
66.190723777998343
 21
8.4785600649684962
 31
0.0
  0
LINE
  5
83
  8
1
 62
     7
 10
66.190723777998343
 20
8.4785600649684962
 30
0.0
 11
66.190723777998343
 21
12.92856006496849
 31
0.0
  0
LINE
  5
84
  8
1
 62
     7
 10
66.190723777998343
 20
12.92856006496849
 30
0.0
 11
64.190723777998343
 21
12.92856006496849
 31
0.0
  0
LINE
  5
85
  8
1
 62
     7
 10
48.190723777998343
 20
7.9285600649684929
 30
0.0
 11
64.190723777998343
 21
7.9285600649684929
 31
0.0
  0
LINE
  5
86
  8
1
 62
     7
 10
64.190723777998343
 20
7.3285600649684914
 30
0.0
 11
65.390723777998346
 21
7.3285600649684914
 31
0.0
  0
LINE
  5
87
  8
1
 62
     7
 10
64.190723777998343
 20
14.007021034051141
 30
0.0
 11
61.390723777998353
 21
14.007021034051149
 31
0.0
  0
LINE
  5
88
  8
1
 62
     7
 10
58.99072377799834
 20
14.007021034051149
 30
0.0
 11
53.390723777998353
 21
14.007021034051149
 31
0.0
  0
LINE
  5
89
  8
1
 62
     7
 10
58.99072377799834
 20
9.8500990958858381
 30
0.0
 11
53.390723777998353
 21
9.8500990958858381
 31
0.0
  0
LINE
  5
8A
  8
1
 62
     7
 10
64.190723777998343
 20
9.8500990958858505
 30
0.0
 11
61.390723777998353
 21
9.8500990958858381
 31
0.0
  0
LINE
  5
8B
  8
1
 62
     7
 10
63.230723777998342
 20
15.928560064968501
 30
0.0
 11
57.150723777998351
 21
15.928560064968501
 31
0.0
  0
LINE
  5
8C
  8
1
 62
     7
 10
48.190723777998343
 20
14.007021034051141
 30
0.0
 11
50.99072377799834
 21
14.007021034051149
 31
0.0
  0
LINE
  5
8D
  8
1
 62
     7
 10
48.190723777998343
 20
9.8500990958858505
 30
0.0
 11
50.99072377799834
 21
9.8500990958858381
 31
0.0
  0
LINE
  5
8E
  8
1
 62
     7
 10
55.230723777998342
 20
15.928560064968501
 30
0.0
 11
49.150723777998337
 21
15.928560064968501
 31
0.0
  0
LINE
  5
8F
  8
1
 62
     7
 10
65.390723777998346
 20
10.328560064968491
 30
0.0
 11
64.190723777998343
 21
10.328560064968491
 31
0.0
  0
LINE
  5
90
  8
1
 62
     7
 10
48.190723777998322
 20
9.4285600649684724
 30
0.0
 11
46.690723777998322
 21
9.4285600649684724
 31
0.0
  0
LINE
  5
91
  8
1
 62
     7
 10
65.390723777998346
 20
7.9285600649684929
 30
0.0
 11
70.190723777998343
 21
7.9285600649684929
 31
0.0
  0
LINE
  5
92
  8
1
 62
     7
 10
72.690723777998343
 20
-3.071439935031508
 30
0.0
 11
72.690723777998343
 21
-4.5714399350315089
 31
0.0
  0
LINE
  5
93
  8
1
 62
     7
 10
70.190723777998343
 20
8.4785600649684962
 30
0.0
 11
70.190723777998343
 21
-3.6214399350315061
 31
0.0
  0
LINE
  5
94
  8
1
 62
     7
 10
72.690723777998343
 20
-3.6214399350315079
 30
0.0
 11
70.190723777998343
 21
-3.6214399350315061
 31
0.0
  0
LINE
  5
95
  8
1
 62
     7
 10
65.390723777998346
 20
12.92856006496849
 30
0.0
 11
65.390723777998346
 21
7.3285600649684914
 31
0.0
  0
LINE
  5
96
  8
1
 62
     7
 10
49.690723777998343
 20
-4.5714399350315089
 30
0.0
 11
48.190723777998343
 21
-3.071439935031508
 31
0.0
  0
LINE
  5
97
  8
1
 62
     7
 10
72.690723777998343
 20
-4.5714399350315089
 30
0.0
 11
49.690723777998343
 21
-4.5714399350315089
 31
0.0
  0
LINE
  5
98
  8
1
 62
     7
 10
48.190723777998343
 20
-2.571439935031484
 30
0.0
 11
46.690723777998322
 21
-2.571439935031484
 31
0.0
  0
LINE
  5
99
  8
1
 62
     7
 10
46.690723777998322
 20
-2.571439935031484
 30
0.0
 11
46.690723777998322
 21
9.4285600649684724
 31
0.0
  0
LINE
  5
9A
  8
1
 62
     7
 10
87.690723777998343
 20
12.92856006496849
 30
0.0
 11
87.690723777998343
 21
12.42856006496851
 31
0.0
  0
LINE
  5
9B
  8
1
 62
     7
 10
80.440723777998343
 20
12.92856006496849
 30
0.0
 11
80.440723777998343
 21
-4.7214399350314968
 31
0.0
  0
LINE
  5
9C
  8
1
 62
     7
 10
80.740723777998355
 20
28.928560064968501
 30
0.0
 11
80.740723777998355
 21
41.878560064968497
 31
0.0
  0
LINE
  5
9D
  8
1
 62
     7
 10
77.440723777998343
 20
28.928560064968501
 30
0.0
 11
77.440723777998343
 21
46.578560064968499
 31
0.0
  0
LINE
  5
9E
  8
1
 62
     7
 10
80.740723777998355
 20
-4.0714399350314912
 30
0.0
 11
80.440723777998343
 21
-4.0714399350314912
 31
0.0
  0
LINE
  5
9F
  8
1
 62
     7
 10
80.740723777998355
 20
-4.0714399350314912
 30
0.0
 11
80.740723777998355
 21
6.9285600649685071
 31
0.0
  0
LINE
  5
A0
  8
1
 62
     7
 10
80.740723777998355
 20
45.928560064968508
 30
0.0
 11
80.740723777998355
 21
44.778560064968502
 31
0.0
  0
LINE
  5
A1
  8
1
 62
     7
 10
80.440723777998343
 20
45.928560064968508
 30
0.0
 11
80.740723777998355
 21
45.928560064968508
 31
0.0
  0
LINE
  5
A2
  8
1
 62
     7
 10
81.540723777998366
 20
45.328560064968492
 30
0.0
 11
81.540723777998366
 21
41.328560064968492
 31
0.0
  0
LINE
  5
A3
  8
1
 62
     7
 10
80.740723777998355
 20
45.328560064968499
 30
0.0
 11
81.540723777998366
 21
45.328560064968492
 31
0.0
  0
LINE
  5
A4
  8
1
 62
     7
 10
80.740723777998355
 20
41.328560064968492
 30
0.0
 11
81.540723777998366
 21
41.328560064968492
 31
0.0
  0
LINE
  5
A5
  8
1
 62
     7
 10
80.440723777998329
 20
41.878560064968497
 30
0.0
 11
80.740723777998355
 21
41.878560064968497
 31
0.0
  0
LINE
  5
A6
  8
1
 62
     7
 10
80.440723777998343
 20
44.778560064968502
 30
0.0
 11
80.740723777998355
 21
44.778560064968502
 31
0.0
  0
LINE
  5
A7
  8
1
 62
     7
 10
78.940723777998357
 20
41.828560064968492
 30
0.0
 11
77.440723777998343
 21
41.828560064968492
 31
0.0
  0
LINE
  5
A8
  8
1
 62
     7
 10
78.940723777998357
 20
44.828560064968492
 30
0.0
 11
78.940723777998357
 21
41.828560064968492
 31
0.0
  0
LINE
  5
A9
  8
1
 62
     7
 10
77.440723777998343
 20
44.828560064968492
 30
0.0
 11
78.940723777998357
 21
44.828560064968492
 31
0.0
  0
LINE
  5
AA
  8
1
 62
     7
 10
80.440723777998329
 20
41.878560064968497
 30
0.0
 11
80.440723777998343
 21
28.928560064968501
 31
0.0
  0
LINE
  5
AB
  8
1
 62
     7
 10
77.440723777998343
 20
32.928560064968501
 30
0.0
 11
80.440723777998343
 21
32.928560064968508
 31
0.0
  0
LINE
  5
AC
  8
1
 62
     7
 10
77.440723777998343
 20
4.72856006496849
 30
0.0
 11
80.440723777998343
 21
4.72856006496849
 31
0.0
  0
LINE
  5
AD
  8
1
 62
     7
 10
77.440723777998343
 20
-4.7214399350314968
 30
0.0
 11
77.440723777998343
 21
12.928560064968501
 31
0.0
  0
LINE
  5
AE
  8
1
 62
     7
 10
80.440723777998343
 20
-4.7214399350314968
 30
0.0
 11
77.440723777998343
 21
-4.7214399350314968
 31
0.0
  0
LINE
  5
AF
  8
1
 62
     7
 10
80.440723777998343
 20
46.578560064968492
 30
0.0
 11
80.440723777998343
 21
44.778560064968502
 31
0.0
  0
LINE
  5
B0
  8
1
 62
     7
 10
77.440723777998343
 20
46.578560064968499
 30
0.0
 11
80.440723777998343
 21
46.578560064968492
 31
0.0
  0
LINE
  5
B1
  8
1
 62
     7
 10
80.740723777998355
 20
39.928560064968501
 30
0.0
 11
83.340723777998335
 21
39.928560064968487
 31
0.0
  0
LINE
  5
B2
  8
1
 62
     7
 10
83.340723777998335
 20
39.928560064968487
 30
0.0
 11
83.340723777998406
 21
42.928560064968501
 31
0.0
  0
LINE
  5
B3
  8
1
 62
     7
 10
83.340723777998406
 20
42.928560064968501
 30
0.0
 11
91.690723777998343
 21
42.928560064968487
 31
0.0
  0
LINE
  5
B4
  8
1
 62
     7
 10
91.690723777998343
 20
42.928560064968487
 30
0.0
 11
91.690723777998343
 21
33.928560064968508
 31
0.0
  0
LINE
  5
B5
  8
1
 62
     7
 10
91.690723777998343
 20
-1.071439935031492
 30
0.0
 11
83.340723777998406
 21
-1.071439935031492
 31
0.0
  0
LINE
  5
B6
  8
1
 62
     7
 10
83.340723777998406
 20
-1.071439935031492
 30
0.0
 11
83.340723777998406
 21
1.928560064968508
 31
0.0
  0
LINE
  5
B7
  8
1
 62
     7
 10
83.340723777998406
 20
1.928560064968508
 30
0.0
 11
80.740723777998355
 21
1.928560064968508
 31
0.0
  0
LINE
  5
B8
  8
1
 62
     7
 10
91.690723777998343
 20
33.928560064968508
 30
0.0
 11
88.690723777998357
 21
33.928560064968508
 31
0.0
  0
LINE
  5
B9
  8
1
 62
     7
 10
88.690723777998357
 20
7.9285600649685071
 30
0.0
 11
91.690723777998343
 21
7.9285600649685071
 31
0.0
  0
LINE
  5
BA
  8
1
 62
     7
 10
80.740723777998355
 20
29.428560064968501
 30
0.0
 11
87.690723777998343
 21
29.428560064968501
 31
0.0
  0
LINE
  5
BB
  8
1
 62
     7
 10
80.740723777998355
 20
12.42856006496851
 30
0.0
 11
87.690723777998343
 21
12.42856006496851
 31
0.0
  0
LINE
  5
BC
  8
1
 62
     7
 10
88.690723777998357
 20
30.428560064968512
 30
0.0
 11
87.690723777998343
 21
29.428560064968501
 31
0.0
  0
LINE
  5
BD
  8
1
 62
     7
 10
88.690723777998357
 20
33.928560064968508
 30
0.0
 11
88.690723777998357
 21
25.928560064968501
 31
0.0
  0
LINE
  5
BE
  8
1
 62
     7
 10
87.690723777998343
 20
12.42856006496851
 30
0.0
 11
88.690723777998357
 21
11.428560064968501
 31
0.0
  0
LINE
  5
BF
  8
1
 62
     7
 10
87.690723777998343
 20
29.428560064968501
 30
0.0
 11
87.690723777998343
 21
28.928560064968501
 31
0.0
  0
LINE
  5
C0
  8
1
 62
     3
 10
91.690723777998343
 20
41.928560064968501
 30
0.0
 11
83.340723777998406
 21
41.928560064968501
 31
0.0
  0
LINE
  5
C1
  8
1
 62
     3
 10
91.690723777998343
 20
37.928560064968508
 30
0.0
 11
80.740723777998355
 21
37.928560064968508
 31
0.0
  0
LINE
  5
C2
  8
1
  6
CENTER
 62
     3
 10
93.880723777998355
 20
39.928560064968501
 30
0.0
 11
83.340723777998335
 21
39.928560064968487
 31
0.0
  0
LINE
  5
C3
  8
1
 62
     7
 10
91.690723777998343
 20
41.528560064968502
 30
0.0
 11
83.340723777998406
 21
41.528560064968502
 31
0.0
  0
LINE
  5
C4
  8
1
 62
     7
 10
91.690723777998343
 20
38.328560064968492
 30
0.0
 11
80.740723777998355
 21
38.328560064968492
 31
0.0
  0
LINE
  5
C5
  8
1
 62
     7
 10
79.46169945224905
 20
12.42856006496851
 30
0.0
 11
80.140723777998346
 21
12.42856006496851
 31
0.0
  0
LINE
  5
C6
  8
1
 62
     7
 10
79.46169945224905
 20
5.4285600649685071
 30
0.0
 11
80.140723777998346
 21
5.4285600649685071
 31
0.0
  0
LINE
  5
C7
  8
1
 62
     7
 10
80.440723777998343
 20
10.92856006496851
 30
0.0
 11
80.740723777998355
 21
10.92856006496851
 31
0.0
  0
LINE
  5
C8
  8
1
 62
     7
 10
84.840723777998377
 20
10.92856006496851
 30
0.0
 11
85.440723777998343
 21
10.328560064968491
 31
0.0
  0
LINE
  5
C9
  8
1
 62
     7
 10
85.440723777998343
 20
10.328560064968491
 30
0.0
 11
85.440723777998343
 21
7.5285600649685023
 31
0.0
  0
LINE
  5
CA
  8
1
 62
     7
 10
85.440723777998343
 20
7.5285600649685023
 30
0.0
 11
84.840723777998377
 21
6.9285600649685071
 31
0.0
  0
LINE
  5
CB
  8
1
 62
     7
 10
84.840723777998377
 20
6.9285600649685071
 30
0.0
 11
80.740723777998355
 21
6.9285600649685071
 31
0.0
  0
LINE
  5
CC
  8
1
 62
     7
 10
84.840723777998377
 20
10.92856006496851
 30
0.0
 11
84.840723777998377
 21
6.9285600649685071
 31
0.0
  0
LINE
  5
CD
  8
1
 62
     7
 10
81.979954262539707
 20
10.92856006496851
 30
0.0
 11
81.979954262539707
 21
6.9285600649685071
 31
0.0
  0
LINE
  5
CE
  8
1
 62
     3
 10
85.440723777998343
 20
10.328560064968491
 30
0.0
 11
81.979954262539707
 21
10.328560064968491
 31
0.0
  0
LINE
  5
CF
  8
1
 62
     3
 10
81.979954262539707
 20
10.328560064968491
 30
0.0
 11
80.940723777998357
 21
10.92856006496851
 31
0.0
  0
LINE
  5
D0
  8
1
 62
     3
 10
85.440723777998343
 20
7.5285600649685023
 30
0.0
 11
81.979954262539707
 21
7.5285600649685023
 31
0.0
  0
LINE
  5
D1
  8
1
 62
     3
 10
81.979954262539707
 20
7.5285600649685023
 30
0.0
 11
80.940723777998357
 21
6.9285600649685071
 31
0.0
  0
LINE
  5
D2
  8
1
 62
     7
 10
80.740723777998355
 20
10.92856006496851
 30
0.0
 11
80.740723777998355
 21
12.92856006496849
 31
0.0
  0
LINE
  5
D3
  8
1
 62
     7
 10
80.740723777998355
 20
10.92856006496851
 30
0.0
 11
84.840723777998377
 21
10.92856006496851
 31
0.0
  0
LINE
  5
D4
  8
1
 62
     7
 10
80.740723777998355
 20
6.9285600649685071
 30
0.0
 11
80.440723777998343
 21
6.9285600649685071
 31
0.0
  0
LINE
  5
D5
  8
1
 62
     7
 10
87.340723777998377
 20
10.328560064968491
 30
0.0
 11
85.440723777998343
 21
10.328560064968491
 31
0.0
  0
LINE
  5
D6
  8
1
 62
     7
 10
87.340723777998377
 20
10.328560064968491
 30
0.0
 11
87.340723777998377
 21
7.5285600649685023
 31
0.0
  0
LINE
  5
D7
  8
1
 62
     7
 10
87.340723777998377
 20
10.328560064968491
 30
0.0
 11
88.264484208701802
 21
8.9285600649685062
 31
0.0
  0
LINE
  5
D8
  8
1
 62
     7
 10
88.264484208701802
 20
8.9285600649685062
 30
0.0
 11
87.340723777998377
 21
7.5285600649685023
 31
0.0
  0
LINE
  5
D9
  8
1
 62
     7
 10
85.440723777998343
 20
7.5285600649685023
 30
0.0
 11
87.340723777998377
 21
7.5285600649685023
 31
0.0
  0
LINE
  5
DA
  8
1
  6
DASHDOT
 62
     3
 10
91.690723777998343
 20
20.92856006496849
 30
0.0
 11
95.690723777998357
 21
20.92856006496849
 31
0.0
  0
LINE
  5
DB
  8
1
 62
     7
 10
-11.52086538389686
 20
42.928560064968501
 30
0.0
 11
-11.52086538389686
 21
-1.071439935031492
 31
0.0
  0
LINE
  5
DC
  8
1
 62
     7
 10
-19.870865383896859
 20
-1.071439935031492
 30
0.0
 11
-11.52086538389686
 21
-1.071439935031492
 31
0.0
  0
LINE
  5
DD
  8
1
 62
     7
 10
-22.470865383896871
 20
1.928560064968508
 30
0.0
 11
-19.870865383896859
 21
1.928560064968508
 31
0.0
  0
LINE
  5
DE
  8
1
 62
     7
 10
-19.870865383896859
 20
39.928560064968501
 30
0.0
 11
-22.470865383896871
 21
39.928560064968501
 31
0.0
  0
LINE
  5
DF
  8
1
 62
     7
 10
-11.52086538389686
 20
42.928560064968501
 30
0.0
 11
-19.870865383896859
 21
42.928560064968501
 31
0.0
  0
LINE
  5
E0
  8
1
 62
     7
 10
-22.470865383896871
 20
-4.0714399350314912
 30
0.0
 11
-22.770865383896869
 21
-4.0714399350314912
 31
0.0
  0
LINE
  5
E1
  8
1
 62
     7
 10
-22.470865383896871
 20
45.928560064968508
 30
0.0
 11
-22.470865383896871
 21
-4.0714399350314912
 31
0.0
  0
LINE
  5
E2
  8
1
 62
     7
 10
-22.770865383896869
 20
45.928560064968508
 30
0.0
 11
-22.470865383896871
 21
45.928560064968508
 31
0.0
  0
LINE
  5
E3
  8
1
 62
     7
 10
-21.670865383896871
 20
45.328560064968499
 30
0.0
 11
-21.670865383896871
 21
41.328560064968499
 31
0.0
  0
LINE
  5
E4
  8
1
 62
     7
 10
-22.470865383896871
 20
45.328560064968499
 30
0.0
 11
-21.670865383896871
 21
45.328560064968499
 31
0.0
  0
LINE
  5
E5
  8
1
 62
     7
 10
-22.470865383896871
 20
41.328560064968499
 30
0.0
 11
-21.670865383896871
 21
41.328560064968499
 31
0.0
  0
LINE
  5
E6
  8
1
 62
     7
 10
-22.770865383896869
 20
-4.7214399350314968
 30
0.0
 11
-25.770865383896869
 21
-4.7214399350314968
 31
0.0
  0
LINE
  5
E7
  8
1
 62
     7
 10
-22.770865383896869
 20
46.578560064968499
 30
0.0
 11
-22.770865383896869
 21
-4.7214399350314968
 31
0.0
  0
LINE
  5
E8
  8
1
 62
     7
 10
-25.770865383896869
 20
46.578560064968499
 30
0.0
 11
-22.770865383896869
 21
46.578560064968499
 31
0.0
  0
LINE
  5
E9
  8
1
 62
     7
 10
-25.770865383896869
 20
46.578560064968499
 30
0.0
 11
-25.770865383896869
 21
-4.7214399350314968
 31
0.0
  0
LINE
  5
EA
  8
1
 62
     7
 10
-19.870865383896859
 20
-1.071439935031492
 30
0.0
 11
-19.870865383896859
 21
42.928560064968501
 31
0.0
  0
LINE
  5
EB
  8
1
 62
     7
 10
-21.670865383896871
 20
11.728560064968489
 30
0.0
 11
-21.670865383896871
 21
7.7285600649684909
 31
0.0
  0
LINE
  5
EC
  8
1
 62
     7
 10
-21.670865383896871
 20
11.728560064968489
 30
0.0
 11
-22.470865383896871
 21
11.728560064968489
 31
0.0
  0
LINE
  5
ED
  8
1
 62
     7
 10
-21.670865383896871
 20
7.7285600649684909
 30
0.0
 11
-22.470865383896871
 21
7.7285600649684909
 31
0.0
  0
LINE
  5
EE
  8
1
 62
     7
 10
-30.020865383896869
 20
-3.0714399350314912
 30
0.0
 11
-30.520865383896869
 21
-3.0714399350314912
 31
0.0
  0
LINE
  5
EF
  8
1
 62
     7
 10
-29.154839980112431
 20
-4.571439935031492
 30
0.0
 11
-30.020865383896869
 21
-3.0714399350314912
 31
0.0
  0
LINE
  5
F0
  8
1
 62
     7
 10
-26.020865383896869
 20
-4.571439935031492
 30
0.0
 11
-29.154839980112431
 21
-4.571439935031492
 31
0.0
  0
LINE
  5
F1
  8
1
 62
     7
 10
-26.020865383896869
 20
46.428560064968508
 30
0.0
 11
-26.020865383896869
 21
-4.571439935031492
 31
0.0
  0
LINE
  5
F2
  8
1
 62
     7
 10
-29.154839980112431
 20
46.428560064968508
 30
0.0
 11
-26.020865383896869
 21
46.428560064968508
 31
0.0
  0
LINE
  5
F3
  8
1
 62
     7
 10
-30.020865383896869
 20
44.928560064968501
 30
0.0
 11
-29.154839980112431
 21
46.428560064968508
 31
0.0
  0
LINE
  5
F4
  8
1
 62
     7
 10
-55.020865383896862
 20
-3.0714399350314912
 30
0.0
 11
-55.020865383896883
 21
65.928560064968508
 31
0.0
  0
LINE
  5
F5
  8
1
 62
     7
 10
-53.520865383896869
 20
-4.571439935031492
 30
0.0
 11
-53.520865383896869
 21
46.428560064968508
 31
0.0
  0
LINE
  5
F6
  8
1
 62
     7
 10
-55.020865383896883
 20
-2.8724361865008339
 30
0.0
 11
-55.020865383896883
 21
-2.4195550845772398
 31
0.0
  0
LINE
  5
F7
  8
1
 62
     7
 10
-56.520865383896883
 20
65.928560064968508
 30
0.0
 11
-56.520865383896883
 21
-2.5714399350314912
 31
0.0
  0
LINE
  5
F8
  8
1
 62
     7
 10
-55.020865383896883
 20
-2.5714399350314912
 30
0.0
 11
-56.520865383896883
 21
-2.5714399350314912
 31
0.0
  0
LINE
  5
F9
  8
1
 62
     7
 10
-56.520865383896883
 20
65.928560064968508
 30
0.0
 11
-55.020865383896883
 21
65.928560064968508
 31
0.0
  0
LINE
  5
FA
  8
1
 62
     7
 10
-55.020865383896862
 20
44.928560064968501
 30
0.0
 11
-53.520865383896869
 21
46.428560064968508
 31
0.0
  0
LINE
  5
FB
  8
1
 62
     7
 10
-53.520865383896869
 20
-4.571439935031492
 30
0.0
 11
-55.020865383896862
 21
-3.0714399350314912
 31
0.0
  0
LINE
  5
FC
  8
1
 62
     7
 10
-53.520865383896869
 20
-4.571439935031492
 30
0.0
 11
-30.520865383896869
 21
-4.571439935031492
 31
0.0
  0
LINE
  5
FD
  8
1
 62
     7
 10
-51.020865383896847
 20
47.428560064968501
 30
0.0
 11
-51.520865383896847
 21
46.928560064968501
 31
0.0
  0
LINE
  5
FE
  8
1
 62
     7
 10
-51.520865383896847
 20
46.928560064968501
 30
0.0
 11
-51.520865383896847
 21
46.428560064968508
 31
0.0
  0
LINE
  5
FF
  8
1
 62
     7
 10
-45.520865383896883
 20
46.428560064968508
 30
0.0
 11
-45.520865383896883
 21
46.928560064968501
 31
0.0
  0
LINE
  5
100
  8
1
 62
     7
 10
-45.520865383896883
 20
46.928560064968501
 30
0.0
 11
-46.020865383896883
 21
47.428560064968501
 31
0.0
  0
LINE
  5
101
  8
1
 62
     7
 10
-53.520865383896869
 20
46.428560064968508
 30
0.0
 11
-30.520865383896869
 21
46.428560064968508
 31
0.0
  0
LINE
  5
102
  8
1
 62
     7
 10
-51.020865383896847
 20
47.428560064968501
 30
0.0
 11
-46.020865383896883
 21
47.428560064968501
 31
0.0
  0
LINE
  5
103
  8
1
 62
     7
 10
-49.44086538389687
 20
71.710194001790754
 30
0.0
 11
-49.44086538389687
 21
47.428560064968501
 31
0.0
  0
LINE
  5
104
  8
1
 62
     7
 10
-47.60086538389686
 20
71.710194001790754
 30
0.0
 11
-47.60086538389686
 21
47.428560064968501
 31
0.0
  0
LINE
  5
105
  8
1
  6
DASHDOT
 62
     3
 10
-11.52086538389686
 20
20.928560064968512
 30
0.0
 11
-7.5208653838968687
 21
20.928560064968512
 31
0.0
  0
LINE
  5
106
  8
1
  6
DASHDOT
 62
     3
 10
-56.520865383896883
 20
20.928560064968512
 30
0.0
 11
-60.520865383896897
 21
20.928560064968512
 31
0.0
  0
LINE
  5
107
  8
1
 62
     7
 10
-30.520865383896869
 20
44.928560064968501
 30
0.0
 11
-30.020865383896869
 21
44.928560064968501
 31
0.0
  0
LINE
  5
108
  8
1
 62
     7
 10
-30.520865383896869
 20
46.428560064968508
 30
0.0
 11
-30.520865383896869
 21
-4.571439935031492
 31
0.0
  0
LINE
  5
109
  8
1
 62
     7
 10
-30.020865383896869
 20
44.928560064968501
 30
0.0
 11
-30.020865383896869
 21
-3.0714399350314912
 31
0.0
  0
LINE
  5
10A
  8
1
 62
     7
 10
-29.154839980112431
 20
46.428560064968508
 30
0.0
 11
-29.154839980112431
 21
-4.571439935031492
 31
0.0
  0
LINE
  5
10B
  8
1
  6
DASHDOT
 62
     3
 10
-137.10672696528749
 20
20.92856006496849
 30
0.0
 11
-131.4624670562182
 21
20.92856006496849
 31
0.0
  0
LINE
  5
10C
  8
1
  6
DASHDOT
 62
     3
 10
-134.28459701075289
 20
23.75069001950316
 30
0.0
 11
-134.28459701075289
 21
18.106430110433841
 31
0.0
  0
LINE
  5
10D
  8
1
 62
     7
 10
-142.92060522634159
 20
46.049367418640173
 30
0.0
 11
-149.5411936832466
 21
70.757739915813488
 31
0.0
  0
LINE
  5
10E
  8
1
 62
     7
 10
-141.14330170596961
 20
46.525594461628799
 30
0.0
 11
-147.76389016287459
 21
71.233966958802142
 31
0.0
  0
LINE
  5
10F
  8
1
 62
     7
 10
-139.36599818559779
 20
47.001821504617453
 30
0.0
 11
-145.9865866425028
 21
71.710194001790754
 31
0.0
  0
LINE
  5
110
  8
1
 62
     7
 10
-143.55811627169231
 20
45.87854684887251
 30
0.0
 11
-139.28459701075289
 21
47.023632883680087
 31
0.0
  0
LINE
  5
111
  8
1
 62
     7
 10
-143.55811627169231
 20
45.87854684887251
 30
0.0
 11
-143.9116696622857
 21
45.266174413176707
 31
0.0
  0
LINE
  5
112
  8
1
 62
     7
 10
-143.7364270459866
 20
44.612160065497427
 30
0.0
 11
-143.9116696622857
 21
45.266174413176707
 31
0.0
  0
LINE
  5
113
  8
1
 62
     7
 10
-139.28459701075289
 20
64.928560064968494
 30
0.0
 11
-139.28459701075289
 21
45.448959735446941
 31
0.0
  0
LINE
  5
114
  8
1
 62
     7
 10
-130.28459701075289
 20
65.928560064968494
 30
0.0
 11
-138.28459701075289
 21
65.928560064968494
 31
0.0
  0
LINE
  5
115
  8
1
 62
     7
 10
-129.28459701075289
 20
64.928560064968494
 30
0.0
 11
-129.28459701075289
 21
45.448959735446941
 31
0.0
  0
LINE
  5
116
  8
1
 62
     7
 10
-132.18459701075281
 20
61.578560064968492
 30
0.0
 11
-132.18459701075281
 21
56.278560064968481
 31
0.0
  0
LINE
  5
117
  8
1
 62
     7
 10
-136.38459701075291
 20
61.578560064968492
 30
0.0
 11
-136.38459701075291
 21
56.278560064968481
 31
0.0
  0
LINE
  5
118
  8
1
 62
     7
 10
46.690723777998322
 20
32.428560064968522
 30
0.0
 11
46.690723777998322
 21
65.928560064968508
 31
0.0
  0
LINE
  5
119
  8
1
 62
     7
 10
46.690723777998322
 20
9.4285600649684724
 30
0.0
 11
46.690723777998322
 21
32.428560064968522
 31
0.0
  0
LINE
  5
11A
  8
1
 62
     7
 10
48.190723777998343
 20
14.968560064968489
 30
0.0
 11
48.190723777998343
 21
26.888560064968502
 31
0.0
  0
LINE
  5
11B
  8
1
 62
     7
 10
48.190723777998343
 20
26.888560064968502
 30
0.0
 11
48.190723777998322
 21
65.928560064968508
 31
0.0
  0
LINE
  5
11C
  8
1
 62
     7
 10
56.19072377799835
 20
26.888560064968502
 30
0.0
 11
56.19072377799835
 21
14.968560064968489
 31
0.0
  0
LINE
  5
11D
  8
1
 62
     7
 10
56.19072377799835
 20
14.968560064968489
 30
0.0
 11
56.19072377799835
 21
8.8885600649684946
 31
0.0
  0
LINE
  5
11E
  8
1
 62
     7
 10
64.190723777998329
 20
25.928560064968501
 30
0.0
 11
64.190723777998329
 21
15.928560064968501
 31
0.0
  0
LINE
  5
11F
  8
1
 62
     7
 10
64.190723777998329
 20
15.928560064968501
 30
0.0
 11
64.190723777998343
 21
7.3285600649684914
 31
0.0
  0
LINE
  5
120
  8
1
 62
     7
 10
88.690723777998357
 20
25.928560064968501
 30
0.0
 11
88.690723777998357
 21
15.928560064968501
 31
0.0
  0
LINE
  5
121
  8
1
 62
     7
 10
88.690723777998357
 20
15.928560064968501
 30
0.0
 11
88.690723777998357
 21
7.9285600649685071
 31
0.0
  0
LINE
  5
122
  8
1
 62
     7
 10
91.690723777998343
 20
33.928560064968508
 30
0.0
 11
91.690723777998343
 21
7.9285600649685071
 31
0.0
  0
LINE
  5
123
  8
1
 62
     7
 10
91.690723777998343
 20
7.9285600649685071
 30
0.0
 11
91.690723777998343
 21
-1.071439935031492
 31
0.0
  0
LINE
  5
124
  8
1
 62
     3
 10
54.690723777998343
 20
71.710194001790754
 30
0.0
 11
54.690723777998343
 21
74.670999146428528
 31
0.0
  0
LINE
  5
125
  8
1
 62
     3
 10
-48.910865383896862
 20
71.710194001790754
 30
0.0
 11
-48.910865383896862
 21
74.670999146428528
 31
0.0
  0
LINE
  5
126
  8
1
 62
     3
 10
-48.130865383896861
 20
74.670999146428528
 30
0.0
 11
-48.130865383896861
 21
71.710194001790754
 31
0.0
  0
LINE
  5
127
  8
1
 62
     7
 10
-49.44086538389687
 20
71.710194001790754
 30
0.0
 11
-47.60086538389686
 21
71.710194001790754
 31
0.0
  0
LINE
  5
128
  8
1
 62
     3
 10
-48.520865383896847
 20
71.710194001790754
 30
0.0
 11
-48.520865383896847
 21
74.670999146428528
 31
0.0
  0
LINE
  5
129
  8
1
 62
     3
 10
-149.02925299531341
 20
70.894914009717795
 30
0.0
 11
-149.79556575558311
 21
73.754832165532974
 31
0.0
  0
LINE
  5
12A
  8
1
 62
     3
 10
-149.04214361107759
 20
73.956711020712959
 30
0.0
 11
-148.27583085080789
 21
71.096792864897779
 31
0.0
  0
LINE
  5
12B
  8
1
 62
     3
 10
-148.6525419230606
 20
70.995853437307801
 30
0.0
 11
-149.41885468333041
 21
73.855771593122952
 31
0.0
  0
LINE
  5
12C
  8
1
 62
     3
 10
-147.25194947494151
 20
71.371141052706449
 30
0.0
 11
-148.0182622352113
 21
74.231059208521629
 31
0.0
  0
LINE
  5
12D
  8
1
 62
     3
 10
-147.26484009070569
 20
74.432938063701584
 30
0.0
 11
-146.49852733043599
 21
71.573019907886433
 31
0.0
  0
LINE
  5
12E
  8
1
 62
     7
 10
-145.9865866425028
 20
71.710194001790754
 30
0.0
 11
-149.5411936832466
 21
70.757739915813488
 31
0.0
  0
LINE
  5
12F
  8
1
 62
     3
 10
-146.87523840268881
 20
71.472080480296455
 30
0.0
 11
-147.64155116295851
 21
74.331998636111607
 31
0.0
  0
LINE
  5
130
  8
1
 62
     3
 10
184.96542414968451
 20
73.754832165532974
 30
0.0
 11
184.19911138941481
 21
70.894914009717795
 31
0.0
  0
LINE
  5
131
  8
1
 62
     3
 10
183.44568924490929
 20
71.096792864897765
 30
0.0
 11
184.2120020051791
 21
73.956711020712945
 31
0.0
  0
LINE
  5
132
  8
1
 62
     3
 10
184.58871307743181
 20
73.855771593122952
 30
0.0
 11
183.82240031716199
 21
70.995853437307801
 31
0.0
  0
LINE
  5
133
  8
1
 62
     3
 10
183.18812062931261
 20
74.231059208521629
 30
0.0
 11
182.42180786904279
 21
71.371141052706449
 31
0.0
  0
LINE
  5
134
  8
1
 62
     3
 10
181.6683857245373
 20
71.573019907886419
 30
0.0
 11
182.43469848480709
 21
74.432938063701584
 31
0.0
  0
LINE
  5
135
  8
1
 62
     7
 10
184.71105207734789
 20
70.757739915813488
 30
0.0
 11
181.15644503660411
 21
71.710194001790754
 31
0.0
  0
LINE
  5
136
  8
1
 62
     3
 10
182.81140955705979
 20
74.331998636111607
 30
0.0
 11
182.04509679679001
 21
71.472080480296455
 31
0.0
  0
ARC
  5
137
  8
1
 62
     7
 10
76.690723777998343
 20
29.428560064968501
 30
0.0
 40
0.5
 50
180.0
 51
270.0
  0
ARC
  5
138
  8
1
 62
     7
 10
76.690723777998343
 20
36.678560064968501
 30
0.0
 40
0.5
 50
90.0
 51
180.0
  0
ARC
  5
139
  8
1
 62
     7
 10
63.230723777998342
 20
26.888560064968502
 30
0.0
 40
0.9600000000000009
 50
270.0
 51
0.0
  0
ARC
  5
13A
  8
1
 62
     7
 10
57.150723777998351
 20
32.9685600649685
 30
0.0
 40
0.9600000000000009
 50
90.0
 51
180.0
  0
ARC
  5
13B
  8
1
 62
     7
 10
63.230723777998342
 20
32.9685600649685
 30
0.0
 40
0.9600000000000009
 50
0.0
 51
90.0
  0
ARC
  5
13C
  8
1
 62
     7
 10
57.150723777998351
 20
26.888560064968502
 30
0.0
 40
0.9599999999999938
 50
180.0
 51
270.0
  0
ARC
  5
13D
  8
1
 62
     7
 10
55.230723777998342
 20
26.888560064968502
 30
0.0
 40
0.9600000000000009
 50
270.0
 51
0.0
  0
ARC
  5
13E
  8
1
 62
     7
 10
49.150723777998337
 20
32.9685600649685
 30
0.0
 40
0.9600000000000009
 50
90.0
 51
180.0
  0
ARC
  5
13F
  8
1
 62
     7
 10
55.230723777998342
 20
32.9685600649685
 30
0.0
 40
0.9600000000000009
 50
0.0
 51
90.0
  0
ARC
  5
140
  8
1
 62
     7
 10
49.150723777998337
 20
26.888560064968502
 30
0.0
 40
0.9599999999999938
 50
180.0
 51
270.0
  0
ARC
  5
141
  8
1
 62
     7
 10
165.45445540485429
 20
64.928560064968494
 30
0.0
 40
1.0
 50
90.0
 51
180.0
  0
ARC
  5
142
  8
1
 62
     7
 10
173.45445540485429
 20
64.928560064968494
 30
0.0
 40
1.0
 50
0.0
 51
90.0
  0
ARC
  5
143
  8
1
 62
     7
 10
76.690723777998343
 20
12.42856006496849
 30
0.0
 40
0.5
 50
90.0
 51
180.0
  0
ARC
  5
144
  8
1
 62
     7
 10
76.690723777998343
 20
5.178560064968492
 30
0.0
 40
0.5
 50
180.0
 51
270.0
  0
ARC
  5
145
  8
1
 62
     7
 10
63.230723777998342
 20
14.968560064968489
 30
0.0
 40
0.9600000000000009
 50
0.0
 51
90.0
  0
ARC
  5
146
  8
1
 62
     7
 10
57.150723777998351
 20
8.8885600649684946
 30
0.0
 40
0.9599999999999938
 50
180.0
 51
270.0
  0
ARC
  5
147
  8
1
 62
     7
 10
63.230723777998342
 20
8.8885600649684946
 30
0.0
 40
0.9600000000000009
 50
270.0
 51
0.0
  0
ARC
  5
148
  8
1
 62
     7
 10
57.150723777998351
 20
14.968560064968489
 30
0.0
 40
0.9600000000000116
 50
90.0
 51
180.0
  0
ARC
  5
149
  8
1
 62
     7
 10
55.230723777998342
 20
14.968560064968489
 30
0.0
 40
0.9600000000000009
 50
0.0
 51
90.0
  0
ARC
  5
14A
  8
1
 62
     7
 10
49.150723777998337
 20
8.8885600649684946
 30
0.0
 40
0.9599999999999938
 50
180.0
 51
270.0
  0
ARC
  5
14B
  8
1
 62
     7
 10
55.230723777998342
 20
8.8885600649684946
 30
0.0
 40
0.9600000000000009
 50
270.0
 51
0.0
  0
ARC
  5
14C
  8
1
 62
     7
 10
49.150723777998337
 20
14.968560064968489
 30
0.0
 40
0.9600000000000116
 50
90.0
 51
180.0
  0
ARC
  5
14D
  8
1
 62
     7
 10
79.46169945224905
 20
11.1285600649685
 30
0.0
 40
1.30000000000001
 50
90.0
 51
163.3984504009795
  0
ARC
  5
14E
  8
1
 62
     7
 10
79.46169945224905
 20
6.7285600649684909
 30
0.0
 40
1.2999999999999321
 50
196.60154959902059
 51
270.0
  0
ARC
  5
14F
  8
1
 62
     7
 10
80.140723777998346
 20
12.1285600649685
 30
0.0
 40
0.3000000000000114
 50
0.0
 51
90.0
  0
ARC
  5
150
  8
1
 62
     7
 10
80.140723777998346
 20
5.7285600649684909
 30
0.0
 40
0.299999999999983
 50
270.0
 51
0.0
  0
ARC
  5
151
  8
1
 62
     7
 10
-130.28459701075289
 20
64.928560064968494
 30
0.0
 40
1.0
 50
0.0
 51
90.0
  0
ARC
  5
152
  8
1
 62
     7
 10
-138.28459701075289
 20
64.928560064968494
 30
0.0
 40
1.0
 50
90.0
 51
180.0
  0
ARC
  5
153
  8
1
 62
     7
 10
-127.2845970107528
 20
45.448959735446941
 30
0.0
 40
1.9999999999999849
 50
180.0
 51
254.0671961847134
  0
ARC
  5
154
  8
1
 62
     7
 10
-141.28459701075289
 20
45.448959735446941
 30
0.0
 40
1.9999999999999849
 50
285.93280381528649
 51
0.0
  0
ARC
  5
155
  8
1
  6
DASHDOT
 62
     3
 10
169.45445540485429
 20
20.92856006496849
 30
0.0
 40
18.999999999999979
 50
201.3803407796276
 51
218.61965922037211
  0
ARC
  5
156
  8
1
  6
DASHDOT
 62
     3
 10
169.45445540485429
 20
20.92856006496849
 30
0.0
 40
18.999999999999979
 50
81.380340779627531
 51
98.619659220372057
  0
ARC
  5
157
  8
1
  6
DASHDOT
 62
     3
 10
169.45445540485429
 20
20.92856006496849
 30
0.0
 40
18.999999999999961
 50
321.3803407796276
 51
338.61965922037228
  0
ARC
  5
158
  8
1
 62
     7
 10
60.190723777998343
 20
29.928560064968501
 30
0.0
 40
2.3999999999999999
 50
239.99999999999989
 51
300.00000000000011
  0
ARC
  5
159
  8
1
 62
     7
 10
60.190723777998343
 20
29.928560064968501
 30
0.0
 40
2.400000000000003
 50
119.9999999999999
 51
239.99999999999989
  0
ARC
  5
15A
  8
1
 62
     7
 10
60.190723777998343
 20
29.928560064968501
 30
0.0
 40
2.400000000000003
 50
300.00000000000011
 51
59.999999999999829
  0
ARC
  5
15B
  8
1
 62
     7
 10
60.190723777998343
 20
29.928560064968501
 30
0.0
 40
2.4000000000000079
 50
59.999999999999829
 51
119.9999999999999
  0
ARC
  5
15C
  8
1
 62
     7
 10
52.190723777998343
 20
29.928560064968501
 30
0.0
 40
2.3999999999999999
 50
239.99999999999989
 51
300.00000000000011
  0
ARC
  5
15D
  8
1
 62
     7
 10
52.190723777998343
 20
29.928560064968501
 30
0.0
 40
2.400000000000003
 50
119.9999999999999
 51
239.99999999999989
  0
ARC
  5
15E
  8
1
 62
     7
 10
52.190723777998343
 20
29.928560064968501
 30
0.0
 40
2.400000000000003
 50
300.00000000000011
 51
59.999999999999829
  0
ARC
  5
15F
  8
1
 62
     7
 10
52.190723777998343
 20
29.928560064968501
 30
0.0
 40
2.4000000000000079
 50
59.999999999999829
 51
119.9999999999999
  0
ARC
  5
160
  8
1
 62
     7
 10
169.45445540485429
 20
56.278560064968481
 30
0.0
 40
2.0999999999998802
 50
180.0
 51
270.0
  0
ARC
  5
161
  8
1
 62
     7
 10
169.45445540485429
 20
61.578560064968492
 30
0.0
 40
2.100000000000108
 50
0.0
 51
90.0
  0
ARC
  5
162
  8
1
 62
     7
 10
169.45445540485429
 20
56.278560064968481
 30
0.0
 40
2.0999999999998802
 50
270.0
 51
0.0
  0
ARC
  5
163
  8
1
 62
     7
 10
169.45445540485429
 20
61.578560064968492
 30
0.0
 40
2.100000000000108
 50
90.0
 51
180.0
  0
ARC
  5
164
  8
1
 62
     7
 10
188.85342444962561
 20
9.7285600649684838
 30
0.0
 40
2.0000000000000071
 50
225.94476717977309
 51
60.000000000000099
  0
ARC
  5
165
  8
1
 62
     7
 10
188.85342444962561
 20
9.7285600649684838
 30
0.0
 40
2.0000000000000062
 50
60.000000000000099
 51
74.05523282022385
  0
ARC
  5
166
  8
1
 62
     7
 10
169.45445540485429
 20
43.328560064968492
 30
0.0
 40
2.0000000000000111
 50
345.94476717977432
 51
180.0
  0
ARC
  5
167
  8
1
 62
     7
 10
169.45445540485429
 20
43.328560064968492
 30
0.0
 40
2.0
 50
180.0
 51
194.0552328202258
  0
ARC
  5
168
  8
1
 62
     7
 10
150.05548636008291
 20
9.728560064968498
 30
0.0
 40
2.0000000000000351
 50
105.94476717977599
 51
299.99999999999937
  0
ARC
  5
169
  8
1
 62
     7
 10
150.05548636008291
 20
9.728560064968498
 30
0.0
 40
2.0000000000000342
 50
299.99999999999937
 51
314.05523282022722
  0
ARC
  5
16A
  8
1
 62
     7
 10
60.190723777998343
 20
11.92856006496848
 30
0.0
 40
2.4000000000000101
 50
59.999999999999858
 51
119.9999999999999
  0
ARC
  5
16B
  8
1
 62
     7
 10
60.190723777998343
 20
11.92856006496848
 30
0.0
 40
2.400000000000007
 50
119.9999999999999
 51
239.99999999999989
  0
ARC
  5
16C
  8
1
 62
     7
 10
60.190723777998343
 20
11.92856006496848
 30
0.0
 40
2.400000000000003
 50
300.00000000000011
 51
59.999999999999858
  0
ARC
  5
16D
  8
1
 62
     7
 10
60.190723777998343
 20
11.92856006496848
 30
0.0
 40
2.3999999999999999
 50
239.99999999999989
 51
300.00000000000011
  0
ARC
  5
16E
  8
1
 62
     7
 10
52.190723777998343
 20
11.92856006496848
 30
0.0
 40
2.4000000000000101
 50
59.999999999999858
 51
119.9999999999999
  0
ARC
  5
16F
  8
1
 62
     7
 10
52.190723777998343
 20
11.92856006496848
 30
0.0
 40
2.400000000000007
 50
119.9999999999999
 51
239.99999999999989
  0
ARC
  5
170
  8
1
 62
     7
 10
52.190723777998343
 20
11.92856006496848
 30
0.0
 40
2.400000000000003
 50
300.00000000000011
 51
59.999999999999858
  0
ARC
  5
171
  8
1
 62
     7
 10
52.190723777998343
 20
11.92856006496848
 30
0.0
 40
2.3999999999999999
 50
239.99999999999989
 51
300.00000000000011
  0
ARC
  5
172
  8
1
 62
     7
 10
86.840723777998392
 20
8.9285600649685062
 30
0.0
 40
9.0000000000000533
 50
163.3984504009799
 51
196.6015495990203
  0
ARC
  5
173
  8
1
 62
     7
 10
-134.28459701075289
 20
20.92856006496849
 30
0.0
 40
25.500000000000011
 50
101.3077294341373
 51
78.692270565862657
  0
ARC
  5
174
  8
1
 62
     7
 10
-134.28459701075289
 20
20.92856006496849
 30
0.0
 40
25.000000000000011
 50
101.53734035706471
 51
0.0
  0
ARC
  5
175
  8
1
 62
     7
 10
-134.28459701075289
 20
20.92856006496849
 30
0.0
 40
24.999999999999989
 50
0.0
 51
78.462659642935364
  0
ARC
  5
176
  8
1
 62
     7
 10
-134.28459701075289
 20
61.578560064968492
 30
0.0
 40
2.0999999999999859
 50
90.0
 51
180.0
  0
ARC
  5
177
  8
1
 62
     7
 10
-134.28459701075289
 20
56.278560064968481
 30
0.0
 40
2.1000000000000152
 50
270.0
 51
0.0
  0
ARC
  5
178
  8
1
 62
     7
 10
-134.28459701075289
 20
20.92856006496849
 30
0.0
 40
23.499999999999989
 50
0.0
 51
74.067196184712273
  0
ARC
  5
179
  8
1
 62
     7
 10
-134.28459701075289
 20
20.92856006496849
 30
0.0
 40
23.5
 50
105.9328038152878
 51
0.0
  0
ARC
  5
17A
  8
1
 62
     7
 10
-134.28459701075289
 20
61.578560064968492
 30
0.0
 40
2.099999999999993
 50
0.0
 51
90.0
  0
ARC
  5
17B
  8
1
 62
     7
 10
-134.28459701075289
 20
56.278560064968481
 30
0.0
 40
2.1000000000000232
 50
180.0
 51
270.0
  0
CIRCLE
  5
17C
  8
1
 62
     7
 10
152.99997273295
 20
11.42856006496851
 30
0.0
 40
1.600000000000108
  0
CIRCLE
  5
17D
  8
1
 62
     3
 10
152.99997273295
 20
11.42856006496851
 30
0.0
 40
2.0
  0
CIRCLE
  5
17E
  8
1
 62
     7
 10
169.45445540485429
 20
39.928560064968501
 30
0.0
 40
1.600000000000023
  0
CIRCLE
  5
17F
  8
1
 62
     3
 10
169.45445540485429
 20
39.928560064968501
 30
0.0
 40
2.0
  0
CIRCLE
  5
180
  8
1
 62
     7
 10
169.45445540485429
 20
20.92856006496849
 30
0.0
 40
25.650000000000009
  0
CIRCLE
  5
181
  8
1
 62
     7
 10
169.45445540485429
 20
20.92856006496849
 30
0.0
 40
25.0
  0
CIRCLE
  5
182
  8
1
 62
     7
 10
169.45445540485429
 20
20.92856006496849
 30
0.0
 40
8.5
  0
CIRCLE
  5
183
  8
1
 62
     7
 10
169.45445540485429
 20
20.92856006496849
 30
0.0
 40
22.0
  0
CIRCLE
  5
184
  8
1
 62
     7
 10
169.45445540485429
 20
20.92856006496849
 30
0.0
 40
13.0
  0
CIRCLE
  5
185
  8
1
 62
     7
 10
169.45445540485429
 20
20.92856006496849
 30
0.0
 40
9.5
  0
CIRCLE
  5
186
  8
1
 62
     7
 10
185.90893807675849
 20
11.42856006496849
 30
0.0
 40
1.5999999999999941
  0
CIRCLE
  5
187
  8
1
 62
     3
 10
185.90893807675849
 20
11.42856006496849
 30
0.0
 40
2.0
  0
CIRCLE
  5
188
  8
1
 62
     7
 10
169.45445540485429
 20
20.92856006496849
 30
0.0
 40
5.0
  0
CIRCLE
  5
189
  8
1
 62
     7
 10
-134.28459701075289
 20
20.92856006496849
 30
0.0
 40
5.0
  0
CIRCLE
  5
18A
  8
1
 62
     7
 10
-134.28459701075289
 20
20.92856006496849
 30
0.0
 40
11.499999999999989
  0
TEXT
  5
18C
  8
1
 62
     7
 10
-142.11124777447139
 20
101.2843727888522
 30
0.0
 40
4.5
  1
AMC 20
 41
0.9
  7
SIMPLEX
  0
ENDSEC
  0
EOF
