  0
SECTION
  2
HEADER
  9
$ACADVER
  1
AC1009
  9
$INSBASE
 10
0.0
 20
0.0
 30
0.0
  9
$EXTMIN
 10
-157.9626240774125
 20
86.228131005320876
 30
0.0
  9
$EXTMAX
 10
128.4049205963413
 20
173.38397524622201
 30
0.0
  9
$LIMMIN
 10
-156.07882863230739
 20
87.859862820186905
  9
$LIMMAX
 10
124.836800358913
 20
173.38397524622201
  9
$ORTHOMODE
 70
     0
  9
$REGENMODE
 70
     1
  9
$FILLMODE
 70
     1
  9
$QTEXTMODE
 70
     0
  9
$MIRRTEXT
 70
     1
  9
$DRAGMODE
 70
     2
  9
$LTSCALE
 40
1.0
  9
$OSMODE
 70
    37
  9
$ATTMODE
 70
     1
  9
$TEXTSIZE
 40
3.5
  9
$TRACEWID
 40
0.5
  9
$TEXTSTYLE
  7
STANDARD
  9
$CLAYER
  8
0
  9
$CELTYPE
  6
BYLAYER
  9
$CECOLOR
 62
   256
  9
$DIMSCALE
 40
1.0
  9
$DIMASZ
 40
0.18
  9
$DIMEXO
 40
0.0625
  9
$DIMDLI
 40
0.38
  9
$DIMRND
 40
0.0
  9
$DIMDLE
 40
0.0
  9
$DIMEXE
 40
0.18
  9
$DIMTP
 40
0.0
  9
$DIMTM
 40
0.0
  9
$DIMTXT
 40
0.18
  9
$DIMCEN
 40
0.09
  9
$DIMTSZ
 40
0.0
  9
$DIMTOL
 70
     0
  9
$DIMLIM
 70
     0
  9
$DIMTIH
 70
     1
  9
$DIMTOH
 70
     1
  9
$DIMSE1
 70
     0
  9
$DIMSE2
 70
     0
  9
$DIMTAD
 70
     0
  9
$DIMZIN
 70
     0
  9
$DIMBLK
  1

  9
$DIMASO
 70
     1
  9
$DIMSHO
 70
     1
  9
$DIMPOST
  1

  9
$DIMAPOST
  1

  9
$DIMALT
 70
     0
  9
$DIMALTD
 70
     2
  9
$DIMALTF
 40
25.399999999999999
  9
$DIMLFAC
 40
1.0
  9
$DIMTOFL
 70
     0
  9
$DIMTVP
 40
0.0
  9
$DIMTIX
 70
     0
  9
$DIMSOXD
 70
     0
  9
$DIMSAH
 70
     0
  9
$DIMBLK1
  1

  9
$DIMBLK2
  1

  9
$DIMSTYLE
  2
STANDARD
  9
$DIMCLRD
 70
     0
  9
$DIMCLRE
 70
     0
  9
$DIMCLRT
 70
     0
  9
$DIMTFAC
 40
1.0
  9
$DIMGAP
 40
0.09
  9
$LUNITS
 70
     2
  9
$LUPREC
 70
     4
  9
$SKETCHINC
 40
0.1
  9
$FILLETRAD
 40
2.0
  9
$AUNITS
 70
     0
  9
$AUPREC
 70
     0
  9
$MENU
  1
ACAD
  9
$ELEVATION
 40
0.0
  9
$PELEVATION
 40
0.0
  9
$THICKNESS
 40
0.0
  9
$LIMCHECK
 70
     0
  9
$BLIPMODE
 70
     0
  9
$CHAMFERA
 40
0.0
  9
$CHAMFERB
 40
0.0
  9
$SKPOLY
 70
     0
  9
$TDCREATE
 40
2452093.8785084491
  9
$TDUPDATE
 40
2452093.8796692132
  9
$TDINDWG
 40
0.001178588
  9
$TDUSRTIMER
 40
0.001178588
  9
$USRTIMER
 70
     1
  9
$ANGBASE
 50
0.0
  9
$ANGDIR
 70
     0
  9
$PDMODE
 70
     0
  9
$PDSIZE
 40
0.0
  9
$PLINEWID
 40
0.0
  9
$COORDS
 70
     1
  9
$SPLFRAME
 70
     0
  9
$SPLINETYPE
 70
     6
  9
$SPLINESEGS
 70
     8
  9
$ATTDIA
 70
     0
  9
$ATTREQ
 70
     1
  9
$HANDLING
 70
 10241
  9
$HANDSEED
  5
1AA
  9
$SURFTAB1
 70
     6
  9
$SURFTAB2
 70
     6
  9
$SURFTYPE
 70
     6
  9
$SURFU
 70
     6
  9
$SURFV
 70
     6
  9
$UCSNAME
  2

  9
$UCSORG
 10
0.0
 20
0.0
 30
0.0
  9
$UCSXDIR
 10
1.0
 20
0.0
 30
0.0
  9
$UCSYDIR
 10
0.0
 20
1.0
 30
0.0
  9
$PUCSNAME
  2

  9
$PUCSORG
 10
0.0
 20
0.0
 30
0.0
  9
$PUCSXDIR
 10
1.0
 20
0.0
 30
0.0
  9
$PUCSYDIR
 10
0.0
 20
1.0
 30
0.0
  9
$USERI1
 70
     0
  9
$USERI2
 70
     0
  9
$USERI3
 70
     0
  9
$USERI4
 70
     0
  9
$USERI5
 70
     0
  9
$USERR1
 40
0.0
  9
$USERR2
 40
0.0
  9
$USERR3
 40
0.0
  9
$USERR4
 40
0.0
  9
$USERR5
 40
0.0
  9
$WORLDVIEW
 70
     1
  9
$SHADEDGE
 70
     3
  9
$SHADEDIF
 70
    70
  9
$TILEMODE
 70
     1
  9
$MAXACTVP
 70
    64
  9
$PLIMCHECK
 70
     0
  9
$PEXTMIN
 10
1.0000000000000000E+020
 20
1.0000000000000000E+020
 30
1.0000000000000000E+020
  9
$PEXTMAX
 10
-1.0000000000000000E+020
 20
-1.0000000000000000E+020
 30
-1.0000000000000000E+020
  9
$PLIMMIN
 10
0.0
 20
0.0
  9
$PLIMMAX
 10
12.0
 20
9.0
  9
$UNITMODE
 70
     0
  9
$VISRETAIN
 70
     1
  9
$PLINEGEN
 70
     0
  9
$PSLTSCALE
 70
     1
  0
ENDSEC
  0
SECTION
  2
TABLES
  0
TABLE
  2
VPORT
 70
     2
  0
VPORT
  2
*ACTIVE
 70
     0
 10
0.0
 20
0.0
 11
1.0
 21
1.0
 12
-138.41559801206421
 22
167.21614230439349
 13
0.0
 23
0.0
 14
1.0
 24
1.0
 15
0.0
 25
0.0
 16
0.0
 26
0.0
 36
1.0
 17
0.0
 27
0.0
 37
0.0
 40
8.9999999582869918
 41
2.5693779904306222
 42
50.0
 43
0.0
 44
0.0
 50
0.0
 51
0.0
 71
     0
 72
   100
 73
     1
 74
     1
 75
     0
 76
     0
 77
     0
 78
     0
  0
ENDTAB
  0
TABLE
  2
LTYPE
 70
     9
  0
LTYPE
  2
CONTINUOUS
 70
     0
  3
Solid line
 72
    65
 73
     0
 40
0.0
  0
LTYPE
  2
BORDER
 70
     0
  3
__ __ . __ __ .
 72
    65
 73
     6
 40
12.936903966700941
 49
3.69625827620027
 49
-1.848129138100135
 49
3.69625827620027
 49
-1.848129138100135
 49
0.0
 49
-1.848129138100135
  0
LTYPE
  2
CENTER
 70
     0
  3
____ _ ____ _
 72
    65
 73
     4
 40
14.78503310480108
 49
9.2406456905006742
 49
-1.848129138100135
 49
1.848129138100135
 49
-1.848129138100135
  0
LTYPE
  2
DASHDOT
 70
     0
  3
__ . __ . __ .
 72
    65
 73
     4
 40
7.3925165524005392
 49
3.69625827620027
 49
-1.848129138100135
 49
0.0
 49
-1.848129138100135
  0
LTYPE
  2
DASHED
 70
     0
  3
__ __ __ __ __
 72
    65
 73
     2
 40
5.5443874143004033
 49
3.69625827620027
 49
-1.848129138100135
  0
LTYPE
  2
DIVIDE
 70
     0
  3
__ . . __ . . 
 72
    65
 73
     6
 40
9.2406456905006742
 49
3.69625827620027
 49
-1.848129138100135
 49
0.0
 49
-1.848129138100135
 49
0.0
 49
-1.848129138100135
  0
LTYPE
  2
DOT
 70
     0
  3
..............
 72
    65
 73
     4
 40
3.69625827620027
 49
0.0
 49
-1.848129138100135
 49
0.0
 49
-1.848129138100135
  0
LTYPE
  2
HIDDEN
 70
     0
  3
_ _ _ _ _ _ _
 72
    65
 73
     2
 40
2.7721937071502012
 49
1.848129138100135
 49
-0.9240645690500674
  0
LTYPE
  2
PHANTOM
 70
     0
  3
_____ _ _ _____ _ _ 
 72
    65
 73
     6
 40
18.481291381001348
 49
9.2406456905006742
 49
-1.848129138100135
 49
1.848129138100135
 49
-1.848129138100135
 49
1.848129138100135
 49
-1.848129138100135
  0
ENDTAB
  0
TABLE
  2
LAYER
 70
     2
  0
LAYER
  2
0
 70
     0
 62
     7
  6
CONTINUOUS
  0
LAYER
  2
1
 70
     0
 62
     7
  6
CONTINUOUS
  0
ENDTAB
  0
TABLE
  2
STYLE
 70
     4
  0
STYLE
  2
STANDARD
 70
     0
 40
0.0
 41
1.0
 50
0.0
 71
     0
 42
3.5
  3
txt
  4

  0
STYLE
  2
SIMPLEX
 70
     0
 40
0.0
 41
1.0
 50
0.0
 71
     0
 42
3.5
  3
simplex
  4

  0
STYLE
  2
COMPLEX
 70
     0
 40
0.0
 41
1.0
 50
0.0
 71
     0
 42
3.5
  3
complex
  4

  0
STYLE
  2
ITALIC
 70
     0
 40
0.0
 41
1.0
 50
0.0
 71
     0
 42
3.5
  3
italic
  4

  0
ENDTAB
  0
TABLE
  2
VIEW
 70
     0
  0
ENDTAB
  0
TABLE
  2
UCS
 70
     0
  0
ENDTAB
  0
TABLE
  2
APPID
 70
     1
  0
APPID
  2
ACAD
 70
     0
  0
ENDTAB
  0
TABLE
  2
DIMSTYLE
 70
     1
  0
DIMSTYLE
  2
STANDARD
 70
     0
  3

  4

  5

  6

  7

 40
1.0
 41
0.18
 42
0.0625
 43
0.38
 44
0.18
 45
0.0
 46
0.0
 47
0.0
 48
0.0
140
0.18
141
0.09
142
0.0
143
25.399999999999999
144
1.0
145
0.0
146
1.0
147
0.09
 71
     0
 72
     0
 73
     1
 74
     1
 75
     0
 76
     0
 77
     0
 78
     0
170
     0
171
     2
172
     0
173
     0
174
     0
175
     0
176
     0
177
     0
178
     0
  0
ENDTAB
  0
ENDSEC
  0
SECTION
  2
BLOCKS
  0
BLOCK
  8
0
  2
$MODEL_SPACE
 70
     0
 10
0.0
 20
0.0
 30
0.0
  3
$MODEL_SPACE
  1

  0
ENDBLK
  5
20
  8
0
  0
BLOCK
 67
     1
  8
0
  2
$PAPER_SPACE
 70
     0
 10
0.0
 20
0.0
 30
0.0
  3
$PAPER_SPACE
  1

  0
ENDBLK
  5
1C
 67
     1
  8
0
  0
ENDSEC
  0
SECTION
  2
ENTITIES
  0
POINT
  5
33
  8
1
  6
DOT
 62
     7
 10
115.8609821402772
 20
95.16323543574785
 30
0.0
  0
POINT
  5
34
  8
1
  6
DOT
 62
     7
 10
98.513421810241937
 20
115.8549815360921
 30
0.0
  0
POINT
  5
35
  8
1
  6
DOT
 62
     7
 10
109.730307160246
 20
116.21167649815681
 30
0.0
  0
POINT
  5
36
  8
1
  6
DOT
 62
     7
 10
104.6432935575797
 20
94.80752129903729
 30
0.0
  0
POINT
  5
37
  8
1
  6
DOT
 62
     7
 10
104.1767578590474
 20
94.929261666522137
 30
0.0
  0
POINT
  5
38
  8
1
  6
DOT
 62
     7
 10
115.44840174433401
 20
90.652341406832576
 30
0.0
  0
POINT
  5
39
  8
1
  6
DOT
 62
     7
 10
98.925198973489003
 20
120.3673842335414
 30
0.0
  0
POINT
  5
3A
  8
1
  6
DOT
 62
     7
 10
113.3552608998074
 20
89.668458382594864
 30
0.0
  0
POINT
  5
3B
  8
1
  6
DOT
 62
     7
 10
101.01833981801551
 20
121.351267257779
 30
0.0
  0
LINE
  5
3C
  8
1
 62
     7
 10
20.116840118285332
 20
98.509862820186996
 30
0.0
 11
20.116840118285332
 21
101.009862820187
 31
0.0
  0
LINE
  5
3D
  8
1
 62
     3
 10
116.31715111876601
 20
143.1394027876276
 30
0.0
 11
115.55083835849631
 21
140.27948463181249
 31
0.0
  0
LINE
  5
3E
  8
1
 62
     3
 10
115.1741272862435
 20
140.3804240594024
 30
0.0
 11
115.9404400465134
 21
143.24034221521759
 31
0.0
  0
LINE
  5
3F
  8
1
 62
     3
 10
116.69386219101889
 20
143.0384633600375
 30
0.0
 11
115.9275494307489
 21
140.17854520422259
 31
0.0
  0
LINE
  5
40
  8
1
 62
     7
 10
118.216793639054
 20
139.56514406732941
 30
0.0
 11
114.6621865983104
 21
140.51759815330669
 31
0.0
  0
LINE
  5
41
  8
1
 62
     3
 10
118.09445463913789
 20
142.66317574463901
 30
0.0
 11
117.3281418788681
 21
139.8032575888237
 31
0.0
  0
LINE
  5
42
  8
1
 62
     3
 10
116.95143080661541
 20
139.9041970164138
 30
0.0
 11
117.7177435668852
 21
142.76411517222891
 31
0.0
  0
LINE
  5
43
  8
1
 62
     3
 10
118.4711657113907
 20
142.56223631704901
 30
0.0
 11
117.7048529511209
 21
139.70231816123371
 31
0.0
  0
LINE
  5
44
  8
1
 62
     3
 10
-146.94286663189081
 20
140.27948463181249
 30
0.0
 11
-147.70917939216051
 21
143.1394027876276
 31
0.0
  0
LINE
  5
45
  8
1
 62
     3
 10
-147.33246831990789
 20
143.24034221521759
 30
0.0
 11
-146.5661555596381
 21
140.3804240594024
 31
0.0
  0
LINE
  5
46
  8
1
 62
     3
 10
-147.31957770414351
 20
140.17854520422259
 30
0.0
 11
-148.08589046441341
 21
143.03846336003761
 31
0.0
  0
LINE
  5
47
  8
1
 62
     7
 10
-146.05421487170489
 20
140.51759815330669
 30
0.0
 11
-149.6088219124486
 21
139.56514406732941
 31
0.0
  0
LINE
  5
48
  8
1
 62
     3
 10
-148.7201701522628
 20
139.8032575888237
 30
0.0
 11
-149.48648291253261
 21
142.66317574463901
 31
0.0
  0
LINE
  5
49
  8
1
 62
     3
 10
-149.10977184027979
 20
142.764115172229
 30
0.0
 11
-148.34345908001001
 21
139.9041970164138
 31
0.0
  0
LINE
  5
4A
  8
1
 62
     3
 10
-149.0968812245155
 20
139.70231816123371
 30
0.0
 11
-149.86319398478531
 21
142.56223631704901
 31
0.0
  0
LINE
  5
4B
  8
1
 62
     3
 10
-63.50886839167989
 20
140.0406174302141
 30
0.0
 11
-63.50886839167989
 21
143.001422574852
 31
0.0
  0
LINE
  5
4C
  8
1
 62
     3
 10
-63.118868391679889
 20
143.001422574852
 30
0.0
 11
-63.118868391679889
 21
140.0406174302141
 31
0.0
  0
LINE
  5
4D
  8
1
 62
     3
 10
-63.898868391679891
 20
140.0406174302141
 30
0.0
 11
-63.898868391679891
 21
143.001422574852
 31
0.0
  0
LINE
  5
4E
  8
1
 62
     7
 10
-64.428868391679885
 20
140.0406174302141
 30
0.0
 11
-62.588868391679881
 21
140.0406174302141
 31
0.0
  0
LINE
  5
4F
  8
1
 62
     3
 10
14.616840118285319
 20
140.0406174302141
 30
0.0
 11
14.616840118285319
 21
143.001422574852
 31
0.0
  0
LINE
  5
50
  8
1
 62
     7
 10
26.616840118285321
 20
89.209862820186999
 30
0.0
 11
24.616840118285321
 21
89.209862820186999
 31
0.0
  0
LINE
  5
51
  8
1
 62
     7
 10
24.616840118285321
 20
89.209862820186999
 30
0.0
 11
24.616840118285321
 21
98.509862820186996
 31
0.0
  0
LINE
  5
52
  8
1
 62
     7
 10
24.616840118285321
 20
98.509862820186996
 30
0.0
 11
20.116840118285332
 21
98.509862820186996
 31
0.0
  0
LINE
  5
53
  8
1
 62
     7
 10
39.616840118285317
 20
98.009862820186996
 30
0.0
 11
39.616840118285317
 21
92.259862820186996
 31
0.0
  0
LINE
  5
54
  8
1
 62
     7
 10
39.616840118285317
 20
113.0098628201869
 30
0.0
 11
39.616840118285317
 21
98.009862820186996
 31
0.0
  0
LINE
  5
55
  8
1
 62
     7
 10
37.616840118285317
 20
108.5098628201869
 30
0.0
 11
37.616840118285317
 21
102.5098628201869
 31
0.0
  0
LINE
  5
56
  8
1
 62
     7
 10
37.616840118285317
 20
102.5098628201869
 30
0.0
 11
37.616840118285317
 21
98.009862820186996
 31
0.0
  0
LINE
  5
57
  8
1
 62
     7
 10
18.616840118285321
 20
102.5098628201869
 30
0.0
 11
18.616840118285321
 21
99.209862820186999
 31
0.0
  0
LINE
  5
58
  8
1
 62
     7
 10
18.616840118285321
 20
108.5098628201869
 30
0.0
 11
18.616840118285321
 21
102.5098628201869
 31
0.0
  0
LINE
  5
59
  8
1
 62
     7
 10
13.61684011828533
 20
101.9698628201869
 30
0.0
 11
13.61684011828533
 21
98.549862820187002
 31
0.0
  0
LINE
  5
5A
  8
1
 62
     7
 10
13.61684011828533
 20
109.049862820187
 30
0.0
 11
13.61684011828533
 21
101.9698628201869
 31
0.0
  0
LINE
  5
5B
  8
1
 62
     7
 10
8.6168401182853263
 20
101.9698628201869
 30
0.0
 11
8.6168401182853316
 21
89.00986282018701
 31
0.0
  0
LINE
  5
5C
  8
1
 62
     7
 10
8.6168401182853263
 20
109.049862820187
 30
0.0
 11
8.6168401182853263
 21
101.9698628201869
 31
0.0
  0
LINE
  5
5D
  8
1
 62
     7
 10
7.1168401182853174
 20
99.509862820186996
 30
0.0
 11
7.1168401182853174
 21
89.509862820187024
 31
0.0
  0
LINE
  5
5E
  8
1
 62
     7
 10
35.336455360555988
 20
98.459862820187055
 30
0.0
 11
35.336455360555988
 21
96.059862820187035
 31
0.0
  0
LINE
  5
5F
  8
1
 62
     7
 10
31.377719976660831
 20
94.509862820186996
 30
0.0
 11
31.81684011828531
 21
94.509862820186996
 31
0.0
  0
LINE
  5
60
  8
1
 62
     7
 10
31.377719976660831
 20
100.009862820187
 30
0.0
 11
31.81684011828531
 21
100.009862820187
 31
0.0
  0
LINE
  5
61
  8
1
 62
     7
 10
36.709660441312899
 20
97.259862820186996
 30
0.0
 11
36.016840118285359
 21
96.059862820187035
 31
0.0
  0
LINE
  5
62
  8
1
 62
     7
 10
36.016840118285359
 20
98.459862820187055
 30
0.0
 11
36.709660441312899
 21
97.259862820186996
 31
0.0
  0
LINE
  5
63
  8
1
 62
     7
 10
34.816840118285299
 20
96.059862820187035
 30
0.0
 11
32.116840118285317
 21
96.059862820187035
 31
0.0
  0
LINE
  5
64
  8
1
 62
     7
 10
34.816840118285299
 20
96.059862820187035
 30
0.0
 11
34.816840118285299
 21
95.759862820186996
 31
0.0
  0
LINE
  5
65
  8
1
 62
     7
 10
36.016840118285359
 20
96.059862820187035
 30
0.0
 11
34.816840118285299
 21
96.059862820187035
 31
0.0
  0
LINE
  5
66
  8
1
 62
     7
 10
36.016840118285359
 20
98.459862820187055
 30
0.0
 11
36.016840118285359
 21
96.059862820187035
 31
0.0
  0
LINE
  5
67
  8
1
 62
     7
 10
34.816840118285299
 20
98.459862820187055
 30
0.0
 11
36.016840118285359
 21
98.459862820187055
 31
0.0
  0
LINE
  5
68
  8
1
 62
     7
 10
34.816840118285299
 20
98.459862820187055
 30
0.0
 11
34.816840118285299
 21
96.059862820187035
 31
0.0
  0
LINE
  5
69
  8
1
 62
     7
 10
32.116840118285317
 20
98.459862820187055
 30
0.0
 11
34.816840118285299
 21
98.459862820187055
 31
0.0
  0
LINE
  5
6A
  8
1
 62
     3
 10
34.816840118285299
 20
95.759862820186996
 30
0.0
 11
32.116840118285317
 21
95.759862820186996
 31
0.0
  0
LINE
  5
6B
  8
1
 62
     3
 10
35.336455360555988
 20
96.059862820187035
 30
0.0
 11
34.816840118285299
 21
95.759862820186996
 31
0.0
  0
LINE
  5
6C
  8
1
 62
     7
 10
34.816840118285299
 20
98.759862820186996
 30
0.0
 11
34.816840118285299
 21
98.459862820187055
 31
0.0
  0
LINE
  5
6D
  8
1
 62
     3
 10
34.816840118285299
 20
98.759862820186996
 30
0.0
 11
35.336455360555988
 21
98.459862820187055
 31
0.0
  0
LINE
  5
6E
  8
1
 62
     3
 10
32.116840118285317
 20
98.759862820186996
 30
0.0
 11
34.816840118285299
 21
98.759862820186996
 31
0.0
  0
LINE
  5
6F
  8
1
 62
     7
 10
29.666840118285339
 20
93.959862820186999
 30
0.0
 11
32.116840118285317
 21
93.959862820186999
 31
0.0
  0
LINE
  5
70
  8
1
 62
     7
 10
-145.72356124727881
 20
122.5151096828634
 30
0.0
 11
-145.47652055887039
 21
121.59314128218691
 31
0.0
  0
LINE
  5
71
  8
1
 62
     7
 10
-145.72356124727881
 20
122.5151096828634
 30
0.0
 11
-142.57882863230759
 21
123.35773824745669
 31
0.0
  0
LINE
  5
72
  8
1
 62
     7
 10
-146.05421487170489
 20
140.51759815330669
 30
0.0
 11
-142.57882863230739
 21
127.54728013194971
 31
0.0
  0
LINE
  5
73
  8
1
 62
     7
 10
-143.3087466815561
 20
123.16215729561971
 30
0.0
 11
-147.83151839207679
 21
140.04137111031821
 31
0.0
  0
LINE
  5
74
  8
1
 62
     7
 10
-149.6088219124486
 20
139.56514406732941
 30
0.0
 11
-145.086050201928
 21
122.6859302526311
 31
0.0
  0
LINE
  5
75
  8
1
 62
     7
 10
-142.57882863230759
 20
122.480425568664
 30
0.0
 11
-142.57882863230739
 21
139.50986282018701
 31
0.0
  0
LINE
  5
76
  8
1
 62
     7
 10
-134.57882863230739
 20
122.480425568664
 30
0.0
 11
-134.57882863230739
 21
139.50986282018701
 31
0.0
  0
LINE
  5
77
  8
1
  6
DASHDOT
 62
     3
 10
-137.24902741379549
 20
105.5098628201869
 30
0.0
 11
-139.90862985081941
 21
105.5098628201869
 31
0.0
  0
LINE
  5
78
  8
1
  6
DASHDOT
 62
     3
 10
-138.57882863230739
 20
106.839664038699
 30
0.0
 11
-138.57882863230739
 21
104.18006160167489
 31
0.0
  0
LINE
  5
79
  8
1
 62
     7
 10
-135.57882863230739
 20
140.5098628201869
 30
0.0
 11
-141.57882863230739
 21
140.5098628201869
 31
0.0
  0
LINE
  5
7A
  8
1
 62
     7
 10
-140.1788286323075
 20
131.859862820187
 30
0.0
 11
-140.1788286323075
 21
136.1598628201869
 31
0.0
  0
LINE
  5
7B
  8
1
 62
     7
 10
-136.9788286323074
 20
131.859862820187
 30
0.0
 11
-136.9788286323074
 21
136.1598628201869
 31
0.0
  0
LINE
  5
7C
  8
1
 62
     7
 10
-52.008868391679883
 20
121.80986282018689
 30
0.0
 11
-51.50886839167989
 21
121.80986282018689
 31
0.0
  0
LINE
  5
7D
  8
1
 62
     7
 10
-48.508868391679897
 20
110.5098628201869
 30
0.0
 11
-48.708868391679879
 21
110.5098628201869
 31
0.0
  0
LINE
  5
7E
  8
1
  6
DASHDOT
 62
     3
 10
7.1168401182853174
 20
105.5098628201869
 30
0.0
 11
4.1168401182853156
 21
105.5098628201869
 31
0.0
  0
LINE
  5
7F
  8
1
  6
DASHDOT
 62
     3
 10
39.616840118285317
 20
105.5098628201869
 30
0.0
 11
42.616840118285317
 21
105.5098628201869
 31
0.0
  0
LINE
  5
80
  8
1
 62
     7
 10
18.616840118285321
 20
102.5098628201869
 30
0.0
 11
37.616840118285317
 21
102.5098628201869
 31
0.0
  0
LINE
  5
81
  8
1
 62
     7
 10
7.1168401182853174
 20
89.509862820187024
 30
0.0
 11
8.6168401182853174
 21
89.509862820187024
 31
0.0
  0
LINE
  5
82
  8
1
 62
     7
 10
32.116840118285317
 20
87.85986282018699
 30
0.0
 11
29.616840118285321
 21
87.85986282018699
 31
0.0
  0
LINE
  5
83
  8
1
 62
     7
 10
32.116840118285317
 20
87.85986282018699
 30
0.0
 11
32.116840118285317
 21
100.5098628201869
 31
0.0
  0
LINE
  5
84
  8
1
 62
     7
 10
32.31684011828532
 20
88.509862820186996
 30
0.0
 11
32.116840118285317
 21
88.509862820186996
 31
0.0
  0
LINE
  5
85
  8
1
 62
     7
 10
32.31684011828532
 20
88.509862820186996
 30
0.0
 11
32.31684011828532
 21
95.759862820186996
 31
0.0
  0
LINE
  5
86
  8
1
 62
     7
 10
37.616840118285317
 20
98.009862820186996
 30
0.0
 11
39.616840118285317
 21
98.009862820186996
 31
0.0
  0
LINE
  5
87
  8
1
 62
     7
 10
37.616840118285317
 20
100.009862820187
 30
0.0
 11
32.31684011828532
 21
100.009862820187
 31
0.0
  0
LINE
  5
88
  8
1
 62
     7
 10
33.81684011828532
 20
92.259862820186996
 30
0.0
 11
39.616840118285317
 21
92.259862820186996
 31
0.0
  0
LINE
  5
89
  8
1
 62
     7
 10
32.31684011828532
 20
94.857939031540297
 30
0.0
 11
33.81684011828532
 21
92.259862820186996
 31
0.0
  0
LINE
  5
8A
  8
1
 62
     7
 10
32.31684011828532
 20
100.5098628201869
 30
0.0
 11
32.31684011828532
 21
98.759862820186996
 31
0.0
  0
LINE
  5
8B
  8
1
 62
     7
 10
29.616840118285321
 20
87.85986282018699
 30
0.0
 11
29.616840118285321
 21
100.5098628201869
 31
0.0
  0
LINE
  5
8C
  8
1
 62
     7
 10
29.416840118285322
 20
88.00986282018701
 30
0.0
 11
27.309660441312879
 21
88.00986282018701
 31
0.0
  0
LINE
  5
8D
  8
1
 62
     7
 10
27.309660441312879
 20
88.00986282018701
 30
0.0
 11
26.616840118285321
 21
89.209862820186999
 31
0.0
  0
LINE
  5
8E
  8
1
 62
     7
 10
20.116840118285332
 20
101.009862820187
 30
0.0
 11
18.616840118285321
 21
101.009862820187
 31
0.0
  0
LINE
  5
8F
  8
1
 62
     7
 10
28.416840118285322
 20
100.009862820187
 30
0.0
 11
28.416840118285322
 21
95.259862820186996
 31
0.0
  0
LINE
  5
90
  8
1
 62
     7
 10
28.916840118285322
 20
100.5098628201869
 30
0.0
 11
37.616840118285317
 21
100.5098628201869
 31
0.0
  0
LINE
  5
91
  8
1
 62
     7
 10
29.416840118285322
 20
94.259862820186996
 30
0.0
 11
28.416840118285322
 21
95.259862820186996
 31
0.0
  0
LINE
  5
92
  8
1
 62
     7
 10
29.416840118285322
 20
100.5098628201869
 30
0.0
 11
29.416840118285322
 21
88.00986282018701
 31
0.0
  0
LINE
  5
93
  8
1
 62
     7
 10
23.616840118285321
 20
98.009862820186996
 30
0.0
 11
19.616840118285321
 21
98.009862820186996
 31
0.0
  0
LINE
  5
94
  8
1
 62
     7
 10
19.616840118285321
 20
99.209862820186999
 30
0.0
 11
19.616840118285321
 21
97.659862820187016
 31
0.0
  0
LINE
  5
95
  8
1
 62
     7
 10
19.616840118285321
 20
97.659862820187016
 30
0.0
 11
18.466840118285319
 21
97.659862820187016
 31
0.0
  0
LINE
  5
96
  8
1
 62
     7
 10
23.616840118285321
 20
98.509862820186996
 30
0.0
 11
23.616840118285321
 21
88.709862820187013
 31
0.0
  0
LINE
  5
97
  8
1
 62
     7
 10
26.116840118285332
 20
88.709862820187013
 30
0.0
 11
23.616840118285321
 21
88.709862820187013
 31
0.0
  0
LINE
  5
98
  8
1
 62
     7
 10
26.116840118285332
 20
88.00986282018701
 30
0.0
 11
9.6168401182853316
 21
88.00986282018701
 31
0.0
  0
LINE
  5
99
  8
1
 62
     7
 10
9.6168401182853316
 20
88.00986282018701
 30
0.0
 11
8.6168401182853316
 21
89.00986282018701
 31
0.0
  0
LINE
  5
9A
  8
1
 62
     7
 10
9.4828655220697744
 20
98.009862820186996
 30
0.0
 11
8.6168401182853316
 21
96.509862820186996
 31
0.0
  0
LINE
  5
9B
  8
1
 62
     7
 10
26.116840118285332
 20
89.209862820186999
 30
0.0
 11
26.116840118285332
 21
88.00986282018701
 31
0.0
  0
LINE
  5
9C
  8
1
 62
     7
 10
8.6168401182853174
 20
99.509862820186996
 30
0.0
 11
7.1168401182853174
 21
99.509862820186996
 31
0.0
  0
LINE
  5
9D
  8
1
 62
     7
 10
13.07684011828532
 20
102.5098628201869
 30
0.0
 11
9.1568401182853254
 21
102.5098628201869
 31
0.0
  0
LINE
  5
9E
  8
1
 62
     7
 10
18.466840118285319
 20
98.009862820186996
 30
0.0
 11
9.1568401182853254
 21
98.009862820186996
 31
0.0
  0
LINE
  5
9F
  8
1
 62
     7
 10
15.441840118285331
 20
99.090728525078006
 30
0.0
 11
11.79184011828532
 21
99.090728525078006
 31
0.0
  0
LINE
  5
A0
  8
1
 62
     7
 10
8.6168401182853263
 20
99.090728525078006
 30
0.0
 11
10.441840118285331
 21
99.090728525078006
 31
0.0
  0
LINE
  5
A1
  8
1
 62
     7
 10
8.6168401182853263
 20
101.428997115296
 30
0.0
 11
10.441840118285331
 21
101.428997115296
 31
0.0
  0
LINE
  5
A2
  8
1
 62
     7
 10
15.441840118285331
 20
101.428997115296
 30
0.0
 11
11.79184011828532
 21
101.428997115296
 31
0.0
  0
LINE
  5
A3
  8
1
 62
     7
 10
18.076840118285329
 20
102.5098628201869
 30
0.0
 11
14.15684011828532
 21
102.5098628201869
 31
0.0
  0
LINE
  5
A4
  8
1
 62
     7
 10
18.616840118285321
 20
99.090728525078006
 30
0.0
 11
16.791840118285329
 21
99.090728525078006
 31
0.0
  0
LINE
  5
A5
  8
1
 62
     7
 10
18.616840118285321
 20
101.428997115296
 30
0.0
 11
16.791840118285329
 21
101.428997115296
 31
0.0
  0
LINE
  5
A6
  8
1
 62
     7
 10
18.466840118285319
 20
98.178005474625564
 30
0.0
 11
18.466840118285319
 21
97.659862820187016
 31
0.0
  0
LINE
  5
A7
  8
1
 62
     7
 10
19.616840118285321
 20
99.209862820186999
 30
0.0
 11
18.616840118285321
 21
99.209862820186999
 31
0.0
  0
LINE
  5
A8
  8
1
 62
     7
 10
18.616840118285321
 20
97.659862820187016
 30
0.0
 11
18.616840118285321
 21
99.209862820186999
 31
0.0
  0
LINE
  5
A9
  8
1
 62
     7
 10
19.616840118285321
 20
101.009862820187
 30
0.0
 11
19.616840118285321
 21
99.209862820186999
 31
0.0
  0
LINE
  5
AA
  8
1
 62
     7
 10
7.1168401182853174
 20
99.509862820186996
 30
0.0
 11
7.1168401182853174
 21
111.509862820187
 31
0.0
  0
LINE
  5
AB
  8
1
 62
     7
 10
8.6168401182853174
 20
140.5098628201869
 30
0.0
 11
8.6168401182853263
 21
109.049862820187
 31
0.0
  0
LINE
  5
AC
  8
1
  6
DASHDOT
 62
     3
 10
-71.008868391679911
 20
105.5098628201869
 30
0.0
 11
-74.008868391679911
 21
105.5098628201869
 31
0.0
  0
LINE
  5
AD
  8
1
  6
DASHDOT
 62
     3
 10
-38.50886839167989
 20
105.5098628201869
 30
0.0
 11
-35.50886839167989
 21
105.5098628201869
 31
0.0
  0
LINE
  5
AE
  8
1
 62
     7
 10
-64.428868391679956
 20
123.784862820187
 30
0.0
 11
-64.428868391679885
 21
140.0406174302141
 31
0.0
  0
LINE
  5
AF
  8
1
 62
     7
 10
-38.50886839167989
 20
105.5098628201869
 30
0.0
 11
-38.50886839167989
 21
92.259862820186996
 31
0.0
  0
LINE
  5
B0
  8
1
 62
     7
 10
-61.008868391679897
 20
123.0098628201869
 30
0.0
 11
-61.008868391679897
 21
123.784862820187
 31
0.0
  0
LINE
  5
B1
  8
1
 62
     7
 10
-45.808868391679887
 20
96.259862820186996
 30
0.0
 11
-45.308868391679887
 21
96.259862820186996
 31
0.0
  0
LINE
  5
B2
  8
1
 62
     7
 10
-45.308868391679887
 20
100.2598628201869
 30
0.0
 11
-45.308868391679887
 21
96.259862820186996
 31
0.0
  0
LINE
  5
B3
  8
1
 62
     7
 10
-45.808868391679887
 20
100.2598628201869
 30
0.0
 11
-45.308868391679887
 21
100.2598628201869
 31
0.0
  0
LINE
  5
B4
  8
1
 62
     7
 10
-48.508868391679897
 20
123.159862820187
 30
0.0
 11
-46.008868391679897
 21
123.159862820187
 31
0.0
  0
LINE
  5
B5
  8
1
 62
     7
 10
-46.008868391679897
 20
87.859862820187018
 30
0.0
 11
-48.508868391679897
 21
87.859862820187018
 31
0.0
  0
LINE
  5
B6
  8
1
 62
     7
 10
-46.008868391679897
 20
122.5098628201869
 30
0.0
 11
-45.808868391679887
 21
122.5098628201869
 31
0.0
  0
LINE
  5
B7
  8
1
 62
     7
 10
-45.808868391679887
 20
110.5098628201869
 30
0.0
 11
-45.808868391679887
 21
122.5098628201869
 31
0.0
  0
LINE
  5
B8
  8
1
 62
     7
 10
-46.008868391679897
 20
88.509862820186996
 30
0.0
 11
-45.808868391679887
 21
88.509862820186996
 31
0.0
  0
LINE
  5
B9
  8
1
 62
     7
 10
-45.808868391679887
 20
122.0098628201869
 30
0.0
 11
-45.308868391679887
 21
122.0098628201869
 31
0.0
  0
LINE
  5
BA
  8
1
 62
     7
 10
-45.308868391679887
 20
122.0098628201869
 30
0.0
 11
-45.308868391679887
 21
118.0098628201869
 31
0.0
  0
LINE
  5
BB
  8
1
 62
     7
 10
-45.808868391679887
 20
118.0098628201869
 30
0.0
 11
-45.308868391679887
 21
118.0098628201869
 31
0.0
  0
LINE
  5
BC
  8
1
 62
     7
 10
-38.50886839167989
 20
92.259862820186996
 30
0.0
 11
-44.308868391679887
 21
92.259862820186996
 31
0.0
  0
LINE
  5
BD
  8
1
 62
     7
 10
-38.50886839167989
 20
118.759862820187
 30
0.0
 11
-44.308868391679887
 21
118.759862820187
 31
0.0
  0
LINE
  5
BE
  8
1
 62
     7
 10
-38.50886839167989
 20
118.759862820187
 30
0.0
 11
-38.50886839167989
 21
105.5098628201869
 31
0.0
  0
LINE
  5
BF
  8
1
 62
     7
 10
-44.308868391679887
 20
118.759862820187
 30
0.0
 11
-45.808868391679887
 21
116.16178660883359
 31
0.0
  0
LINE
  5
C0
  8
1
 62
     7
 10
-45.808868391679887
 20
116.16178660883359
 30
0.0
 11
-45.808868391679887
 21
88.509862820186996
 31
0.0
  0
LINE
  5
C1
  8
1
 62
     7
 10
-45.808868391679887
 20
94.857939031540297
 30
0.0
 11
-44.308868391679887
 21
92.259862820186996
 31
0.0
  0
LINE
  5
C2
  8
1
 62
     7
 10
-48.508868391679897
 20
123.159862820187
 30
0.0
 11
-48.508868391679897
 21
87.859862820187018
 31
0.0
  0
LINE
  5
C3
  8
1
 62
     7
 10
-46.008868391679897
 20
87.859862820187018
 30
0.0
 11
-46.008868391679897
 21
123.159862820187
 31
0.0
  0
LINE
  5
C4
  8
1
 62
     7
 10
-44.308868391679887
 20
92.259862820186996
 30
0.0
 11
-44.308868391679887
 21
118.759862820187
 31
0.0
  0
LINE
  5
C5
  8
1
 62
     7
 10
-51.50886839167989
 20
89.209862820187041
 30
0.0
 11
-52.008868391679883
 21
89.209862820187041
 31
0.0
  0
LINE
  5
C6
  8
1
 62
     7
 10
-50.816048068652343
 20
88.00986282018701
 30
0.0
 11
-51.50886839167989
 21
89.209862820187041
 31
0.0
  0
LINE
  5
C7
  8
1
 62
     7
 10
-50.816048068652343
 20
123.0098628201869
 30
0.0
 11
-48.708868391679879
 21
123.0098628201869
 31
0.0
  0
LINE
  5
C8
  8
1
 62
     7
 10
-51.50886839167989
 20
121.80986282018689
 30
0.0
 11
-50.816048068652343
 21
123.0098628201869
 31
0.0
  0
LINE
  5
C9
  8
1
 62
     7
 10
-48.708868391679879
 20
88.00986282018701
 30
0.0
 11
-50.816048068652343
 21
88.00986282018701
 31
0.0
  0
LINE
  5
CA
  8
1
 62
     7
 10
-48.708868391679879
 20
100.5098628201869
 30
0.0
 11
-48.508868391679897
 21
100.5098628201869
 31
0.0
  0
LINE
  5
CB
  8
1
 62
     7
 10
-51.50886839167989
 20
89.209862820187041
 30
0.0
 11
-51.50886839167989
 21
121.80986282018689
 31
0.0
  0
LINE
  5
CC
  8
1
 62
     7
 10
-50.816048068652343
 20
88.00986282018701
 30
0.0
 11
-50.816048068652343
 21
123.0098628201869
 31
0.0
  0
LINE
  5
CD
  8
1
 62
     7
 10
-48.708868391679879
 20
88.00986282018701
 30
0.0
 11
-48.708868391679879
 21
123.0098628201869
 31
0.0
  0
LINE
  5
CE
  8
1
 62
     7
 10
-52.008868391679883
 20
88.00986282018701
 30
0.0
 11
-52.008868391679883
 21
123.0098628201869
 31
0.0
  0
LINE
  5
CF
  8
1
 62
     7
 10
-66.008868391679897
 20
123.784862820187
 30
0.0
 11
-66.008868391679897
 21
123.0098628201869
 31
0.0
  0
LINE
  5
D0
  8
1
 62
     7
 10
-61.008868391679897
 20
123.784862820187
 30
0.0
 11
-66.008868391679897
 21
123.784862820187
 31
0.0
  0
LINE
  5
D1
  8
1
 62
     7
 10
-68.508868391679897
 20
88.00986282018701
 30
0.0
 11
-69.508868391679897
 21
89.00986282018701
 31
0.0
  0
LINE
  5
D2
  8
1
 62
     7
 10
-52.008868391679883
 20
88.00986282018701
 30
0.0
 11
-68.508868391679897
 21
88.00986282018701
 31
0.0
  0
LINE
  5
D3
  8
1
 62
     7
 10
-68.508868391679897
 20
123.0098628201869
 30
0.0
 11
-52.008868391679883
 21
123.0098628201869
 31
0.0
  0
LINE
  5
D4
  8
1
 62
     7
 10
-69.508868391679897
 20
122.0098628201869
 30
0.0
 11
-68.508868391679897
 21
123.0098628201869
 31
0.0
  0
LINE
  5
D5
  8
1
 62
     7
 10
-71.008868391679911
 20
140.5098628201869
 30
0.0
 11
-69.508868391679897
 21
140.5098628201869
 31
0.0
  0
LINE
  5
D6
  8
1
 62
     7
 10
-69.508868391679897
 20
89.509862820187024
 30
0.0
 11
-71.008868391679911
 21
89.509862820187024
 31
0.0
  0
LINE
  5
D7
  8
1
 62
     7
 10
-68.508868391679897
 20
88.00986282018701
 30
0.0
 11
-68.508868391679897
 21
123.0098628201869
 31
0.0
  0
LINE
  5
D8
  8
1
 62
     7
 10
-62.588868391679881
 20
140.0406174302141
 30
0.0
 11
-62.588868391679952
 21
123.784862820187
 31
0.0
  0
LINE
  5
D9
  8
1
 62
     7
 10
-69.508868391679897
 20
89.00986282018701
 30
0.0
 11
-69.508868391679897
 21
140.5098628201869
 31
0.0
  0
LINE
  5
DA
  8
1
 62
     7
 10
-71.008868391679911
 20
140.5098628201869
 30
0.0
 11
-71.008868391679911
 21
89.509862820187024
 31
0.0
  0
LINE
  5
DB
  8
1
  6
DASHDOT
 62
     3
 10
114.918309900862
 20
101.0465961658622
 30
0.0
 11
118.5095578618462
 21
98.973188188861243
 31
0.0
  0
LINE
  5
DC
  8
1
  6
DASHDOT
 62
     3
 10
99.455743281429136
 20
101.0458124744198
 30
0.0
 11
95.864495320444931
 21
98.972404497418836
 31
0.0
  0
LINE
  5
DD
  8
1
  6
DASHDOT
 62
     3
 10
107.18634789444771
 20
114.4371798202791
 30
0.0
 11
107.18634789444771
 21
118.58399577428099
 31
0.0
  0
LINE
  5
DE
  8
1
  6
DASHDOT
 62
     3
 10
108.51660157742501
 20
105.5098628201869
 30
0.0
 11
105.8569991404008
 21
105.5098628201869
 31
0.0
  0
LINE
  5
DF
  8
1
  6
DASHDOT
 62
     3
 10
107.1868003589129
 20
104.18006160167489
 30
0.0
 11
107.1868003589129
 21
106.839664038699
 31
0.0
  0
LINE
  5
E0
  8
1
 62
     7
 10
13.696840118285239
 20
123.784862820187
 30
0.0
 11
13.69684011828533
 21
140.0406174302141
 31
0.0
  0
LINE
  5
E1
  8
1
 62
     7
 10
108.1868003589129
 20
109.409862820187
 30
0.0
 11
108.1868003589129
 21
108.33828994493319
 31
0.0
  0
LINE
  5
E2
  8
1
 62
     7
 10
106.1868003589129
 20
109.409862820187
 30
0.0
 11
108.1868003589129
 21
109.409862820187
 31
0.0
  0
LINE
  5
E3
  8
1
 62
     7
 10
106.1868003589129
 20
108.33828994493319
 30
0.0
 11
106.1868003589129
 21
109.409862820187
 31
0.0
  0
LINE
  5
E4
  8
1
 62
     7
 10
17.116840118285321
 20
123.0098628201869
 30
0.0
 11
17.116840118285321
 21
123.784862820187
 31
0.0
  0
LINE
  5
E5
  8
1
 62
     7
 10
109.2940848590675
 20
123.0336139036567
 30
0.0
 11
109.50190384243869
 21
123.809204908376
 31
0.0
  0
LINE
  5
E6
  8
1
 62
     7
 10
116.4394901186822
 20
140.04137111031821
 30
0.0
 11
111.9167184081615
 21
123.16215729561971
 31
0.0
  0
LINE
  5
E7
  8
1
 62
     7
 10
113.6940219285335
 20
122.6859302526311
 30
0.0
 11
118.216793639054
 21
139.56514406732941
 31
0.0
  0
LINE
  5
E8
  8
1
 62
     7
 10
110.1394148877897
 20
123.6383843386082
 30
0.0
 11
114.6621865983104
 21
140.51759815330669
 31
0.0
  0
LINE
  5
E9
  8
1
 62
     7
 10
114.33153297388419
 20
122.5151096828634
 30
0.0
 11
114.1237139905127
 21
121.73951867814419
 31
0.0
  0
LINE
  5
EA
  8
1
 62
     7
 10
109.50190384243869
 20
123.809204908376
 30
0.0
 11
114.33153297388419
 21
122.5151096828634
 31
0.0
  0
LINE
  5
EB
  8
1
 62
     7
 10
103.1868003589129
 20
139.50986282018701
 30
0.0
 11
103.1868003589129
 21
122.7006306913439
 31
0.0
  0
LINE
  5
EC
  8
1
 62
     7
 10
110.1868003589129
 20
140.5098628201869
 30
0.0
 11
104.1868003589129
 21
140.5098628201869
 31
0.0
  0
LINE
  5
ED
  8
1
 62
     7
 10
111.1868003589129
 20
139.50986282018701
 30
0.0
 11
111.1868003589129
 21
127.54728013194971
 31
0.0
  0
LINE
  5
EE
  8
1
 62
     7
 10
108.7868003589129
 20
136.1598628201869
 30
0.0
 11
108.7868003589129
 21
131.859862820187
 31
0.0
  0
LINE
  5
EF
  8
1
 62
     7
 10
105.5868003589129
 20
136.1598628201869
 30
0.0
 11
105.5868003589129
 21
131.859862820187
 31
0.0
  0
LINE
  5
F0
  8
1
 62
     7
 10
29.616840118285321
 20
123.159862820187
 30
0.0
 11
32.116840118285317
 21
123.159862820187
 31
0.0
  0
LINE
  5
F1
  8
1
 62
     7
 10
32.116840118285317
 20
123.159862820187
 30
0.0
 11
32.116840118285317
 21
121.0098628201869
 31
0.0
  0
LINE
  5
F2
  8
1
 62
     7
 10
32.116840118285317
 20
121.0098628201869
 30
0.0
 11
32.31684011828532
 21
121.0098628201869
 31
0.0
  0
LINE
  5
F3
  8
1
 62
     7
 10
32.116840118285317
 20
119.0098628201869
 30
0.0
 11
32.116840118285317
 21
110.5098628201869
 31
0.0
  0
LINE
  5
F4
  8
1
 62
     7
 10
29.616840118285321
 20
113.7598628201869
 30
0.0
 11
32.116840118285317
 21
113.7598628201869
 31
0.0
  0
LINE
  5
F5
  8
1
 62
     7
 10
32.116840118285317
 20
122.5098628201869
 30
0.0
 11
32.31684011828532
 21
122.5098628201869
 31
0.0
  0
LINE
  5
F6
  8
1
 62
     7
 10
32.31684011828532
 20
122.5098628201869
 30
0.0
 11
32.31684011828532
 21
121.0098628201869
 31
0.0
  0
LINE
  5
F7
  8
1
 62
     7
 10
32.31684011828532
 20
119.0098628201869
 30
0.0
 11
32.31684011828532
 21
110.5098628201869
 31
0.0
  0
LINE
  5
F8
  8
1
 62
     7
 10
32.31684011828532
 20
122.0098628201869
 30
0.0
 11
32.81684011828532
 21
122.0098628201869
 31
0.0
  0
LINE
  5
F9
  8
1
 62
     7
 10
32.81684011828532
 20
122.0098628201869
 30
0.0
 11
32.81684011828532
 21
118.0098628201869
 31
0.0
  0
LINE
  5
FA
  8
1
 62
     7
 10
32.31684011828532
 20
118.0098628201869
 30
0.0
 11
32.81684011828532
 21
118.0098628201869
 31
0.0
  0
LINE
  5
FB
  8
1
 62
     7
 10
32.31684011828532
 20
119.0098628201869
 30
0.0
 11
32.116840118285317
 21
119.0098628201869
 31
0.0
  0
LINE
  5
FC
  8
1
 62
     7
 10
37.616840118285317
 20
113.0098628201869
 30
0.0
 11
37.616840118285317
 21
108.5098628201869
 31
0.0
  0
LINE
  5
FD
  8
1
 62
     7
 10
39.616840118285317
 20
113.0098628201869
 30
0.0
 11
37.616840118285317
 21
113.0098628201869
 31
0.0
  0
LINE
  5
FE
  8
1
 62
     7
 10
32.31684011828532
 20
111.0098628201869
 30
0.0
 11
37.616840118285317
 21
111.0098628201869
 31
0.0
  0
LINE
  5
FF
  8
1
 62
     7
 10
39.616840118285317
 20
118.759862820187
 30
0.0
 11
33.81684011828532
 21
118.759862820187
 31
0.0
  0
LINE
  5
100
  8
1
 62
     7
 10
39.616840118285317
 20
118.759862820187
 30
0.0
 11
39.616840118285317
 21
113.0098628201869
 31
0.0
  0
LINE
  5
101
  8
1
 62
     3
 10
32.31684011828532
 20
115.0098628201869
 30
0.0
 11
39.616840118285317
 21
115.0098628201869
 31
0.0
  0
LINE
  5
102
  8
1
 62
     3
 10
33.38382741639311
 20
118.0098628201869
 30
0.0
 11
39.616840118285317
 21
118.0098628201869
 31
0.0
  0
LINE
  5
103
  8
1
  6
CENTER
 62
     3
 10
30.126840118285319
 20
116.509862820187
 30
0.0
 11
41.806840118285329
 21
116.509862820187
 31
0.0
  0
LINE
  5
104
  8
1
 62
     7
 10
32.31684011828532
 20
115.30986282018701
 30
0.0
 11
39.616840118285317
 21
115.30986282018701
 31
0.0
  0
LINE
  5
105
  8
1
 62
     7
 10
33.210622335636231
 20
117.709862820187
 30
0.0
 11
39.616840118285317
 21
117.709862820187
 31
0.0
  0
LINE
  5
106
  8
1
 62
     7
 10
33.81684011828532
 20
118.759862820187
 30
0.0
 11
32.31684011828532
 21
116.16178660883359
 31
0.0
  0
LINE
  5
107
  8
1
 62
     7
 10
29.616840118285321
 20
110.5098628201869
 30
0.0
 11
29.616840118285321
 21
123.159862820187
 31
0.0
  0
LINE
  5
108
  8
1
 62
     7
 10
18.616840118285321
 20
108.5098628201869
 30
0.0
 11
37.616840118285317
 21
108.5098628201869
 31
0.0
  0
LINE
  5
109
  8
1
 62
     7
 10
18.616840118285321
 20
109.409862820187
 30
0.0
 11
37.616840118285317
 21
109.409862820187
 31
0.0
  0
LINE
  5
10A
  8
1
 62
     7
 10
27.309660441312879
 20
123.0098628201869
 30
0.0
 11
29.416840118285322
 21
123.0098628201869
 31
0.0
  0
LINE
  5
10B
  8
1
 62
     7
 10
26.616840118285321
 20
121.80986282018689
 30
0.0
 11
27.309660441312879
 21
123.0098628201869
 31
0.0
  0
LINE
  5
10C
  8
1
 62
     7
 10
24.616840118285321
 20
121.80986282018689
 30
0.0
 11
26.616840118285321
 21
121.80986282018689
 31
0.0
  0
LINE
  5
10D
  8
1
 62
     7
 10
24.616840118285321
 20
112.509862820187
 30
0.0
 11
24.616840118285321
 21
121.80986282018689
 31
0.0
  0
LINE
  5
10E
  8
1
 62
     7
 10
20.116840118285332
 20
112.509862820187
 30
0.0
 11
24.616840118285321
 21
112.509862820187
 31
0.0
  0
LINE
  5
10F
  8
1
 62
     7
 10
20.116840118285332
 20
110.0098628201869
 30
0.0
 11
20.116840118285332
 21
112.509862820187
 31
0.0
  0
LINE
  5
110
  8
1
 62
     7
 10
18.616840118285321
 20
110.0098628201869
 30
0.0
 11
20.116840118285332
 21
110.0098628201869
 31
0.0
  0
LINE
  5
111
  8
1
 62
     7
 10
28.416840118285322
 20
115.7598628201869
 30
0.0
 11
28.416840118285322
 21
111.0098628201869
 31
0.0
  0
LINE
  5
112
  8
1
 62
     7
 10
37.616840118285317
 20
110.5098628201869
 30
0.0
 11
28.916840118285322
 21
110.5098628201869
 31
0.0
  0
LINE
  5
113
  8
1
 62
     7
 10
28.416840118285322
 20
115.7598628201869
 30
0.0
 11
29.416840118285322
 21
116.7598628201869
 31
0.0
  0
LINE
  5
114
  8
1
 62
     7
 10
29.416840118285322
 20
123.0098628201869
 30
0.0
 11
29.416840118285322
 21
110.5098628201869
 31
0.0
  0
LINE
  5
115
  8
1
 62
     7
 10
12.11684011828531
 20
123.784862820187
 30
0.0
 11
12.11684011828531
 21
123.0098628201869
 31
0.0
  0
LINE
  5
116
  8
1
 62
     7
 10
17.116840118285321
 20
123.784862820187
 30
0.0
 11
12.11684011828531
 21
123.784862820187
 31
0.0
  0
LINE
  5
117
  8
1
 62
     7
 10
19.616840118285321
 20
113.0098628201869
 30
0.0
 11
23.616840118285321
 21
113.0098628201869
 31
0.0
  0
LINE
  5
118
  8
1
 62
     7
 10
19.616840118285321
 20
113.3598628201869
 30
0.0
 11
19.616840118285321
 21
111.80986282018689
 31
0.0
  0
LINE
  5
119
  8
1
 62
     7
 10
18.466840118285319
 20
113.3598628201869
 30
0.0
 11
19.616840118285321
 21
113.3598628201869
 31
0.0
  0
LINE
  5
11A
  8
1
 62
     7
 10
23.616840118285321
 20
122.30986282018689
 30
0.0
 11
23.616840118285321
 21
112.509862820187
 31
0.0
  0
LINE
  5
11B
  8
1
 62
     7
 10
23.616840118285321
 20
122.30986282018689
 30
0.0
 11
26.116840118285332
 21
122.30986282018689
 31
0.0
  0
LINE
  5
11C
  8
1
 62
     7
 10
9.6168401182853316
 20
123.0098628201869
 30
0.0
 11
26.116840118285332
 21
123.0098628201869
 31
0.0
  0
LINE
  5
11D
  8
1
 62
     7
 10
8.6168401182853316
 20
122.0098628201869
 30
0.0
 11
9.6168401182853316
 21
123.0098628201869
 31
0.0
  0
LINE
  5
11E
  8
1
 62
     7
 10
8.6168401182853316
 20
114.509862820187
 30
0.0
 11
9.4828655220697744
 21
113.0098628201869
 31
0.0
  0
LINE
  5
11F
  8
1
 62
     7
 10
26.116840118285332
 20
123.0098628201869
 30
0.0
 11
26.116840118285332
 21
121.80986282018689
 31
0.0
  0
LINE
  5
120
  8
1
 62
     7
 10
7.1168401182853174
 20
140.5098628201869
 30
0.0
 11
8.6168401182853174
 21
140.5098628201869
 31
0.0
  0
LINE
  5
121
  8
1
 62
     7
 10
7.1168401182853174
 20
137.75986282018701
 30
0.0
 11
8.6168401182853174
 21
137.75986282018701
 31
0.0
  0
LINE
  5
122
  8
1
 62
     7
 10
7.1168401182853174
 20
130.25986282018701
 30
0.0
 11
8.6168401182853174
 21
130.25986282018701
 31
0.0
  0
LINE
  5
123
  8
1
 62
     7
 10
7.1168401182853174
 20
111.509862820187
 30
0.0
 11
8.6168401182853174
 21
111.509862820187
 31
0.0
  0
LINE
  5
124
  8
1
 62
     3
 10
15.00684011828532
 20
143.001422574852
 30
0.0
 11
15.00684011828532
 21
140.0406174302141
 31
0.0
  0
LINE
  5
125
  8
1
 62
     3
 10
14.226840118285329
 20
140.0406174302141
 30
0.0
 11
14.226840118285329
 21
143.001422574852
 31
0.0
  0
LINE
  5
126
  8
1
 62
     7
 10
13.69684011828533
 20
140.0406174302141
 30
0.0
 11
15.53684011828533
 21
140.0406174302141
 31
0.0
  0
LINE
  5
127
  8
1
 62
     7
 10
15.53684011828533
 20
140.0406174302141
 30
0.0
 11
15.536840118285269
 21
123.784862820187
 31
0.0
  0
LINE
  5
128
  8
1
 62
     7
 10
9.1568401182853254
 20
108.5098628201869
 30
0.0
 11
13.07684011828532
 21
108.5098628201869
 31
0.0
  0
LINE
  5
129
  8
1
 62
     7
 10
9.1568401182853254
 20
113.0098628201869
 30
0.0
 11
18.466840118285319
 21
113.0098628201869
 31
0.0
  0
LINE
  5
12A
  8
1
 62
     7
 10
11.79184011828532
 20
111.928997115296
 30
0.0
 11
15.441840118285331
 21
111.928997115296
 31
0.0
  0
LINE
  5
12B
  8
1
 62
     7
 10
10.441840118285331
 20
111.928997115296
 30
0.0
 11
8.6168401182853263
 21
111.928997115296
 31
0.0
  0
LINE
  5
12C
  8
1
 62
     7
 10
10.441840118285331
 20
109.59072852507791
 30
0.0
 11
8.6168401182853263
 21
109.59072852507791
 31
0.0
  0
LINE
  5
12D
  8
1
 62
     7
 10
11.79184011828532
 20
109.59072852507791
 30
0.0
 11
15.441840118285331
 21
109.59072852507791
 31
0.0
  0
LINE
  5
12E
  8
1
 62
     7
 10
14.15684011828532
 20
108.5098628201869
 30
0.0
 11
18.076840118285329
 21
108.5098628201869
 31
0.0
  0
LINE
  5
12F
  8
1
 62
     7
 10
16.791840118285329
 20
111.928997115296
 30
0.0
 11
18.616840118285321
 21
111.928997115296
 31
0.0
  0
LINE
  5
130
  8
1
 62
     7
 10
16.791840118285329
 20
109.59072852507791
 30
0.0
 11
18.616840118285321
 21
109.59072852507791
 31
0.0
  0
LINE
  5
131
  8
1
 62
     7
 10
18.466840118285319
 20
113.3598628201869
 30
0.0
 11
18.466840118285319
 21
112.8417201657484
 31
0.0
  0
LINE
  5
132
  8
1
 62
     7
 10
13.61684011828533
 20
112.4698628201869
 30
0.0
 11
13.61684011828533
 21
109.049862820187
 31
0.0
  0
LINE
  5
133
  8
1
 62
     7
 10
18.616840118285321
 20
111.80986282018689
 30
0.0
 11
18.616840118285321
 21
108.5098628201869
 31
0.0
  0
LINE
  5
134
  8
1
 62
     7
 10
18.616840118285321
 20
111.80986282018689
 30
0.0
 11
19.616840118285321
 21
111.80986282018689
 31
0.0
  0
LINE
  5
135
  8
1
 62
     7
 10
18.616840118285321
 20
111.80986282018689
 30
0.0
 11
18.616840118285321
 21
113.3598628201869
 31
0.0
  0
LINE
  5
136
  8
1
 62
     7
 10
19.616840118285321
 20
111.80986282018689
 30
0.0
 11
19.616840118285321
 21
110.0098628201869
 31
0.0
  0
LINE
  5
137
  8
1
 62
     7
 10
7.1168401182853174
 20
140.5098628201869
 30
0.0
 11
7.1168401182853174
 21
111.509862820187
 31
0.0
  0
ARC
  5
138
  8
1
 62
     7
 10
37.116840118285317
 20
97.259862820186996
 30
0.0
 40
6.9999999999999636
 50
163.04223669999581
 51
196.95776330000419
  0
ARC
  5
139
  8
1
 62
     7
 10
-138.57882863230739
 20
105.5098628201869
 30
0.0
 40
16.499999999999989
 50
270.0
 51
74.927942970073815
  0
ARC
  5
13A
  8
1
 62
     7
 10
-138.57882863230739
 20
105.5098628201869
 30
0.0
 40
17.499999999999989
 50
270.0
 51
76.787019639841418
  0
ARC
  5
13B
  8
1
 62
     7
 10
-138.57882863230739
 20
105.5098628201869
 30
0.0
 40
16.499999999999989
 50
105.072057029926
 51
270.0
  0
ARC
  5
13C
  8
1
 62
     7
 10
-138.57882863230739
 20
105.5098628201869
 30
0.0
 40
17.499999999999979
 50
103.2129803601586
 51
270.0
  0
ARC
  5
13D
  8
1
 62
     7
 10
-144.57882863230751
 20
122.480425568664
 30
0.0
 40
1.9999999999999849
 50
289.47122063449132
 51
0.0
  0
ARC
  5
13E
  8
1
 62
     7
 10
-138.57882863230739
 20
105.5098628201869
 30
0.0
 40
16.000000000000011
 50
109.4712206344909
 51
70.528779365509379
  0
ARC
  5
13F
  8
1
 62
     7
 10
-132.57882863230739
 20
122.480425568664
 30
0.0
 40
2.0
 50
180.0
 51
250.52877936550851
  0
ARC
  5
140
  8
1
 62
     7
 10
-138.57882863230739
 20
136.1598628201869
 30
0.0
 40
1.5999999999999941
 50
0.0
 51
90.0
  0
ARC
  5
141
  8
1
 62
     7
 10
-138.57882863230739
 20
131.859862820187
 30
0.0
 40
1.5999999999999941
 50
180.0
 51
270.0
  0
ARC
  5
142
  8
1
 62
     7
 10
-138.57882863230739
 20
136.1598628201869
 30
0.0
 40
1.600000000000023
 50
90.0
 51
180.0
  0
ARC
  5
143
  8
1
 62
     7
 10
-138.57882863230739
 20
131.859862820187
 30
0.0
 40
1.5999999999999941
 50
270.0
 51
0.0
  0
ARC
  5
144
  8
1
 62
     7
 10
11.116840118285319
 20
100.2598628201869
 30
0.0
 40
1.3499999999999841
 50
239.9999999999996
 51
300.00000000000028
  0
ARC
  5
145
  8
1
 62
     7
 10
11.116840118285319
 20
100.2598628201869
 30
0.0
 40
1.349999999999985
 50
300.00000000000028
 51
60.000000000000213
  0
ARC
  5
146
  8
1
 62
     7
 10
11.116840118285319
 20
100.2598628201869
 30
0.0
 40
1.3500000000000081
 50
119.9999999999997
 51
239.9999999999996
  0
ARC
  5
147
  8
1
 62
     7
 10
11.116840118285319
 20
100.2598628201869
 30
0.0
 40
1.3500000000000101
 50
60.000000000000213
 51
119.9999999999997
  0
ARC
  5
148
  8
1
 62
     7
 10
16.116840118285321
 20
100.2598628201869
 30
0.0
 40
1.349999999999985
 50
239.99999999999949
 51
300.00000000000028
  0
ARC
  5
149
  8
1
 62
     7
 10
16.116840118285321
 20
100.2598628201869
 30
0.0
 40
1.3499999999999841
 50
300.00000000000028
 51
60.000000000000348
  0
ARC
  5
14A
  8
1
 62
     7
 10
16.116840118285321
 20
100.2598628201869
 30
0.0
 40
1.3500000000000101
 50
119.9999999999997
 51
239.99999999999949
  0
ARC
  5
14B
  8
1
 62
     7
 10
16.116840118285321
 20
100.2598628201869
 30
0.0
 40
1.3500000000000081
 50
60.000000000000348
 51
119.9999999999997
  0
ARC
  5
14C
  8
1
  6
DASHDOT
 62
     3
 10
107.1876544397259
 20
105.50989217736161
 30
0.0
 40
10.999999999999551
 50
319.18417287889912
 51
340.81582712109741
  0
ARC
  5
14D
  8
1
  6
DASHDOT
 62
     3
 10
107.1863987425659
 20
105.5091084859193
 30
0.0
 40
11.00000000000002
 50
199.18417287890099
 51
220.81582712109861
  0
ARC
  5
14E
  8
1
  6
DASHDOT
 62
     3
 10
107.18634789444771
 20
105.51058779728
 30
0.0
 40
10.999999999999989
 50
79.184172878901464
 51
100.81582712109859
  0
ARC
  5
14F
  8
1
 62
     7
 10
107.18680035891239
 20
115.827807444589
 30
0.0
 40
7.0820553755979168
 50
64.937550654033714
 51
90.0
  0
ARC
  5
150
  8
1
 62
     7
 10
107.1868003589115
 20
105.5098628201869
 30
0.0
 40
16.999999999997868
 50
220.1642486217273
 51
319.83575137827847
  0
ARC
  5
151
  8
1
 62
     7
 10
107.1868003589115
 20
105.5098628201869
 30
0.0
 40
16.999999999998661
 50
100.16424862171939
 51
199.83575137827719
  0
ARC
  5
152
  8
1
 62
     7
 10
116.1224025184864
 20
100.35089050798619
 30
0.0
 40
7.0820553755978031
 50
304.93755065403337
 51
355.0624493459577
  0
ARC
  5
153
  8
1
 62
     7
 10
98.251198199339854
 20
100.3508905079854
 30
0.0
 40
7.082055375597883
 50
184.93755065403289
 51
235.06244934595691
  0
ARC
  5
154
  8
1
 62
     7
 10
107.1868003589115
 20
105.5098628201869
 30
0.0
 40
17.000000000000149
 50
340.16424862172562
 51
79.8357513782708
  0
ARC
  5
155
  8
1
 62
     7
 10
107.18680035891239
 20
115.827807444589
 30
0.0
 40
7.0820553755979017
 50
90.0
 51
115.06244934595701
  0
ARC
  5
156
  8
1
 62
     7
 10
107.1868003589129
 20
120.00990332650559
 30
0.0
 40
2.0000223485991389
 50
318.1846273834667
 51
326.51365556613979
  0
ARC
  5
157
  8
1
 62
     7
 10
107.1863987425665
 20
105.50910848592061
 30
0.0
 40
13.50079818089719
 50
41.036158521198821
 51
82.901127538574073
  0
ARC
  5
158
  8
1
 62
     7
 10
107.1872019752595
 20
105.5091084859199
 30
0.0
 40
13.50079818089776
 50
97.098872461426865
 51
138.96384147879971
  0
ARC
  5
159
  8
1
 62
     7
 10
107.18594627810199
 20
105.50989217736161
 30
0.0
 40
13.50079818089714
 50
337.09887246142603
 51
18.963841478800649
  0
ARC
  5
15A
  8
1
 62
     7
 10
107.18634789444771
 20
105.51058779728
 30
0.0
 40
13.50079818089853
 50
281.03615852120129
 51
322.90112753857181
  0
ARC
  5
15B
  8
1
 62
     7
 10
119.7442037932872
 20
98.259842567028201
 30
0.0
 40
2.000022348598455
 50
198.13317933606459
 51
206.51365556616679
  0
ARC
  5
15C
  8
1
 62
     7
 10
94.6293969245379
 20
98.259842567027832
 30
0.0
 40
2.0000223485989008
 50
78.16550704505849
 51
86.513655566149353
  0
ARC
  5
15D
  8
1
 62
     7
 10
107.1876544397259
 20
105.50989217736161
 30
0.0
 40
13.500798180899141
 50
161.03615852120259
 51
202.90112753857079
  0
ARC
  5
15E
  8
1
 62
     7
 10
107.18725282337751
 20
105.5105877972791
 30
0.0
 40
13.50079818089762
 50
217.09887246142671
 51
258.96384147880002
  0
ARC
  5
15F
  8
1
 62
     7
 10
116.841957524177
 20
113.91329716315261
 30
0.0
 40
0.7000090374967595
 50
349.86152494317452
 51
41.033964821967587
  0
ARC
  5
160
  8
1
 62
     7
 10
109.6368093963236
 20
92.946534266054101
 30
0.0
 40
0.7000090374967775
 50
229.76537318884729
 51
281.03396482196848
  0
ARC
  5
161
  8
1
 62
     7
 10
95.081634156238081
 20
109.6697570313541
 30
0.0
 40
0.7000090374968533
 50
109.9252115730187
 51
161.03396482196331
  0
ARC
  5
162
  8
1
 62
     7
 10
104.7367913215015
 20
92.946534266054826
 30
0.0
 40
0.7000090374973518
 50
258.9660351780916
 51
310.2198057459857
  0
ARC
  5
163
  8
1
 62
     7
 10
97.531643193649373
 20
113.91329716315271
 30
0.0
 40
0.7000090374971241
 50
138.96603517806901
 51
190.06159248722309
  0
ARC
  5
164
  8
1
 62
     7
 10
119.2919665615879
 20
109.6697570313541
 30
0.0
 40
0.700009037496673
 50
18.96603517803311
 51
70.166491957113507
  0
ARC
  5
165
  8
1
 62
     7
 10
107.1868003589129
 20
120.00990332650559
 30
0.0
 40
2.0000223485991211
 50
213.48634443385981
 51
221.81179668163139
  0
ARC
  5
166
  8
1
 62
     7
 10
94.6293969245379
 20
98.259842567027832
 30
0.0
 40
2.0000223485988688
 50
333.48634443384992
 51
341.84124263607629
  0
ARC
  5
167
  8
1
 62
     7
 10
119.7442037932872
 20
98.259842567028201
 30
0.0
 40
2.0000223485985011
 50
93.486344433831775
 51
101.8636469176779
  0
ARC
  5
168
  8
1
 62
     7
 10
119.74416871378671
 20
98.259862820186953
 30
0.0
 40
1.7500000000000679
 50
240.00000000001631
 51
108.0918214367269
  0
ARC
  5
169
  8
1
 62
     7
 10
119.74416871378671
 20
98.259862820186953
 30
0.0
 40
1.7500000000000679
 50
191.9050048081516
 51
240.00000000001631
  0
ARC
  5
16A
  8
1
 62
     7
 10
94.62943200403852
 20
98.259862820186996
 30
0.0
 40
1.75
 50
71.944919774445239
 51
119.9999999999973
  0
ARC
  5
16B
  8
1
 62
     7
 10
94.62943200403852
 20
98.259862820186996
 30
0.0
 40
1.749999999999996
 50
119.9999999999973
 51
348.0618299255442
  0
ARC
  5
16C
  8
1
 62
     7
 10
107.1868003589129
 20
120.0098628201869
 30
0.0
 40
1.75
 50
0.0
 51
228.02565878381949
  0
ARC
  5
16D
  8
1
 62
     7
 10
107.1868003589129
 20
120.0098628201869
 30
0.0
 40
1.749999999999966
 50
311.97076527128991
 51
0.0
  0
ARC
  5
16E
  8
1
 62
     7
 10
107.1868003589129
 20
136.1598628201869
 30
0.0
 40
1.600000000000108
 50
90.0
 51
180.0
  0
ARC
  5
16F
  8
1
 62
     7
 10
107.1868003589129
 20
131.859862820187
 30
0.0
 40
1.5999999999999941
 50
270.0
 51
0.0
  0
ARC
  5
170
  8
1
 62
     7
 10
107.1868003589129
 20
136.1598628201869
 30
0.0
 40
1.6000000000000929
 50
0.0
 51
90.0
  0
ARC
  5
171
  8
1
 62
     7
 10
107.1868003589129
 20
131.859862820187
 30
0.0
 40
1.6000000000000081
 50
180.0
 51
270.0
  0
ARC
  5
172
  8
1
 62
     7
 10
11.116840118285319
 20
110.7598628201869
 30
0.0
 40
1.3500000000000101
 50
60.000000000000213
 51
119.9999999999997
  0
ARC
  5
173
  8
1
 62
     7
 10
11.116840118285319
 20
110.7598628201869
 30
0.0
 40
1.349999999999997
 50
300.00000000000011
 51
60.000000000000213
  0
ARC
  5
174
  8
1
 62
     7
 10
11.116840118285319
 20
110.7598628201869
 30
0.0
 40
1.3500000000000081
 50
119.9999999999997
 51
239.99999999999989
  0
ARC
  5
175
  8
1
 62
     7
 10
11.116840118285319
 20
110.7598628201869
 30
0.0
 40
1.3499999999999961
 50
239.99999999999989
 51
300.00000000000011
  0
ARC
  5
176
  8
1
 62
     7
 10
16.116840118285321
 20
110.7598628201869
 30
0.0
 40
1.3500000000000081
 50
60.000000000000348
 51
119.9999999999997
  0
ARC
  5
177
  8
1
 62
     7
 10
16.116840118285321
 20
110.7598628201869
 30
0.0
 40
1.349999999999995
 50
299.99999999999989
 51
60.000000000000348
  0
ARC
  5
178
  8
1
 62
     7
 10
16.116840118285321
 20
110.7598628201869
 30
0.0
 40
1.3500000000000101
 50
119.9999999999997
 51
239.99999999999989
  0
ARC
  5
179
  8
1
 62
     7
 10
16.116840118285321
 20
110.7598628201869
 30
0.0
 40
1.349999999999997
 50
239.99999999999989
 51
299.99999999999989
  0
ARC
  5
17A
  8
1
 62
     7
 10
31.81684011828531
 20
94.809862820186993
 30
0.0
 40
0.299999999999983
 50
270.0
 51
0.0
  0
ARC
  5
17B
  8
1
 62
     7
 10
31.81684011828531
 20
99.709862820186984
 30
0.0
 40
0.3000000000000078
 50
0.0
 51
90.0
  0
ARC
  5
17C
  8
1
 62
     7
 10
31.377719976660831
 20
95.509862820186996
 30
0.0
 40
0.9999999999999764
 50
196.9577633000049
 51
270.0
  0
ARC
  5
17D
  8
1
 62
     7
 10
31.377719976660831
 20
99.009862820186996
 30
0.0
 40
0.9999999999999857
 50
90.0
 51
163.04223669999601
  0
ARC
  5
17E
  8
1
 62
     7
 10
-141.57882863230739
 20
139.50986282018701
 30
0.0
 40
1.0
 50
90.0
 51
180.0
  0
ARC
  5
17F
  8
1
 62
     7
 10
-135.57882863230739
 20
139.50986282018701
 30
0.0
 40
1.0
 50
0.0
 51
90.0
  0
ARC
  5
180
  8
1
 62
     7
 10
28.916840118285322
 20
100.009862820187
 30
0.0
 40
0.5
 50
90.0
 51
180.0
  0
ARC
  5
181
  8
1
 62
     7
 10
9.1568401182853254
 20
101.9698628201869
 30
0.0
 40
0.5399999999999922
 50
90.0
 51
180.0
  0
ARC
  5
182
  8
1
 62
     7
 10
13.07684011828532
 20
98.549862820187002
 30
0.0
 40
0.5399999999999922
 50
270.0
 51
0.0
  0
ARC
  5
183
  8
1
 62
     7
 10
9.1568401182853254
 20
98.549862820187002
 30
0.0
 40
0.5399999999999992
 50
180.0
 51
270.0
  0
ARC
  5
184
  8
1
 62
     7
 10
13.07684011828532
 20
101.9698628201869
 30
0.0
 40
0.5399999999999992
 50
0.0
 51
90.0
  0
ARC
  5
185
  8
1
 62
     7
 10
14.15684011828532
 20
101.9698628201869
 30
0.0
 40
0.5399999999999922
 50
90.0
 51
180.0
  0
ARC
  5
186
  8
1
 62
     7
 10
18.076840118285329
 20
98.549862820187002
 30
0.0
 40
0.5399999999999922
 50
270.0
 51
0.0
  0
ARC
  5
187
  8
1
 62
     7
 10
14.15684011828532
 20
98.549862820187002
 30
0.0
 40
0.540000000000001
 50
180.0
 51
270.0
  0
ARC
  5
188
  8
1
 62
     7
 10
18.076840118285329
 20
101.9698628201869
 30
0.0
 40
0.5399999999999922
 50
0.0
 51
90.0
  0
ARC
  5
189
  8
1
 62
     7
 10
110.1868003589129
 20
139.50986282018701
 30
0.0
 40
1.0
 50
0.0
 51
90.0
  0
ARC
  5
18A
  8
1
 62
     7
 10
104.1868003589129
 20
139.50986282018701
 30
0.0
 40
1.0
 50
90.0
 51
180.0
  0
ARC
  5
18B
  8
1
 62
     7
 10
28.916840118285322
 20
111.0098628201869
 30
0.0
 40
0.5
 50
180.0
 51
270.0
  0
ARC
  5
18C
  8
1
 62
     7
 10
9.1568401182853254
 20
109.049862820187
 30
0.0
 40
0.5399999999999992
 50
180.0
 51
270.0
  0
ARC
  5
18D
  8
1
 62
     7
 10
13.07684011828532
 20
112.4698628201869
 30
0.0
 40
0.5399999999999992
 50
0.0
 51
90.0
  0
ARC
  5
18E
  8
1
 62
     7
 10
9.1568401182853254
 20
112.4698628201869
 30
0.0
 40
0.5399999999999922
 50
90.0
 51
180.0
  0
ARC
  5
18F
  8
1
 62
     7
 10
13.07684011828532
 20
109.049862820187
 30
0.0
 40
0.5400000000000063
 50
270.0
 51
0.0
  0
ARC
  5
190
  8
1
 62
     7
 10
14.15684011828532
 20
109.049862820187
 30
0.0
 40
0.540000000000001
 50
180.0
 51
270.0
  0
ARC
  5
191
  8
1
 62
     7
 10
18.076840118285329
 20
112.4698628201869
 30
0.0
 40
0.5399999999999922
 50
0.0
 51
90.0
  0
ARC
  5
192
  8
1
 62
     7
 10
14.15684011828532
 20
112.4698628201869
 30
0.0
 40
0.5399999999999922
 50
90.0
 51
180.0
  0
ARC
  5
193
  8
1
 62
     7
 10
18.076840118285329
 20
109.049862820187
 30
0.0
 40
0.5400000000000063
 50
270.0
 51
0.0
  0
CIRCLE
  5
194
  8
1
 62
     7
 10
-138.57882863230739
 20
105.5098628201869
 30
0.0
 40
3.0
  0
CIRCLE
  5
195
  8
1
 62
     7
 10
-138.57882863230739
 20
105.5098628201869
 30
0.0
 40
6.0
  0
CIRCLE
  5
196
  8
1
 62
     7
 10
107.1868003589129
 20
105.5098628201869
 30
0.0
 40
3.0
  0
CIRCLE
  5
197
  8
1
 62
     7
 10
107.18634789444771
 20
116.51058779728
 30
0.0
 40
1.1999999999999891
  0
CIRCLE
  5
198
  8
1
 62
     3
 10
107.18634789444771
 20
116.51058779728
 30
0.0
 40
1.5
  0
CIRCLE
  5
199
  8
1
 62
     3
 10
97.660068452818862
 20
100.01058779728
 30
0.0
 40
1.4999999999999849
  0
CIRCLE
  5
19A
  8
1
 62
     7
 10
97.660068452818862
 20
100.01058779728
 30
0.0
 40
1.1999999999999891
  0
CIRCLE
  5
19B
  8
1
 62
     3
 10
116.71262733607649
 20
100.01058779728
 30
0.0
 40
1.5
  0
CIRCLE
  5
19C
  8
1
 62
     7
 10
116.71262733607649
 20
100.01058779728
 30
0.0
 40
1.2000000000000031
  0
CIRCLE
  5
19D
  8
1
 62
     7
 10
107.18634789444771
 20
105.51058779728
 30
0.0
 40
5.5
  0
CIRCLE
  5
19E
  8
1
 62
     7
 10
107.18634789444771
 20
105.51058779728
 30
0.0
 40
13.25
  0
CIRCLE
  5
19F
  8
1
 62
     7
 10
107.18634789444771
 20
105.51058779728
 30
0.0
 40
7.5
  0
CIRCLE
  5
1A0
  8
1
 62
     7
 10
107.1868003589129
 20
105.5098628201869
 30
0.0
 40
17.650000000000091
  0
TEXT
  5
1A1
  8
1
 62
     7
 10
-148.15179893496901
 20
169.88397524622201
 30
0.0
 40
3.5
  1
AMC 2.5
 41
0.9
  7
SIMPLEX
  0
ENDSEC
  0
EOF
