  0
SECTION
  2
HEADER
  9
$ACADVER
  1
AC1009
  9
$INSBASE
 10
0.0
 20
0.0
 30
0.0
  9
$EXTMIN
 10
-110.8272352747764
 20
256.5074804468311
 30
0.0
  9
$EXTMAX
 10
345.42745733580591
 20
388.22674467458921
 30
0.0
  9
$LIMMIN
 10
-110.8272352747764
 20
256.5074804468311
  9
$LIMMAX
 10
345.42745733580591
 20
388.2267446745891
  9
$ORTHOMODE
 70
     0
  9
$REGENMODE
 70
     1
  9
$FILLMODE
 70
     1
  9
$QTEXTMODE
 70
     0
  9
$MIRRTEXT
 70
     1
  9
$DRAGMODE
 70
     2
  9
$LTSCALE
 40
1.0
  9
$OSMODE
 70
    37
  9
$ATTMODE
 70
     1
  9
$TEXTSIZE
 40
3.5
  9
$TRACEWID
 40
0.5
  9
$TEXTSTYLE
  7
STANDARD
  9
$CLAYER
  8
0
  9
$CELTYPE
  6
BYLAYER
  9
$CECOLOR
 62
   256
  9
$DIMSCALE
 40
1.0
  9
$DIMASZ
 40
0.18
  9
$DIMEXO
 40
0.0625
  9
$DIMDLI
 40
0.38
  9
$DIMRND
 40
0.0
  9
$DIMDLE
 40
0.0
  9
$DIMEXE
 40
0.18
  9
$DIMTP
 40
0.0
  9
$DIMTM
 40
0.0
  9
$DIMTXT
 40
0.18
  9
$DIMCEN
 40
0.09
  9
$DIMTSZ
 40
0.0
  9
$DIMTOL
 70
     0
  9
$DIMLIM
 70
     0
  9
$DIMTIH
 70
     1
  9
$DIMTOH
 70
     1
  9
$DIMSE1
 70
     0
  9
$DIMSE2
 70
     0
  9
$DIMTAD
 70
     0
  9
$DIMZIN
 70
     0
  9
$DIMBLK
  1

  9
$DIMASO
 70
     1
  9
$DIMSHO
 70
     1
  9
$DIMPOST
  1

  9
$DIMAPOST
  1

  9
$DIMALT
 70
     0
  9
$DIMALTD
 70
     2
  9
$DIMALTF
 40
25.399999999999999
  9
$DIMLFAC
 40
1.0
  9
$DIMTOFL
 70
     0
  9
$DIMTVP
 40
0.0
  9
$DIMTIX
 70
     0
  9
$DIMSOXD
 70
     0
  9
$DIMSAH
 70
     0
  9
$DIMBLK1
  1

  9
$DIMBLK2
  1

  9
$DIMSTYLE
  2
STANDARD
  9
$DIMCLRD
 70
     0
  9
$DIMCLRE
 70
     0
  9
$DIMCLRT
 70
     0
  9
$DIMTFAC
 40
1.0
  9
$DIMGAP
 40
0.09
  9
$LUNITS
 70
     2
  9
$LUPREC
 70
     4
  9
$SKETCHINC
 40
0.1
  9
$FILLETRAD
 40
2.0
  9
$AUNITS
 70
     0
  9
$AUPREC
 70
     0
  9
$MENU
  1
ACAD
  9
$ELEVATION
 40
0.0
  9
$PELEVATION
 40
0.0
  9
$THICKNESS
 40
0.0
  9
$LIMCHECK
 70
     0
  9
$BLIPMODE
 70
     0
  9
$CHAMFERA
 40
0.0
  9
$CHAMFERB
 40
0.0
  9
$SKPOLY
 70
     0
  9
$TDCREATE
 40
2452093.8900434021
  9
$TDUPDATE
 40
2452093.890682986
  9
$TDINDWG
 40
0.0006420139
  9
$TDUSRTIMER
 40
0.0006420139
  9
$USRTIMER
 70
     1
  9
$ANGBASE
 50
0.0
  9
$ANGDIR
 70
     0
  9
$PDMODE
 70
     0
  9
$PDSIZE
 40
0.0
  9
$PLINEWID
 40
0.0
  9
$COORDS
 70
     1
  9
$SPLFRAME
 70
     0
  9
$SPLINETYPE
 70
     6
  9
$SPLINESEGS
 70
     8
  9
$ATTDIA
 70
     0
  9
$ATTREQ
 70
     1
  9
$HANDLING
 70
 10241
  9
$HANDSEED
  5
182
  9
$SURFTAB1
 70
     6
  9
$SURFTAB2
 70
     6
  9
$SURFTYPE
 70
     6
  9
$SURFU
 70
     6
  9
$SURFV
 70
     6
  9
$UCSNAME
  2

  9
$UCSORG
 10
0.0
 20
0.0
 30
0.0
  9
$UCSXDIR
 10
1.0
 20
0.0
 30
0.0
  9
$UCSYDIR
 10
0.0
 20
1.0
 30
0.0
  9
$PUCSNAME
  2

  9
$PUCSORG
 10
0.0
 20
0.0
 30
0.0
  9
$PUCSXDIR
 10
1.0
 20
0.0
 30
0.0
  9
$PUCSYDIR
 10
0.0
 20
1.0
 30
0.0
  9
$USERI1
 70
     0
  9
$USERI2
 70
     0
  9
$USERI3
 70
     0
  9
$USERI4
 70
     0
  9
$USERI5
 70
     0
  9
$USERR1
 40
0.0
  9
$USERR2
 40
0.0
  9
$USERR3
 40
0.0
  9
$USERR4
 40
0.0
  9
$USERR5
 40
0.0
  9
$WORLDVIEW
 70
     1
  9
$SHADEDGE
 70
     3
  9
$SHADEDIF
 70
    70
  9
$TILEMODE
 70
     1
  9
$MAXACTVP
 70
    64
  9
$PLIMCHECK
 70
     0
  9
$PEXTMIN
 10
1.0000000000000000E+020
 20
1.0000000000000000E+020
 30
1.0000000000000000E+020
  9
$PEXTMAX
 10
-1.0000000000000000E+020
 20
-1.0000000000000000E+020
 30
-1.0000000000000000E+020
  9
$PLIMMIN
 10
0.0
 20
0.0
  9
$PLIMMAX
 10
12.0
 20
9.0
  9
$UNITMODE
 70
     0
  9
$VISRETAIN
 70
     1
  9
$PLINEGEN
 70
     0
  9
$PSLTSCALE
 70
     1
  0
ENDSEC
  0
SECTION
  2
TABLES
  0
TABLE
  2
VPORT
 70
     2
  0
VPORT
  2
*ACTIVE
 70
     0
 10
0.0
 20
0.0
 11
1.0
 21
1.0
 12
-84.57280126490582
 22
384.79388423946313
 13
0.0
 23
0.0
 14
1.0
 24
1.0
 15
0.0
 25
0.0
 16
0.0
 26
0.0
 36
1.0
 17
0.0
 27
0.0
 37
0.0
 40
9.0000005910115561
 41
2.5693779904306222
 42
50.0
 43
0.0
 44
0.0
 50
0.0
 51
0.0
 71
     0
 72
   100
 73
     1
 74
     1
 75
     0
 76
     0
 77
     0
 78
     0
  0
ENDTAB
  0
TABLE
  2
LTYPE
 70
     9
  0
LTYPE
  2
CONTINUOUS
 70
     0
  3
Solid line
 72
    65
 73
     0
 40
0.0
  0
LTYPE
  2
BORDER
 70
     0
  3
__ __ . __ __ .
 72
    65
 73
     6
 40
21.011729264961019
 49
6.0033512185602946
 49
-3.001675609280146
 49
6.0033512185602946
 49
-3.001675609280146
 49
0.0
 49
-3.001675609280146
  0
LTYPE
  2
CENTER
 70
     0
  3
____ _ ____ _
 72
    65
 73
     4
 40
24.013404874241179
 49
15.00837804640074
 49
-3.001675609280146
 49
3.001675609280146
 49
-3.001675609280146
  0
LTYPE
  2
DASHDOT
 70
     0
  3
__ . __ . __ .
 72
    65
 73
     4
 40
12.006702437120589
 49
6.0033512185602946
 49
-3.001675609280146
 49
0.0
 49
-3.001675609280146
  0
LTYPE
  2
DASHED
 70
     0
  3
__ __ __ __ __
 72
    65
 73
     2
 40
9.0050268278404442
 49
6.0033512185602946
 49
-3.001675609280146
  0
LTYPE
  2
DIVIDE
 70
     0
  3
__ . . __ . . 
 72
    65
 73
     6
 40
15.00837804640074
 49
6.0033512185602946
 49
-3.001675609280146
 49
0.0
 49
-3.001675609280146
 49
0.0
 49
-3.001675609280146
  0
LTYPE
  2
DOT
 70
     0
  3
..............
 72
    65
 73
     4
 40
6.0033512185602946
 49
0.0
 49
-3.001675609280146
 49
0.0
 49
-3.001675609280146
  0
LTYPE
  2
HIDDEN
 70
     0
  3
_ _ _ _ _ _ _
 72
    65
 73
     2
 40
4.5025134139202221
 49
3.001675609280146
 49
-1.5008378046400741
  0
LTYPE
  2
PHANTOM
 70
     0
  3
_____ _ _ _____ _ _ 
 72
    65
 73
     6
 40
30.016756092801469
 49
15.00837804640074
 49
-3.001675609280146
 49
3.001675609280146
 49
-3.001675609280146
 49
3.001675609280146
 49
-3.001675609280146
  0
ENDTAB
  0
TABLE
  2
LAYER
 70
     2
  0
LAYER
  2
0
 70
     0
 62
     7
  6
CONTINUOUS
  0
LAYER
  2
1
 70
     0
 62
     7
  6
CONTINUOUS
  0
ENDTAB
  0
TABLE
  2
STYLE
 70
     4
  0
STYLE
  2
STANDARD
 70
     0
 40
0.0
 41
1.0
 50
0.0
 71
     0
 42
3.5
  3
txt
  4

  0
STYLE
  2
SIMPLEX
 70
     0
 40
0.0
 41
1.0
 50
0.0
 71
     0
 42
3.5
  3
simplex
  4

  0
STYLE
  2
COMPLEX
 70
     0
 40
0.0
 41
1.0
 50
0.0
 71
     0
 42
3.5
  3
complex
  4

  0
STYLE
  2
ITALIC
 70
     0
 40
0.0
 41
1.0
 50
0.0
 71
     0
 42
3.5
  3
italic
  4

  0
ENDTAB
  0
TABLE
  2
VIEW
 70
     0
  0
ENDTAB
  0
TABLE
  2
UCS
 70
     0
  0
ENDTAB
  0
TABLE
  2
APPID
 70
     1
  0
APPID
  2
ACAD
 70
     0
  0
ENDTAB
  0
TABLE
  2
DIMSTYLE
 70
     1
  0
DIMSTYLE
  2
STANDARD
 70
     0
  3

  4

  5

  6

  7

 40
1.0
 41
0.18
 42
0.0625
 43
0.38
 44
0.18
 45
0.0
 46
0.0
 47
0.0
 48
0.0
140
0.18
141
0.09
142
0.0
143
25.399999999999999
144
1.0
145
0.0
146
1.0
147
0.09
 71
     0
 72
     0
 73
     1
 74
     1
 75
     0
 76
     0
 77
     0
 78
     0
170
     0
171
     2
172
     0
173
     0
174
     0
175
     0
176
     0
177
     0
178
     0
  0
ENDTAB
  0
ENDSEC
  0
SECTION
  2
BLOCKS
  0
BLOCK
  8
0
  2
$MODEL_SPACE
 70
     0
 10
0.0
 20
0.0
 30
0.0
  3
$MODEL_SPACE
  1

  0
ENDBLK
  5
20
  8
0
  0
BLOCK
 67
     1
  8
0
  2
$PAPER_SPACE
 70
     0
 10
0.0
 20
0.0
 30
0.0
  3
$PAPER_SPACE
  1

  0
ENDBLK
  5
1C
 67
     1
  8
0
  0
ENDSEC
  0
SECTION
  2
ENTITIES
  0
LINE
  5
33
  8
1
  6
DASHDOT
 62
     3
 10
76.43780270827439
 20
287.15748044683107
 30
0.0
 11
80.437802708274376
 21
287.15748044683107
 31
0.0
  0
LINE
  5
34
  8
1
  6
DASHDOT
 62
     3
 10
24.437802708274379
 20
287.15748044683107
 30
0.0
 11
20.43780270827439
 21
287.15748044683107
 31
0.0
  0
LINE
  5
35
  8
1
 62
     7
 10
63.737802708274401
 20
256.5074804468311
 30
0.0
 11
59.737802708274401
 21
256.5074804468311
 31
0.0
  0
LINE
  5
36
  8
1
 62
     7
 10
63.737802708274401
 20
317.80748044683128
 30
0.0
 11
63.737802708274401
 21
256.5074804468311
 31
0.0
  0
LINE
  5
37
  8
1
 62
     7
 10
59.737802708274401
 20
317.80748044683128
 30
0.0
 11
63.737802708274401
 21
317.80748044683128
 31
0.0
  0
LINE
  5
38
  8
1
 62
     7
 10
63.737802708274401
 20
317.15748044683119
 30
0.0
 11
64.237802708274401
 21
317.15748044683119
 31
0.0
  0
LINE
  5
39
  8
1
 62
     7
 10
64.237802708274401
 20
317.15748044683119
 30
0.0
 11
64.237802708274401
 21
257.15748044683107
 31
0.0
  0
LINE
  5
3A
  8
1
 62
     7
 10
64.237802708274401
 20
257.15748044683107
 30
0.0
 11
63.737802708274401
 21
257.15748044683107
 31
0.0
  0
LINE
  5
3B
  8
1
 62
     7
 10
76.43780270827439
 20
262.65748044683107
 30
0.0
 11
64.237802708274401
 21
262.65748044683107
 31
0.0
  0
LINE
  5
3C
  8
1
 62
     7
 10
76.43780270827439
 20
311.65748044683107
 30
0.0
 11
64.237802708274401
 21
311.65748044683107
 31
0.0
  0
LINE
  5
3D
  8
1
 62
     7
 10
76.43780270827439
 20
311.65748044683107
 30
0.0
 11
76.43780270827439
 21
262.65748044683107
 31
0.0
  0
LINE
  5
3E
  8
1
 62
     7
 10
59.737802708274401
 20
317.80748044683128
 30
0.0
 11
59.737802708274401
 21
256.5074804468311
 31
0.0
  0
LINE
  5
3F
  8
1
 62
     7
 10
54.93780270827439
 20
258.90748044683119
 30
0.0
 11
54.437802708274383
 21
258.90748044683119
 31
0.0
  0
LINE
  5
40
  8
1
 62
     7
 10
56.236840813951041
 20
317.65748044683107
 30
0.0
 11
59.437802708274383
 21
317.65748044683107
 31
0.0
  0
LINE
  5
41
  8
1
 62
     7
 10
56.236840813951041
 20
317.65748044683107
 30
0.0
 11
54.93780270827439
 21
315.40748044683119
 31
0.0
  0
LINE
  5
42
  8
1
 62
     7
 10
54.93780270827439
 20
258.90748044683119
 30
0.0
 11
56.236840813951041
 21
256.65748044683119
 31
0.0
  0
LINE
  5
43
  8
1
 62
     7
 10
59.437802708274383
 20
317.65748044683107
 30
0.0
 11
59.437802708274383
 21
256.65748044683119
 31
0.0
  0
LINE
  5
44
  8
1
 62
     7
 10
59.437802708274383
 20
277.15748044683107
 30
0.0
 11
59.737802708274401
 21
277.15748044683107
 31
0.0
  0
LINE
  5
45
  8
1
 62
     7
 10
59.437802708274383
 20
256.65748044683119
 30
0.0
 11
56.236840813951041
 21
256.65748044683119
 31
0.0
  0
LINE
  5
46
  8
1
 62
     7
 10
31.43780270827445
 20
318.00748044683132
 30
0.0
 11
36.437802708274447
 21
318.00748044683132
 31
0.0
  0
LINE
  5
47
  8
1
 62
     7
 10
54.437802708274383
 20
317.65748044683107
 30
0.0
 11
27.43780270827439
 21
317.65748044683107
 31
0.0
  0
LINE
  5
48
  8
1
 62
     7
 10
27.43780270827439
 20
317.65748044683107
 30
0.0
 11
26.43780270827439
 21
316.65748044683107
 31
0.0
  0
LINE
  5
49
  8
1
 62
     7
 10
26.43780270827439
 20
257.65748044683107
 30
0.0
 11
27.43780270827439
 21
256.65748044683119
 31
0.0
  0
LINE
  5
4A
  8
1
 62
     7
 10
27.43780270827439
 20
256.65748044683119
 30
0.0
 11
54.437802708274383
 21
256.65748044683119
 31
0.0
  0
LINE
  5
4B
  8
1
 62
     7
 10
26.43780270827439
 20
259.65748044683107
 30
0.0
 11
24.437802708274379
 21
259.65748044683107
 31
0.0
  0
LINE
  5
4C
  8
1
 62
     7
 10
24.437802708274379
 20
337.15748044683107
 30
0.0
 11
26.43780270827439
 21
337.15748044683107
 31
0.0
  0
LINE
  5
4D
  8
1
 62
     7
 10
34.857802708274413
 20
342.93911438365342
 30
0.0
 11
34.857802708274413
 21
318.00748044683132
 31
0.0
  0
LINE
  5
4E
  8
1
 62
     7
 10
33.01780270827436
 20
342.93911438365342
 30
0.0
 11
33.01780270827436
 21
318.00748044683132
 31
0.0
  0
LINE
  5
4F
  8
1
 62
     7
 10
26.43780270827439
 20
337.15748044683107
 30
0.0
 11
26.43780270827439
 21
257.65748044683107
 31
0.0
  0
LINE
  5
50
  8
1
 62
     7
 10
24.437802708274379
 20
337.15748044683107
 30
0.0
 11
24.437802708274379
 21
259.65748044683107
 31
0.0
  0
LINE
  5
51
  8
1
 62
     7
 10
31.43780270827445
 20
318.00748044683132
 30
0.0
 11
31.43780270827439
 21
317.65748044683107
 31
0.0
  0
LINE
  5
52
  8
1
 62
     7
 10
36.437802708274447
 20
318.00748044683132
 30
0.0
 11
36.437802708274447
 21
317.65748044683107
 31
0.0
  0
LINE
  5
53
  8
1
  6
DASHDOT
 62
     3
 10
158.0124193527551
 20
287.15748044683107
 30
0.0
 11
154.0124193527551
 21
287.15748044683107
 31
0.0
  0
LINE
  5
54
  8
1
  6
DASHDOT
 62
     3
 10
210.01241935275519
 20
287.15748044683107
 30
0.0
 11
214.01241935275519
 21
287.15748044683107
 31
0.0
  0
LINE
  5
55
  8
1
 62
     7
 10
197.31241935275509
 20
301.65748044683107
 30
0.0
 11
193.3124193527552
 21
301.65748044683107
 31
0.0
  0
LINE
  5
56
  8
1
 62
     7
 10
193.3124193527552
 20
268.15748044683107
 30
0.0
 11
197.31241935275509
 21
268.15748044683107
 31
0.0
  0
LINE
  5
57
  8
1
 62
     7
 10
195.3124193527552
 20
311.85748044683112
 30
0.0
 11
193.3124193527552
 21
311.85748044683112
 31
0.0
  0
LINE
  5
58
  8
1
 62
     7
 10
195.3124193527552
 20
317.2574804468311
 30
0.0
 11
195.3124193527552
 21
311.85748044683112
 31
0.0
  0
LINE
  5
59
  8
1
 62
     7
 10
193.3124193527552
 20
317.2574804468311
 30
0.0
 11
195.3124193527552
 21
317.2574804468311
 31
0.0
  0
LINE
  5
5A
  8
1
 62
     7
 10
197.31241935275509
 20
256.5074804468311
 30
0.0
 11
193.3124193527552
 21
256.5074804468311
 31
0.0
  0
LINE
  5
5B
  8
1
 62
     7
 10
197.31241935275509
 20
317.80748044683128
 30
0.0
 11
197.31241935275509
 21
316.15748044683107
 31
0.0
  0
LINE
  5
5C
  8
1
 62
     7
 10
193.3124193527552
 20
317.80748044683128
 30
0.0
 11
197.31241935275509
 21
317.80748044683128
 31
0.0
  0
LINE
  5
5D
  8
1
 62
     7
 10
197.31241935275509
 20
317.15748044683119
 30
0.0
 11
197.8124193527552
 21
317.15748044683119
 31
0.0
  0
LINE
  5
5E
  8
1
 62
     7
 10
197.8124193527552
 20
317.15748044683119
 30
0.0
 11
197.8124193527552
 21
297.15748044683107
 31
0.0
  0
LINE
  5
5F
  8
1
 62
     7
 10
197.8124193527552
 20
257.15748044683107
 30
0.0
 11
197.31241935275509
 21
257.15748044683107
 31
0.0
  0
LINE
  5
60
  8
1
 62
     7
 10
194.3124193527552
 20
312.75748044683132
 30
0.0
 11
194.3124193527552
 21
316.35748044683112
 31
0.0
  0
LINE
  5
61
  8
1
 62
     7
 10
197.31241935275509
 20
312.95748044683131
 30
0.0
 11
197.31241935275509
 21
297.15748044683107
 31
0.0
  0
LINE
  5
62
  8
1
 62
     7
 10
195.3124193527552
 20
316.15748044683107
 30
0.0
 11
197.8124193527552
 21
316.15748044683107
 31
0.0
  0
LINE
  5
63
  8
1
 62
     7
 10
195.3124193527552
 20
312.95748044683131
 30
0.0
 11
197.8124193527552
 21
312.95748044683131
 31
0.0
  0
LINE
  5
64
  8
1
 62
     7
 10
207.01241935275519
 20
301.15748044683107
 30
0.0
 11
207.01241935275519
 21
292.81433469632361
 31
0.0
  0
LINE
  5
65
  8
1
 62
     7
 10
210.01241935275519
 20
301.15748044683107
 30
0.0
 11
207.01241935275519
 21
301.15748044683107
 31
0.0
  0
LINE
  5
66
  8
1
 62
     7
 10
197.8124193527552
 20
276.15748044683107
 30
0.0
 11
207.01241935275519
 21
276.15748044683107
 31
0.0
  0
LINE
  5
67
  8
1
 62
     7
 10
197.8124193527552
 20
298.15748044683119
 30
0.0
 11
207.01241935275519
 21
298.15748044683119
 31
0.0
  0
LINE
  5
68
  8
1
 62
     7
 10
210.01241935275519
 20
262.65748044683107
 30
0.0
 11
197.8124193527552
 21
262.65748044683107
 31
0.0
  0
LINE
  5
69
  8
1
 62
     7
 10
210.01241935275519
 20
311.65748044683107
 30
0.0
 11
197.8124193527552
 21
311.65748044683107
 31
0.0
  0
LINE
  5
6A
  8
1
 62
     7
 10
210.01241935275519
 20
311.65748044683107
 30
0.0
 11
210.01241935275519
 21
301.15748044683107
 31
0.0
  0
LINE
  5
6B
  8
1
 62
     7
 10
207.01241935275519
 20
273.15748044683119
 30
0.0
 11
210.01241935275519
 21
273.15748044683119
 31
0.0
  0
LINE
  5
6C
  8
1
 62
     3
 10
197.8124193527552
 20
306.65748044683119
 30
0.0
 11
210.01241935275519
 21
306.65748044683119
 31
0.0
  0
LINE
  5
6D
  8
1
 62
     3
 10
197.8124193527552
 20
309.65748044683107
 30
0.0
 11
210.01241935275519
 21
309.65748044683107
 31
0.0
  0
LINE
  5
6E
  8
1
  6
CENTER
 62
     3
 10
195.81241935275509
 20
308.15748044683107
 30
0.0
 11
212.01241935275519
 21
308.15748044683107
 31
0.0
  0
LINE
  5
6F
  8
1
 62
     7
 10
197.8124193527552
 20
306.95748044683131
 30
0.0
 11
210.01241935275519
 21
306.95748044683131
 31
0.0
  0
LINE
  5
70
  8
1
 62
     7
 10
197.8124193527552
 20
309.35748044683112
 30
0.0
 11
210.01241935275519
 21
309.35748044683112
 31
0.0
  0
LINE
  5
71
  8
1
 62
     7
 10
197.31241935275509
 20
269.15748044683119
 30
0.0
 11
193.61241935275521
 21
269.15748044683119
 31
0.0
  0
LINE
  5
72
  8
1
 62
     7
 10
193.61241935275521
 20
269.15748044683119
 30
0.0
 11
193.3124193527552
 21
269.67709568910192
 31
0.0
  0
LINE
  5
73
  8
1
 62
     7
 10
193.3124193527552
 20
275.63786520456051
 30
0.0
 11
193.61241935275521
 21
276.15748044683107
 31
0.0
  0
LINE
  5
74
  8
1
 62
     7
 10
193.61241935275521
 20
276.15748044683107
 30
0.0
 11
197.31241935275509
 21
276.15748044683107
 31
0.0
  0
LINE
  5
75
  8
1
 62
     7
 10
193.61241935275521
 20
269.15748044683119
 30
0.0
 11
193.61241935275521
 21
276.15748044683107
 31
0.0
  0
LINE
  5
76
  8
1
 62
     7
 10
197.31241935275509
 20
270.65748044683107
 30
0.0
 11
202.71241935275509
 21
270.65748044683107
 31
0.0
  0
LINE
  5
77
  8
1
 62
     7
 10
202.71241935275509
 20
270.65748044683107
 30
0.0
 11
203.3124193527552
 21
271.2574804468311
 31
0.0
  0
LINE
  5
78
  8
1
 62
     7
 10
203.3124193527552
 20
274.05748044683128
 30
0.0
 11
202.71241935275509
 21
274.65748044683107
 31
0.0
  0
LINE
  5
79
  8
1
 62
     7
 10
202.71241935275509
 20
274.65748044683107
 30
0.0
 11
197.31241935275509
 21
274.65748044683107
 31
0.0
  0
LINE
  5
7A
  8
1
 62
     7
 10
202.71241935275509
 20
270.65748044683107
 30
0.0
 11
202.71241935275509
 21
274.65748044683107
 31
0.0
  0
LINE
  5
7B
  8
1
 62
     7
 10
198.85164983729661
 20
270.65748044683107
 30
0.0
 11
198.85164983729661
 21
274.65748044683107
 31
0.0
  0
LINE
  5
7C
  8
1
 62
     3
 10
203.3124193527552
 20
271.2574804468311
 30
0.0
 11
198.85164983729661
 21
271.2574804468311
 31
0.0
  0
LINE
  5
7D
  8
1
 62
     3
 10
198.85164983729661
 20
271.2574804468311
 30
0.0
 11
197.8124193527552
 21
270.65748044683107
 31
0.0
  0
LINE
  5
7E
  8
1
 62
     3
 10
203.3124193527552
 20
274.05748044683128
 30
0.0
 11
198.85164983729661
 21
274.05748044683128
 31
0.0
  0
LINE
  5
7F
  8
1
 62
     3
 10
198.85164983729661
 20
274.05748044683128
 30
0.0
 11
197.8124193527552
 21
274.65748044683107
 31
0.0
  0
LINE
  5
80
  8
1
 62
     7
 10
197.8124193527552
 20
270.65748044683107
 30
0.0
 11
197.8124193527552
 21
257.15748044683107
 31
0.0
  0
LINE
  5
81
  8
1
 62
     7
 10
204.91241935275519
 20
274.2574804468311
 30
0.0
 11
203.11241935275521
 21
274.2574804468311
 31
0.0
  0
LINE
  5
82
  8
1
 62
     7
 10
204.91241935275519
 20
274.2574804468311
 30
0.0
 11
204.91241935275519
 21
271.05748044683128
 31
0.0
  0
LINE
  5
83
  8
1
 62
     7
 10
204.91241935275519
 20
271.05748044683128
 30
0.0
 11
203.11241935275521
 21
271.05748044683128
 31
0.0
  0
LINE
  5
84
  8
1
 62
     7
 10
204.91241935275519
 20
274.2574804468311
 30
0.0
 11
205.83617978345859
 21
272.65748044683107
 31
0.0
  0
LINE
  5
85
  8
1
 62
     7
 10
205.83617978345859
 20
272.65748044683107
 30
0.0
 11
204.91241935275519
 21
271.05748044683128
 31
0.0
  0
LINE
  5
86
  8
1
 62
     7
 10
193.3124193527552
 20
317.80748044683128
 30
0.0
 11
193.3124193527552
 21
297.15748044683107
 31
0.0
  0
LINE
  5
87
  8
1
 62
     7
 10
203.3124193527552
 20
274.2574804468311
 30
0.0
 11
203.3124193527552
 21
271.05748044683111
 31
0.0
  0
LINE
  5
88
  8
1
 62
     7
 10
193.3124193527552
 20
277.15748044683107
 30
0.0
 11
193.3124193527552
 21
256.5074804468311
 31
0.0
  0
LINE
  5
89
  8
1
 62
     7
 10
197.31241935275509
 20
277.15748044683107
 30
0.0
 11
197.31241935275509
 21
256.5074804468311
 31
0.0
  0
LINE
  5
8A
  8
1
 62
     7
 10
197.8124193527552
 20
277.15748044683107
 30
0.0
 11
197.8124193527552
 21
274.65748044683107
 31
0.0
  0
LINE
  5
8B
  8
1
 62
     7
 10
160.0124193527551
 20
257.6574804468313
 30
0.0
 11
160.0124193527551
 21
280.19748044683132
 31
0.0
  0
LINE
  5
8C
  8
1
 62
     7
 10
178.01241935275519
 20
278.15748044683119
 30
0.0
 11
176.01241935275519
 21
278.15748044683119
 31
0.0
  0
LINE
  5
8D
  8
1
 62
     7
 10
178.01241935275519
 20
273.70748044683131
 30
0.0
 11
178.01241935275519
 21
278.15748044683119
 31
0.0
  0
LINE
  5
8E
  8
1
 62
     7
 10
185.01241935275519
 20
273.70748044683131
 30
0.0
 11
178.01241935275519
 21
273.70748044683131
 31
0.0
  0
LINE
  5
8F
  8
1
 62
     7
 10
185.01241935275519
 20
258.90748044683119
 30
0.0
 11
185.01241935275519
 21
273.70748044683131
 31
0.0
  0
LINE
  5
90
  8
1
 62
     7
 10
188.51241935275519
 20
258.90748044683119
 30
0.0
 11
185.01241935275519
 21
258.90748044683119
 31
0.0
  0
LINE
  5
91
  8
1
 62
     7
 10
207.01241935275519
 20
277.1574804468313
 30
0.0
 11
193.01241935275519
 21
277.1574804468313
 31
0.0
  0
LINE
  5
92
  8
1
 62
     7
 10
192.01241935275519
 20
276.6574804468313
 30
0.0
 11
192.01241935275519
 21
268.9074804468313
 31
0.0
  0
LINE
  5
93
  8
1
 62
     7
 10
193.01241935275519
 20
256.65748044683119
 30
0.0
 11
189.8114574584319
 21
256.65748044683119
 31
0.0
  0
LINE
  5
94
  8
1
 62
     7
 10
188.51241935275519
 20
258.90748044683119
 30
0.0
 11
189.8114574584319
 21
256.65748044683119
 31
0.0
  0
LINE
  5
95
  8
1
 62
     7
 10
193.01241935275519
 20
277.1574804468313
 30
0.0
 11
193.01241935275519
 21
256.65748044683119
 31
0.0
  0
LINE
  5
96
  8
1
 62
     7
 10
192.51241935275519
 20
277.1574804468313
 30
0.0
 11
193.01241935275519
 21
277.1574804468313
 31
0.0
  0
LINE
  5
97
  8
1
 62
     7
 10
192.01241935275519
 20
268.9074804468313
 30
0.0
 11
193.01241935275519
 21
267.9074804468313
 31
0.0
  0
LINE
  5
98
  8
1
 62
     7
 10
161.0124193527551
 20
256.65748044683119
 30
0.0
 11
188.01241935275519
 21
256.65748044683119
 31
0.0
  0
LINE
  5
99
  8
1
 62
     7
 10
188.01241935275519
 20
258.90748044683119
 30
0.0
 11
188.01241935275519
 21
256.65748044683119
 31
0.0
  0
LINE
  5
9A
  8
1
 62
     7
 10
177.21241935275521
 20
273.1574804468313
 30
0.0
 11
184.01241935275519
 21
273.1574804468313
 31
0.0
  0
LINE
  5
9B
  8
1
 62
     7
 10
184.01241935275519
 20
273.70748044683131
 30
0.0
 11
184.01241935275519
 21
257.85748044683129
 31
0.0
  0
LINE
  5
9C
  8
1
 62
     7
 10
188.01241935275519
 20
257.85748044683129
 30
0.0
 11
184.01241935275519
 21
257.85748044683129
 31
0.0
  0
LINE
  5
9D
  8
1
 62
     7
 10
177.21241935275521
 20
272.45748044683131
 30
0.0
 11
175.86241935275521
 21
272.45748044683131
 31
0.0
  0
LINE
  5
9E
  8
1
 62
     7
 10
177.21241935275521
 20
278.15748044683119
 30
0.0
 11
177.21241935275521
 21
272.45748044683131
 31
0.0
  0
LINE
  5
9F
  8
1
 62
     7
 10
160.0124193527551
 20
257.6574804468313
 30
0.0
 11
161.0124193527551
 21
256.65748044683119
 31
0.0
  0
LINE
  5
A0
  8
1
 62
     7
 10
160.0124193527551
 20
275.1574804468313
 30
0.0
 11
158.0124193527551
 21
275.1574804468313
 31
0.0
  0
LINE
  5
A1
  8
1
 62
     7
 10
167.05241935275509
 20
281.1574804468313
 30
0.0
 11
160.97241935275511
 21
281.1574804468313
 31
0.0
  0
LINE
  5
A2
  8
1
 62
     7
 10
170.81241935275509
 20
275.0790194777486
 30
0.0
 11
165.21241935275509
 21
275.0790194777486
 31
0.0
  0
LINE
  5
A3
  8
1
 62
     7
 10
160.0124193527551
 20
275.0790194777486
 30
0.0
 11
162.81241935275509
 21
275.0790194777486
 31
0.0
  0
LINE
  5
A4
  8
1
 62
     7
 10
160.0124193527551
 20
279.23594141591389
 30
0.0
 11
162.81241935275509
 21
279.23594141591389
 31
0.0
  0
LINE
  5
A5
  8
1
 62
     7
 10
170.81241935275509
 20
279.23594141591389
 30
0.0
 11
165.21241935275509
 21
279.23594141591389
 31
0.0
  0
LINE
  5
A6
  8
1
 62
     7
 10
175.05241935275521
 20
281.1574804468313
 30
0.0
 11
168.9724193527552
 21
281.1574804468313
 31
0.0
  0
LINE
  5
A7
  8
1
 62
     7
 10
176.01241935275519
 20
275.0790194777486
 30
0.0
 11
173.21241935275509
 21
275.0790194777486
 31
0.0
  0
LINE
  5
A8
  8
1
 62
     7
 10
176.01241935275519
 20
279.23594141591389
 30
0.0
 11
173.21241935275509
 21
279.23594141591389
 31
0.0
  0
LINE
  5
A9
  8
1
 62
     7
 10
175.86241935275521
 20
273.1574804468313
 30
0.0
 11
160.0124193527551
 21
273.1574804468313
 31
0.0
  0
LINE
  5
AA
  8
1
 62
     7
 10
175.86241935275521
 20
272.45748044683131
 30
0.0
 11
175.86241935275521
 21
273.60221352571182
 31
0.0
  0
LINE
  5
AB
  8
1
 62
     7
 10
177.21241935275521
 20
275.10748044683129
 30
0.0
 11
176.01241935275519
 21
275.10748044683129
 31
0.0
  0
LINE
  5
AC
  8
1
 62
     7
 10
321.03605488003132
 20
317.62409854749308
 30
0.0
 11
327.55354600473129
 21
341.94770656275313
 31
0.0
  0
LINE
  5
AD
  8
1
  6
CENTER
 62
     3
 10
299.36220514844291
 20
278.25748044683132
 30
0.0
 11
293.81964256422259
 21
275.05748044683128
 31
0.0
  0
LINE
  5
AE
  8
1
  6
CENTER
 62
     3
 10
314.77745733580588
 20
304.95748044683131
 30
0.0
 11
314.7774573358061
 21
311.35748044683112
 31
0.0
  0
LINE
  5
AF
  8
1
  6
DASHDOT
 62
     3
 10
318.15640983217099
 20
287.15748044683107
 30
0.0
 11
311.3985048394411
 21
287.15748044683107
 31
0.0
  0
LINE
  5
B0
  8
1
  6
CENTER
 62
     3
 10
314.77745733580588
 20
290.53643294319608
 30
0.0
 11
314.77745733580588
 21
283.7785279504663
 31
0.0
  0
LINE
  5
B1
  8
1
 62
     7
 10
176.01241935275519
 20
296.15748044683119
 30
0.0
 11
178.01241935275519
 21
296.15748044683119
 31
0.0
  0
LINE
  5
B2
  8
1
 62
     7
 10
178.01241935275519
 20
296.15748044683119
 30
0.0
 11
178.01241935275519
 21
300.60748044683112
 31
0.0
  0
LINE
  5
B3
  8
1
 62
     7
 10
178.01241935275519
 20
300.60748044683112
 30
0.0
 11
185.01241935275519
 21
300.60748044683112
 31
0.0
  0
LINE
  5
B4
  8
1
 62
     7
 10
185.01241935275519
 20
300.60748044683112
 30
0.0
 11
185.01241935275519
 21
315.40748044683119
 31
0.0
  0
LINE
  5
B5
  8
1
 62
     7
 10
185.01241935275519
 20
315.40748044683119
 30
0.0
 11
189.01241935275519
 21
315.40748044683119
 31
0.0
  0
LINE
  5
B6
  8
1
 62
     7
 10
193.01241935275519
 20
297.15748044683107
 30
0.0
 11
207.01241935275519
 21
297.15748044683107
 31
0.0
  0
LINE
  5
B7
  8
1
 62
     7
 10
192.01241935275519
 20
305.40748044683107
 30
0.0
 11
192.01241935275519
 21
297.65748044683107
 31
0.0
  0
LINE
  5
B8
  8
1
 62
     7
 10
189.8114574584319
 20
317.65748044683107
 30
0.0
 11
193.01241935275519
 21
317.65748044683107
 31
0.0
  0
LINE
  5
B9
  8
1
 62
     7
 10
189.8114574584319
 20
317.65748044683107
 30
0.0
 11
189.01241935275519
 21
315.40748044683119
 31
0.0
  0
LINE
  5
BA
  8
1
 62
     7
 10
176.01241935275519
 20
294.65748044683119
 30
0.0
 11
207.01241935275519
 21
294.65748044683119
 31
0.0
  0
LINE
  5
BB
  8
1
 62
     7
 10
176.01241935275519
 20
292.81433469632361
 30
0.0
 11
207.01241935275519
 21
292.81433469632361
 31
0.0
  0
LINE
  5
BC
  8
1
 62
     7
 10
193.01241935275519
 20
317.65748044683107
 30
0.0
 11
193.01241935275519
 21
297.15748044683107
 31
0.0
  0
LINE
  5
BD
  8
1
 62
     7
 10
193.01241935275519
 20
297.15748044683107
 30
0.0
 11
192.51241935275519
 21
297.15748044683107
 31
0.0
  0
LINE
  5
BE
  8
1
 62
     7
 10
193.01241935275519
 20
306.40748044683119
 30
0.0
 11
192.01241935275519
 21
305.40748044683107
 31
0.0
  0
LINE
  5
BF
  8
1
 62
     7
 10
165.0124193527553
 20
318.00748044683132
 30
0.0
 11
170.0124193527553
 21
318.00748044683132
 31
0.0
  0
LINE
  5
C0
  8
1
 62
     7
 10
188.01241935275519
 20
317.65748044683107
 30
0.0
 11
161.0124193527551
 21
317.65748044683107
 31
0.0
  0
LINE
  5
C1
  8
1
 62
     7
 10
188.01241935275519
 20
317.65748044683107
 30
0.0
 11
188.01241935275519
 21
315.40748044683119
 31
0.0
  0
LINE
  5
C2
  8
1
 62
     7
 10
184.01241935275519
 20
301.15748044683107
 30
0.0
 11
177.21241935275521
 21
301.15748044683107
 31
0.0
  0
LINE
  5
C3
  8
1
 62
     7
 10
184.01241935275519
 20
316.45748044683108
 30
0.0
 11
184.01241935275519
 21
300.60748044683112
 31
0.0
  0
LINE
  5
C4
  8
1
 62
     7
 10
184.01241935275519
 20
316.45748044683108
 30
0.0
 11
188.01241935275519
 21
316.45748044683108
 31
0.0
  0
LINE
  5
C5
  8
1
 62
     7
 10
175.86241935275521
 20
301.85748044683112
 30
0.0
 11
177.21241935275521
 21
301.85748044683112
 31
0.0
  0
LINE
  5
C6
  8
1
 62
     7
 10
177.21241935275521
 20
301.85748044683112
 30
0.0
 11
177.21241935275521
 21
296.15748044683119
 31
0.0
  0
LINE
  5
C7
  8
1
 62
     7
 10
161.0124193527551
 20
317.65748044683107
 30
0.0
 11
160.0124193527551
 21
316.65748044683107
 31
0.0
  0
LINE
  5
C8
  8
1
 62
     7
 10
158.0124193527551
 20
323.05748044683128
 30
0.0
 11
160.0124193527551
 21
323.05748044683128
 31
0.0
  0
LINE
  5
C9
  8
1
 62
     7
 10
158.0124193527551
 20
334.25748044683132
 30
0.0
 11
160.0124193527551
 21
334.25748044683132
 31
0.0
  0
LINE
  5
CA
  8
1
 62
     7
 10
158.0124193527551
 20
299.15748044683119
 30
0.0
 11
160.0124193527551
 21
299.15748044683119
 31
0.0
  0
LINE
  5
CB
  8
1
 62
     7
 10
160.0124193527551
 20
259.65748044683107
 30
0.0
 11
158.0124193527551
 21
259.65748044683107
 31
0.0
  0
LINE
  5
CC
  8
1
 62
     7
 10
158.0124193527551
 20
259.65748044683107
 30
0.0
 11
158.0124193527551
 21
275.1574804468313
 31
0.0
  0
LINE
  5
CD
  8
1
 62
     7
 10
158.0124193527551
 20
337.15748044683107
 30
0.0
 11
160.0124193527551
 21
337.15748044683107
 31
0.0
  0
LINE
  5
CE
  8
1
 62
     3
 10
167.90241935275509
 20
345.89991952829132
 30
0.0
 11
167.90241935275509
 21
342.93911438365342
 31
0.0
  0
LINE
  5
CF
  8
1
 62
     3
 10
167.12241935275509
 20
342.93911438365342
 30
0.0
 11
167.12241935275509
 21
345.89991952829132
 31
0.0
  0
LINE
  5
D0
  8
1
 62
     7
 10
166.59241935275509
 20
342.93911438365342
 30
0.0
 11
168.43241935275509
 21
342.93911438365342
 31
0.0
  0
LINE
  5
D1
  8
1
 62
     7
 10
168.43241935275509
 20
342.93911438365342
 30
0.0
 11
168.43241935275509
 21
318.00748044683132
 31
0.0
  0
LINE
  5
D2
  8
1
 62
     7
 10
166.59241935275509
 20
342.93911438365342
 30
0.0
 11
166.59241935275509
 21
318.00748044683132
 31
0.0
  0
LINE
  5
D3
  8
1
 62
     7
 10
160.97241935275511
 20
293.15748044683107
 30
0.0
 11
167.05241935275509
 21
293.15748044683107
 31
0.0
  0
LINE
  5
D4
  8
1
 62
     7
 10
165.21241935275509
 20
299.23594141591389
 30
0.0
 11
170.81241935275509
 21
299.23594141591389
 31
0.0
  0
LINE
  5
D5
  8
1
 62
     7
 10
162.81241935275509
 20
299.23594141591389
 30
0.0
 11
160.0124193527551
 21
299.23594141591389
 31
0.0
  0
LINE
  5
D6
  8
1
 62
     7
 10
162.81241935275509
 20
295.0790194777486
 30
0.0
 11
160.0124193527551
 21
295.0790194777486
 31
0.0
  0
LINE
  5
D7
  8
1
 62
     7
 10
165.21241935275509
 20
295.0790194777486
 30
0.0
 11
170.81241935275509
 21
295.0790194777486
 31
0.0
  0
LINE
  5
D8
  8
1
 62
     7
 10
168.9724193527552
 20
293.15748044683107
 30
0.0
 11
175.05241935275521
 21
293.15748044683107
 31
0.0
  0
LINE
  5
D9
  8
1
 62
     7
 10
173.21241935275509
 20
299.23594141591389
 30
0.0
 11
176.01241935275519
 21
299.23594141591389
 31
0.0
  0
LINE
  5
DA
  8
1
 62
     7
 10
173.21241935275509
 20
295.0790194777486
 30
0.0
 11
176.01241935275519
 21
295.0790194777486
 31
0.0
  0
LINE
  5
DB
  8
1
 62
     7
 10
160.0124193527551
 20
301.15748044683107
 30
0.0
 11
175.86241935275521
 21
301.15748044683107
 31
0.0
  0
LINE
  5
DC
  8
1
 62
     7
 10
175.86241935275521
 20
300.71274736795078
 30
0.0
 11
175.86241935275521
 21
301.85748044683112
 31
0.0
  0
LINE
  5
DD
  8
1
 62
     7
 10
176.01241935275519
 20
299.2074804468312
 30
0.0
 11
177.21241935275521
 21
299.2074804468312
 31
0.0
  0
LINE
  5
DE
  8
1
 62
     7
 10
168.0124193527551
 20
300.19748044683132
 30
0.0
 11
168.0124193527551
 21
294.11748044683111
 31
0.0
  0
LINE
  5
DF
  8
1
 62
     7
 10
176.01241935275519
 20
301.85748044683112
 30
0.0
 11
176.01241935275519
 21
292.81433469632361
 31
0.0
  0
LINE
  5
E0
  8
1
  6
CENTER
 62
     3
 10
330.19270952316913
 20
278.2574804468311
 30
0.0
 11
335.73527210738939
 21
275.05748044683111
 31
0.0
  0
LINE
  5
E1
  8
1
 62
     7
 10
312.17745733580608
 20
331.65748044683119
 30
0.0
 11
312.17745733580608
 21
325.65748044683119
 31
0.0
  0
LINE
  5
E2
  8
1
 62
     7
 10
317.37745733580613
 20
331.65748044683119
 30
0.0
 11
317.37745733580613
 21
325.65748044683119
 31
0.0
  0
LINE
  5
E3
  8
1
 62
     7
 10
320.77745733580588
 20
336.15748044683119
 30
0.0
 11
320.77745733580588
 21
317.69338955063279
 31
0.0
  0
LINE
  5
E4
  8
1
 62
     7
 10
319.77745733580599
 20
337.15748044683107
 30
0.0
 11
309.77745733580588
 21
337.15748044683107
 31
0.0
  0
LINE
  5
E5
  8
1
 62
     7
 10
308.77745733580599
 20
336.15748044683119
 30
0.0
 11
308.77745733580599
 21
317.0614935554425
 31
0.0
  0
LINE
  5
E6
  8
1
 62
     7
 10
320.39854383468042
 20
317.79491911726058
 30
0.0
 11
325.22817296612578
 21
316.50082389174821
 31
0.0
  0
LINE
  5
E7
  8
1
 62
     7
 10
329.3308495251033
 20
341.4714795197645
 30
0.0
 11
322.8133584004031
 21
317.14787150450439
 31
0.0
  0
LINE
  5
E8
  8
1
 62
     7
 10
331.10815304547509
 20
340.99525247677582
 30
0.0
 11
324.59066192077512
 21
316.67164446151583
 31
0.0
  0
LINE
  5
E9
  8
1
 62
     7
 10
320.26901389996863
 20
317.31150681981512
 30
0.0
 11
320.39854383468042
 21
317.79491911726058
 31
0.0
  0
LINE
  5
EA
  8
1
 62
     7
 10
325.09864303141399
 20
316.0174115943023
 30
0.0
 11
325.22817296612578
 21
316.50082389174821
 31
0.0
  0
LINE
  5
EB
  8
1
 62
     7
 10
312.77745733580599
 20
292.81433469632361
 30
0.0
 11
312.77745733580599
 21
294.65748044683119
 31
0.0
  0
LINE
  5
EC
  8
1
 62
     7
 10
316.77745733580588
 20
294.65748044683119
 30
0.0
 11
312.77745733580599
 21
294.65748044683119
 31
0.0
  0
LINE
  5
ED
  8
1
 62
     7
 10
316.77745733580588
 20
294.65748044683119
 30
0.0
 11
316.77745733580588
 21
292.81433469632361
 31
0.0
  0
LINE
  5
EE
  8
1
 62
     7
 10
165.0124193527553
 20
318.00748044683132
 30
0.0
 11
165.0124193527551
 21
317.65748044683107
 31
0.0
  0
LINE
  5
EF
  8
1
 62
     7
 10
170.0124193527553
 20
318.00748044683132
 30
0.0
 11
170.0124193527553
 21
317.65748044683107
 31
0.0
  0
LINE
  5
F0
  8
1
 62
     7
 10
54.437802708274383
 20
315.40748044683119
 30
0.0
 11
54.93780270827439
 21
315.40748044683119
 31
0.0
  0
LINE
  5
F1
  8
1
 62
     7
 10
54.437802708274383
 20
317.65748044683107
 30
0.0
 11
54.437802708274383
 21
256.65748044683119
 31
0.0
  0
LINE
  5
F2
  8
1
 62
     7
 10
54.93780270827439
 20
315.40748044683119
 30
0.0
 11
54.93780270827439
 21
258.90748044683119
 31
0.0
  0
LINE
  5
F3
  8
1
 62
     7
 10
56.236840813951041
 20
317.65748044683107
 30
0.0
 11
56.236840813951041
 21
256.65748044683119
 31
0.0
  0
LINE
  5
F4
  8
1
 62
     7
 10
27.43780270827439
 20
317.65748044683107
 30
0.0
 11
27.43780270827439
 21
256.65748044683119
 31
0.0
  0
LINE
  5
F5
  8
1
 62
     7
 10
59.737802708274401
 20
297.15748044683107
 30
0.0
 11
59.437802708274383
 21
297.15748044683107
 31
0.0
  0
LINE
  5
F6
  8
1
 62
     7
 10
176.01241935275519
 20
281.15748044683107
 30
0.0
 11
207.01241935275519
 21
281.15748044683107
 31
0.0
  0
LINE
  5
F7
  8
1
 62
     7
 10
-93.103323943701795
 20
341.94770656275313
 30
0.0
 11
-86.585832819001695
 21
317.62409854749308
 31
0.0
  0
LINE
  5
F8
  8
1
  6
DASHDOT
 62
     3
 10
-76.94828277841151
 20
287.15748044683107
 30
0.0
 11
-83.706187771141401
 21
287.15748044683107
 31
0.0
  0
LINE
  5
F9
  8
1
  6
CENTER
 62
     3
 10
-80.327235274776399
 20
283.7785279504663
 30
0.0
 11
-80.327235274776399
 21
290.53643294319608
 31
0.0
  0
LINE
  5
FA
  8
1
 62
     7
 10
-90.777950905096205
 20
316.50082389174821
 30
0.0
 11
-86.327235274776399
 21
317.69338955063279
 31
0.0
  0
LINE
  5
FB
  8
1
 62
     7
 10
-88.363136339373625
 20
317.14787150450439
 30
0.0
 11
-94.880627464073697
 21
341.4714795197645
 31
0.0
  0
LINE
  5
FC
  8
1
 62
     7
 10
-90.140439859745527
 20
316.67164446151583
 30
0.0
 11
-96.657930984445514
 21
340.99525247677582
 31
0.0
  0
LINE
  5
FD
  8
1
 62
     7
 10
-90.777950905096205
 20
316.50082389174821
 30
0.0
 11
-90.609467679383087
 21
315.87203593316337
 31
0.0
  0
LINE
  5
FE
  8
1
 62
     7
 10
-82.927235274776308
 20
331.65748044683119
 30
0.0
 11
-82.927235274776308
 21
325.65748044683119
 31
0.0
  0
LINE
  5
FF
  8
1
 62
     7
 10
-77.727235274776319
 20
331.65748044683119
 30
0.0
 11
-77.727235274776319
 21
325.65748044683119
 31
0.0
  0
LINE
  5
100
  8
1
 62
     7
 10
-74.327235274776342
 20
336.15748044683119
 30
0.0
 11
-74.327235274776342
 21
315.55202217583258
 31
0.0
  0
LINE
  5
101
  8
1
 62
     7
 10
-75.327235274776342
 20
337.15748044683107
 30
0.0
 11
-85.327235274776328
 21
337.15748044683107
 31
0.0
  0
LINE
  5
102
  8
1
 62
     7
 10
-86.327235274776399
 20
336.15748044683119
 30
0.0
 11
-86.327235274776356
 21
315.55202217583258
 31
0.0
  0
LINE
  5
103
  8
1
 62
     7
 10
158.0124193527551
 20
299.15748044683119
 30
0.0
 11
158.0124193527551
 21
337.15748044683107
 31
0.0
  0
LINE
  5
104
  8
1
 62
     7
 10
158.0124193527551
 20
275.1574804468313
 30
0.0
 11
158.0124193527551
 21
299.15748044683119
 31
0.0
  0
LINE
  5
105
  8
1
 62
     7
 10
160.0124193527551
 20
294.11748044683111
 30
0.0
 11
160.0124193527551
 21
337.15748044683107
 31
0.0
  0
LINE
  5
106
  8
1
 62
     7
 10
160.0124193527551
 20
280.19748044683132
 30
0.0
 11
160.0124193527551
 21
294.11748044683111
 31
0.0
  0
LINE
  5
107
  8
1
 62
     7
 10
168.0124193527551
 20
294.11748044683111
 30
0.0
 11
168.0124193527551
 21
280.19748044683132
 31
0.0
  0
LINE
  5
108
  8
1
 62
     7
 10
168.0124193527551
 20
280.19748044683132
 30
0.0
 11
168.0124193527551
 21
274.11748044683128
 31
0.0
  0
LINE
  5
109
  8
1
 62
     7
 10
176.01241935275519
 20
292.81433469632361
 30
0.0
 11
176.01241935275519
 21
281.15748044683107
 31
0.0
  0
LINE
  5
10A
  8
1
 62
     7
 10
176.01241935275519
 20
281.15748044683107
 30
0.0
 11
176.01241935275519
 21
272.45748044683131
 31
0.0
  0
LINE
  5
10B
  8
1
 62
     7
 10
207.01241935275519
 20
292.81433469632361
 30
0.0
 11
207.01241935275519
 21
281.15748044683107
 31
0.0
  0
LINE
  5
10C
  8
1
 62
     7
 10
207.01241935275519
 20
281.15748044683107
 30
0.0
 11
207.01241935275519
 21
273.15748044683119
 31
0.0
  0
LINE
  5
10D
  8
1
 62
     7
 10
210.01241935275519
 20
301.15748044683107
 30
0.0
 11
210.01241935275519
 21
273.15748044683119
 31
0.0
  0
LINE
  5
10E
  8
1
 62
     7
 10
210.01241935275519
 20
273.15748044683119
 30
0.0
 11
210.01241935275519
 21
262.65748044683107
 31
0.0
  0
LINE
  5
10F
  8
1
 62
     3
 10
167.5124193527551
 20
342.93911438365342
 30
0.0
 11
167.5124193527551
 21
345.89991952829132
 31
0.0
  0
LINE
  5
110
  8
1
 62
     3
 10
34.327802708274362
 20
345.89991952829132
 30
0.0
 11
34.327802708274362
 21
342.93911438365342
 31
0.0
  0
LINE
  5
111
  8
1
 62
     3
 10
33.547802708274361
 20
342.93911438365342
 30
0.0
 11
33.547802708274361
 21
345.89991952829132
 31
0.0
  0
LINE
  5
112
  8
1
 62
     7
 10
33.01780270827436
 20
342.93911438365342
 30
0.0
 11
34.857802708274413
 21
342.93911438365342
 31
0.0
  0
LINE
  5
113
  8
1
 62
     3
 10
33.937802708274369
 20
342.93911438365342
 30
0.0
 11
33.937802708274369
 21
345.89991952829132
 31
0.0
  0
LINE
  5
114
  8
1
 62
     3
 10
-96.158880912276629
 20
344.19422358167532
 30
0.0
 11
-95.392568152006817
 21
341.33430542586012
 31
0.0
  0
LINE
  5
115
  8
1
 62
     3
 10
-96.145990296512295
 20
341.13242657068008
 30
0.0
 11
-96.912303056782079
 21
343.99234472649528
 31
0.0
  0
LINE
  5
116
  8
1
 62
     3
 10
-95.769279224259563
 20
341.23336599827019
 30
0.0
 11
-96.535591984529376
 21
344.09328415408532
 31
0.0
  0
LINE
  5
117
  8
1
 62
     3
 10
-94.381577391904784
 20
344.67045062466377
 30
0.0
 11
-93.615264631635
 21
341.81053246884858
 31
0.0
  0
LINE
  5
118
  8
1
 62
     3
 10
-94.368686776140521
 20
341.60865361366882
 30
0.0
 11
-95.134999536410319
 21
344.46857176948402
 31
0.0
  0
LINE
  5
119
  8
1
 62
     7
 10
-93.103323943701795
 20
341.94770656275313
 30
0.0
 11
-96.657930984445514
 21
340.99525247677582
 31
0.0
  0
LINE
  5
11A
  8
1
 62
     3
 10
-93.991975703887775
 20
341.70959304125881
 30
0.0
 11
-94.758288464157559
 21
344.56951119707412
 31
0.0
  0
LINE
  5
11B
  8
1
 62
     3
 10
329.84279021303632
 20
341.33430542586012
 30
0.0
 11
330.60910297330622
 21
344.19422358167532
 31
0.0
  0
LINE
  5
11C
  8
1
 62
     3
 10
331.36252511781169
 20
343.99234472649528
 30
0.0
 11
330.5962123575419
 21
341.13242657068008
 31
0.0
  0
LINE
  5
11D
  8
1
 62
     3
 10
330.98581404555881
 20
344.09328415408532
 30
0.0
 11
330.21950128528908
 21
341.23336599827019
 31
0.0
  0
LINE
  5
11E
  8
1
 62
     3
 10
328.06548669266459
 20
341.81053246884858
 30
0.0
 11
328.83179945293432
 21
344.67045062466377
 31
0.0
  0
LINE
  5
11F
  8
1
 62
     3
 10
329.5852215974399
 20
344.46857176948402
 30
0.0
 11
328.81890883717011
 21
341.60865361366882
 31
0.0
  0
LINE
  5
120
  8
1
 62
     7
 10
331.10815304547509
 20
340.99525247677582
 30
0.0
 11
327.55354600473129
 21
341.94770656275313
 31
0.0
  0
LINE
  5
121
  8
1
 62
     3
 10
329.20851052518708
 20
344.56951119707412
 30
0.0
 11
328.4421977649173
 21
341.70959304125881
 31
0.0
  0
ARC
  5
122
  8
1
 62
     7
 10
194.81241935275509
 20
316.35748044683112
 30
0.0
 40
0.5
 50
0.0
 51
180.0
  0
ARC
  5
123
  8
1
 62
     7
 10
194.81241935275509
 20
312.75748044683132
 30
0.0
 40
0.5
 50
180.0
 51
0.0
  0
ARC
  5
124
  8
1
 62
     7
 10
192.51241935275519
 20
276.6574804468313
 30
0.0
 40
0.5
 50
90.0
 51
180.0
  0
ARC
  5
125
  8
1
 62
     7
 10
160.97241935275511
 20
280.19748044683132
 30
0.0
 40
0.9599999999999797
 50
90.0
 51
180.0
  0
ARC
  5
126
  8
1
 62
     7
 10
167.05241935275509
 20
274.11748044683128
 30
0.0
 40
0.9599999999999797
 50
270.0
 51
0.0
  0
ARC
  5
127
  8
1
 62
     7
 10
160.97241935275511
 20
274.11748044683128
 30
0.0
 40
0.9600000000000077
 50
180.0
 51
270.0
  0
ARC
  5
128
  8
1
 62
     7
 10
167.05241935275509
 20
280.19748044683132
 30
0.0
 40
0.9599999999999797
 50
0.0
 51
90.0
  0
ARC
  5
129
  8
1
 62
     7
 10
168.9724193527552
 20
280.19748044683132
 30
0.0
 40
0.9599999999999797
 50
90.0
 51
180.0
  0
ARC
  5
12A
  8
1
 62
     7
 10
175.05241935275521
 20
274.11748044683128
 30
0.0
 40
0.9599999999999797
 50
270.0
 51
327.53825503276113
  0
ARC
  5
12B
  8
1
 62
     7
 10
168.9724193527552
 20
274.11748044683128
 30
0.0
 40
0.9600000000000077
 50
180.0
 51
270.0
  0
ARC
  5
12C
  8
1
 62
     7
 10
175.05241935275521
 20
280.19748044683132
 30
0.0
 40
0.9599999999999797
 50
0.0
 51
90.0
  0
ARC
  5
12D
  8
1
 62
     7
 10
175.05241935275521
 20
274.11748044683128
 30
0.0
 40
0.9599999999999656
 50
327.53825503276113
 51
0.0
  0
ARC
  5
12E
  8
1
 62
     7
 10
192.51241935275519
 20
297.65748044683107
 30
0.0
 40
0.5
 50
180.0
 51
270.0
  0
ARC
  5
12F
  8
1
 62
     7
 10
160.97241935275511
 20
294.11748044683111
 30
0.0
 40
0.9600000000000077
 50
180.0
 51
270.0
  0
ARC
  5
130
  8
1
 62
     7
 10
167.05241935275509
 20
300.19748044683132
 30
0.0
 40
0.9599999999999797
 50
0.0
 51
90.0
  0
ARC
  5
131
  8
1
 62
     7
 10
160.97241935275511
 20
300.19748044683132
 30
0.0
 40
0.959999999999866
 50
90.0
 51
180.0
  0
ARC
  5
132
  8
1
 62
     7
 10
167.05241935275509
 20
294.11748044683111
 30
0.0
 40
0.9600000000000363
 50
270.0
 51
0.0
  0
ARC
  5
133
  8
1
 62
     7
 10
168.9724193527552
 20
294.11748044683111
 30
0.0
 40
0.9600000000000077
 50
180.0
 51
270.0
  0
ARC
  5
134
  8
1
 62
     7
 10
175.05241935275521
 20
300.19748044683132
 30
0.0
 40
0.9599999999999656
 50
32.461744967238872
 51
90.0
  0
ARC
  5
135
  8
1
 62
     7
 10
168.9724193527552
 20
300.19748044683132
 30
0.0
 40
0.959999999999866
 50
90.0
 51
180.0
  0
ARC
  5
136
  8
1
 62
     7
 10
175.05241935275521
 20
294.11748044683111
 30
0.0
 40
0.9600000000000363
 50
270.0
 51
0.0
  0
ARC
  5
137
  8
1
 62
     7
 10
175.05241935275521
 20
300.19748044683132
 30
0.0
 40
0.9599999999999797
 50
0.0
 51
32.461744967238872
  0
ARC
  5
138
  8
1
 62
     7
 10
309.77745733580588
 20
264.40028378291851
 30
0.0
 40
1.5000000000000691
 50
257.6083919366925
 51
295.57103324420382
  0
ARC
  5
139
  8
1
 62
     7
 10
336.9857677656729
 20
294.2059517598654
 30
0.0
 40
1.499999999999805
 50
17.60839193668512
 51
55.571033244200109
  0
ARC
  5
13A
  8
1
 62
     7
 10
297.56914690593908
 20
302.86620579770982
 30
0.0
 40
1.5000000000000751
 50
137.60839193668789
 51
175.57103324420311
  0
ARC
  5
13B
  8
1
 62
     7
 10
292.56914690593908
 20
294.2059517598654
 30
0.0
 40
1.500000000000054
 50
124.42896675579971
 51
162.3916080633079
  0
ARC
  5
13C
  8
1
 62
     7
 10
319.77745733580599
 20
264.40028378291851
 30
0.0
 40
1.5000000000000311
 50
244.42896675579999
 51
282.39160806331171
  0
ARC
  5
13D
  8
1
 62
     7
 10
331.9857677656729
 20
302.86620579770982
 30
0.0
 40
1.4999999999999649
 50
4.4289667557928958
 51
42.391608063312077
  0
ARC
  5
13E
  8
1
 62
     7
 10
309.77745733580588
 20
336.15748044683119
 30
0.0
 40
1.0
 50
90.0
 51
180.0
  0
ARC
  5
13F
  8
1
 62
     7
 10
319.77745733580599
 20
336.15748044683119
 30
0.0
 40
1.0
 50
0.0
 51
90.0
  0
ARC
  5
140
  8
1
 62
     7
 10
-88.327235274776342
 20
315.55202217583258
 30
0.0
 40
2.0000000000000062
 50
285.7348791794123
 51
0.0
  0
ARC
  5
141
  8
1
 62
     7
 10
-72.327235274776342
 20
315.55202217583258
 30
0.0
 40
2.0
 50
180.0
 51
254.26512082058929
  0
ARC
  5
142
  8
1
 62
     7
 10
-85.327235274776328
 20
336.15748044683119
 30
0.0
 40
1.0
 50
90.0
 51
180.0
  0
ARC
  5
143
  8
1
 62
     7
 10
-75.327235274776342
 20
336.15748044683119
 30
0.0
 40
1.0
 50
0.0
 51
90.0
  0
ARC
  5
144
  8
1
 62
     7
 10
63.260024930496712
 20
273.45748044683131
 30
0.0
 40
2.777777777777874
 50
290.6096929375293
 51
69.39030706246831
  0
ARC
  5
145
  8
1
 62
     7
 10
63.260024930496712
 20
314.55748044683111
 30
0.0
 40
2.77777777777766
 50
290.60969293753101
 51
69.390307062469375
  0
ARC
  5
146
  8
1
 62
     7
 10
196.83464157497741
 20
314.55748044683111
 30
0.0
 40
2.7777777777776649
 50
290.60969293753118
 51
69.390307062469134
  0
ARC
  5
147
  8
1
 62
     7
 10
164.0124193527551
 20
277.1574804468313
 30
0.0
 40
2.3999999999999351
 50
239.9999999999994
 51
300.00000000000108
  0
ARC
  5
148
  8
1
 62
     7
 10
164.0124193527551
 20
277.1574804468313
 30
0.0
 40
2.3999999999999488
 50
300.00000000000108
 51
59.999999999998849
  0
ARC
  5
149
  8
1
 62
     7
 10
164.0124193527551
 20
277.1574804468313
 30
0.0
 40
2.3999999999999351
 50
120.0000000000005
 51
239.9999999999994
  0
ARC
  5
14A
  8
1
 62
     7
 10
164.0124193527551
 20
277.1574804468313
 30
0.0
 40
2.3999999999999488
 50
59.999999999998849
 51
120.0000000000005
  0
ARC
  5
14B
  8
1
 62
     7
 10
172.01241935275519
 20
277.1574804468313
 30
0.0
 40
2.3999999999999351
 50
239.9999999999994
 51
300.00000000000108
  0
ARC
  5
14C
  8
1
 62
     7
 10
172.01241935275519
 20
277.1574804468313
 30
0.0
 40
2.3999999999999488
 50
300.00000000000108
 51
59.999999999998849
  0
ARC
  5
14D
  8
1
 62
     7
 10
172.01241935275519
 20
277.1574804468313
 30
0.0
 40
2.3999999999999351
 50
120.0000000000005
 51
239.9999999999994
  0
ARC
  5
14E
  8
1
 62
     7
 10
172.01241935275519
 20
277.1574804468313
 30
0.0
 40
2.3999999999999488
 50
59.999999999998849
 51
120.0000000000005
  0
ARC
  5
14F
  8
1
  6
DASHDOT
 62
     3
 10
314.77745733580588
 20
287.15748044683107
 30
0.0
 40
20.99999999999989
 50
201.26074538973489
 51
218.73925461026499
  0
ARC
  5
150
  8
1
  6
DASHDOT
 62
     3
 10
314.77745733580588
 20
287.15748044683107
 30
0.0
 40
21.00000000000016
 50
81.260745389735007
 51
98.73925461026468
  0
ARC
  5
151
  8
1
  6
DASHDOT
 62
     3
 10
314.77745733580588
 20
287.15748044683107
 30
0.0
 40
21.00000000000006
 50
321.26074538973518
 51
338.73925461026511
  0
ARC
  5
152
  8
1
 62
     7
 10
164.0124193527551
 20
297.15748044683107
 30
0.0
 40
2.4000000000000479
 50
60.000000000000199
 51
119.9999999999991
  0
ARC
  5
153
  8
1
 62
     7
 10
164.0124193527551
 20
297.15748044683107
 30
0.0
 40
2.3999999999999488
 50
300.00000000000108
 51
60.000000000000199
  0
ARC
  5
154
  8
1
 62
     7
 10
164.0124193527551
 20
297.15748044683107
 30
0.0
 40
2.4000000000000341
 50
119.9999999999991
 51
239.9999999999994
  0
ARC
  5
155
  8
1
 62
     7
 10
164.0124193527551
 20
297.15748044683107
 30
0.0
 40
2.3999999999999351
 50
239.9999999999994
 51
300.00000000000108
  0
ARC
  5
156
  8
1
 62
     7
 10
172.01241935275519
 20
297.15748044683107
 30
0.0
 40
2.4000000000000479
 50
60.000000000000199
 51
119.9999999999991
  0
ARC
  5
157
  8
1
 62
     7
 10
172.01241935275519
 20
297.15748044683107
 30
0.0
 40
2.3999999999999488
 50
300.00000000000108
 51
60.000000000000199
  0
ARC
  5
158
  8
1
 62
     7
 10
172.01241935275519
 20
297.15748044683107
 30
0.0
 40
2.4000000000000341
 50
119.9999999999991
 51
239.9999999999994
  0
ARC
  5
159
  8
1
 62
     7
 10
172.01241935275519
 20
297.15748044683107
 30
0.0
 40
2.3999999999999351
 50
239.9999999999994
 51
300.00000000000108
  0
ARC
  5
15A
  8
1
 62
     7
 10
314.77745733580588
 20
287.15748044683107
 30
0.0
 40
24.799999999999908
 50
162.3916080633112
 51
257.60839193668852
  0
ARC
  5
15B
  8
1
 62
     7
 10
314.77745733580588
 20
287.15748044683107
 30
0.0
 40
24.799999999999951
 50
282.39160806331171
 51
17.608391936688172
  0
ARC
  5
15C
  8
1
 62
     7
 10
314.77745733580588
 20
287.15748044683107
 30
0.0
 40
24.800000000000232
 50
42.391608063311601
 51
137.60839193668801
  0
ARC
  5
15D
  8
1
 62
     7
 10
314.77745733580588
 20
331.65748044683119
 30
0.0
 40
2.6000000000001351
 50
90.0
 51
180.0
  0
ARC
  5
15E
  8
1
 62
     7
 10
314.7774573358061
 20
325.65748044683119
 30
0.0
 40
2.6000000000000218
 50
270.0
 51
0.0
  0
ARC
  5
15F
  8
1
 62
     7
 10
314.77745733580588
 20
331.65748044683119
 30
0.0
 40
2.6000000000001351
 50
0.0
 51
90.0
  0
ARC
  5
160
  8
1
 62
     7
 10
314.7774573358061
 20
325.65748044683119
 30
0.0
 40
2.6000000000000218
 50
180.0
 51
270.0
  0
ARC
  5
161
  8
1
 62
     7
 10
-80.327235274776399
 20
287.15748044683107
 30
0.0
 40
30.50000000000005
 50
101.3452953903589
 51
78.654704609640945
  0
ARC
  5
162
  8
1
 62
     7
 10
-80.327235274776399
 20
287.15748044683107
 30
0.0
 40
29.50000000000006
 50
101.7352574744552
 51
78.264742525544563
  0
ARC
  5
163
  8
1
 62
     7
 10
-80.327235274776399
 20
287.15748044683107
 30
0.0
 40
27.5
 50
105.7348791794109
 51
74.265120820588791
  0
ARC
  5
164
  8
1
 62
     7
 10
-80.327235274776328
 20
331.65748044683119
 30
0.0
 40
2.6000000000000218
 50
90.0
 51
180.0
  0
ARC
  5
165
  8
1
 62
     7
 10
-80.327235274776328
 20
325.65748044683119
 30
0.0
 40
2.599999999999965
 50
270.0
 51
0.0
  0
ARC
  5
166
  8
1
 62
     7
 10
-80.327235274776328
 20
331.65748044683119
 30
0.0
 40
2.6000000000000218
 50
0.0
 51
90.0
  0
ARC
  5
167
  8
1
 62
     7
 10
-80.327235274776328
 20
325.65748044683119
 30
0.0
 40
2.599999999999965
 50
180.0
 51
270.0
  0
CIRCLE
  5
168
  8
1
 62
     7
 10
296.59092385633278
 20
276.6574804468313
 30
0.0
 40
1.6000000000001351
  0
CIRCLE
  5
169
  8
1
 62
     3
 10
296.59092385633278
 20
276.6574804468313
 30
0.0
 40
2.0
  0
CIRCLE
  5
16A
  8
1
 62
     7
 10
314.77745733580588
 20
308.15748044683107
 30
0.0
 40
1.600000000000023
  0
CIRCLE
  5
16B
  8
1
 62
     3
 10
314.77745733580588
 20
308.15748044683107
 30
0.0
 40
1.999999999999885
  0
CIRCLE
  5
16C
  8
1
 62
     7
 10
314.77745733580588
 20
287.15748044683107
 30
0.0
 40
14.0
  0
CIRCLE
  5
16D
  8
1
 62
     7
 10
332.96399081527932
 20
276.65748044683107
 30
0.0
 40
1.599999999999965
  0
CIRCLE
  5
16E
  8
1
 62
     3
 10
332.96399081527932
 20
276.65748044683107
 30
0.0
 40
2.0
  0
CIRCLE
  5
16F
  8
1
 62
     7
 10
314.77745733580588
 20
287.15748044683107
 30
0.0
 40
24.5
  0
CIRCLE
  5
170
  8
1
 62
     7
 10
338.50655339949969
 20
273.45748044683131
 30
0.0
 40
2.3000000000001251
  0
CIRCLE
  5
171
  8
1
 62
     7
 10
291.04836127211252
 20
273.45748044683131
 30
0.0
 40
2.2999999999998981
  0
CIRCLE
  5
172
  8
1
 62
     7
 10
314.77745733580588
 20
314.55748044683128
 30
0.0
 40
2.3000000000001251
  0
CIRCLE
  5
173
  8
1
 62
     7
 10
314.77745733580588
 20
287.15748044683107
 30
0.0
 40
30.0
  0
CIRCLE
  5
174
  8
1
 62
     7
 10
314.77745733580588
 20
287.15748044683107
 30
0.0
 40
11.0
  0
CIRCLE
  5
175
  8
1
 62
     7
 10
314.77745733580588
 20
287.15748044683107
 30
0.0
 40
30.64999999999992
  0
CIRCLE
  5
176
  8
1
 62
     7
 10
314.77745733580588
 20
287.15748044683107
 30
0.0
 40
6.0
  0
CIRCLE
  5
177
  8
1
 62
     7
 10
-80.327235274776399
 20
287.15748044683107
 30
0.0
 40
6.0
  0
CIRCLE
  5
178
  8
1
 62
     7
 10
-80.327235274776399
 20
287.15748044683107
 30
0.0
 40
12.00000000000006
  0
TEXT
  5
17A
  8
1
 62
     7
 10
-105.0320762099926
 20
382.7267446745891
 30
0.0
 40
5.5
  1
AMC 40
 41
0.9
  7
SIMPLEX
  0
ENDSEC
  0
EOF
