  0
SECTION
  2
HEADER
  9
$ACADVER
  1
AC1009
  9
$INSBASE
 10
0.0
 20
0.0
 30
0.0
  9
$EXTMIN
 10
-102.3338919325374
 20
18.224897693727989
 30
0.0
  9
$EXTMAX
 10
177.59705558335841
 20
105.9279372162418
 30
0.0
  9
$LIMMIN
 10
-102.3338919325375
 20
18.489111256101079
  9
$LIMMAX
 10
177.59705558335841
 20
105.9279372162418
  9
$ORTHOMODE
 70
     0
  9
$REGENMODE
 70
     1
  9
$FILLMODE
 70
     1
  9
$QTEXTMODE
 70
     0
  9
$MIRRTEXT
 70
     1
  9
$DRAGMODE
 70
     2
  9
$LTSCALE
 40
1.0
  9
$OSMODE
 70
    37
  9
$ATTMODE
 70
     1
  9
$TEXTSIZE
 40
3.5
  9
$TRACEWID
 40
0.5
  9
$TEXTSTYLE
  7
STANDARD
  9
$CLAYER
  8
0
  9
$CELTYPE
  6
BYLAYER
  9
$CECOLOR
 62
   256
  9
$DIMSCALE
 40
1.0
  9
$DIMASZ
 40
0.18
  9
$DIMEXO
 40
0.0625
  9
$DIMDLI
 40
0.38
  9
$DIMRND
 40
0.0
  9
$DIMDLE
 40
0.0
  9
$DIMEXE
 40
0.18
  9
$DIMTP
 40
0.0
  9
$DIMTM
 40
0.0
  9
$DIMTXT
 40
0.18
  9
$DIMCEN
 40
0.09
  9
$DIMTSZ
 40
0.0
  9
$DIMTOL
 70
     0
  9
$DIMLIM
 70
     0
  9
$DIMTIH
 70
     1
  9
$DIMTOH
 70
     1
  9
$DIMSE1
 70
     0
  9
$DIMSE2
 70
     0
  9
$DIMTAD
 70
     0
  9
$DIMZIN
 70
     0
  9
$DIMBLK
  1

  9
$DIMASO
 70
     1
  9
$DIMSHO
 70
     1
  9
$DIMPOST
  1

  9
$DIMAPOST
  1

  9
$DIMALT
 70
     0
  9
$DIMALTD
 70
     2
  9
$DIMALTF
 40
25.399999999999999
  9
$DIMLFAC
 40
1.0
  9
$DIMTOFL
 70
     0
  9
$DIMTVP
 40
0.0
  9
$DIMTIX
 70
     0
  9
$DIMSOXD
 70
     0
  9
$DIMSAH
 70
     0
  9
$DIMBLK1
  1

  9
$DIMBLK2
  1

  9
$DIMSTYLE
  2
STANDARD
  9
$DIMCLRD
 70
     0
  9
$DIMCLRE
 70
     0
  9
$DIMCLRT
 70
     0
  9
$DIMTFAC
 40
1.0
  9
$DIMGAP
 40
0.09
  9
$LUNITS
 70
     2
  9
$LUPREC
 70
     4
  9
$SKETCHINC
 40
0.1
  9
$FILLETRAD
 40
2.0
  9
$AUNITS
 70
     0
  9
$AUPREC
 70
     0
  9
$MENU
  1
ACAD
  9
$ELEVATION
 40
0.0
  9
$PELEVATION
 40
0.0
  9
$THICKNESS
 40
0.0
  9
$LIMCHECK
 70
     0
  9
$BLIPMODE
 70
     0
  9
$CHAMFERA
 40
0.0
  9
$CHAMFERB
 40
0.0
  9
$SKPOLY
 70
     0
  9
$TDCREATE
 40
2452093.8799305549
  9
$TDUPDATE
 40
2452093.880465162
  9
$TDINDWG
 40
0.0005364583
  9
$TDUSRTIMER
 40
0.0005364583
  9
$USRTIMER
 70
     1
  9
$ANGBASE
 50
0.0
  9
$ANGDIR
 70
     0
  9
$PDMODE
 70
     0
  9
$PDSIZE
 40
0.0
  9
$PLINEWID
 40
0.0
  9
$COORDS
 70
     1
  9
$SPLFRAME
 70
     0
  9
$SPLINETYPE
 70
     6
  9
$SPLINESEGS
 70
     8
  9
$ATTDIA
 70
     0
  9
$ATTREQ
 70
     1
  9
$HANDLING
 70
 10241
  9
$HANDSEED
  5
1A7
  9
$SURFTAB1
 70
     6
  9
$SURFTAB2
 70
     6
  9
$SURFTYPE
 70
     6
  9
$SURFU
 70
     6
  9
$SURFV
 70
     6
  9
$UCSNAME
  2

  9
$UCSORG
 10
0.0
 20
0.0
 30
0.0
  9
$UCSXDIR
 10
1.0
 20
0.0
 30
0.0
  9
$UCSYDIR
 10
0.0
 20
1.0
 30
0.0
  9
$PUCSNAME
  2

  9
$PUCSORG
 10
0.0
 20
0.0
 30
0.0
  9
$PUCSXDIR
 10
1.0
 20
0.0
 30
0.0
  9
$PUCSYDIR
 10
0.0
 20
1.0
 30
0.0
  9
$USERI1
 70
     0
  9
$USERI2
 70
     0
  9
$USERI3
 70
     0
  9
$USERI4
 70
     0
  9
$USERI5
 70
     0
  9
$USERR1
 40
0.0
  9
$USERR2
 40
0.0
  9
$USERR3
 40
0.0
  9
$USERR4
 40
0.0
  9
$USERR5
 40
0.0
  9
$WORLDVIEW
 70
     1
  9
$SHADEDGE
 70
     3
  9
$SHADEDIF
 70
    70
  9
$TILEMODE
 70
     1
  9
$MAXACTVP
 70
    64
  9
$PLIMCHECK
 70
     0
  9
$PEXTMIN
 10
1.0000000000000000E+020
 20
1.0000000000000000E+020
 30
1.0000000000000000E+020
  9
$PEXTMAX
 10
-1.0000000000000000E+020
 20
-1.0000000000000000E+020
 30
-1.0000000000000000E+020
  9
$PLIMMIN
 10
0.0
 20
0.0
  9
$PLIMMAX
 10
12.0
 20
9.0
  9
$UNITMODE
 70
     0
  9
$VISRETAIN
 70
     1
  9
$PLINEGEN
 70
     0
  9
$PSLTSCALE
 70
     1
  0
ENDSEC
  0
SECTION
  2
TABLES
  0
TABLE
  2
VPORT
 70
     2
  0
VPORT
  2
*ACTIVE
 70
     0
 10
0.0
 20
0.0
 11
1.0
 21
1.0
 12
-81.973398633453243
 22
96.794285759920228
 13
0.0
 23
0.0
 14
1.0
 24
1.0
 15
0.0
 25
0.0
 16
0.0
 26
0.0
 36
1.0
 17
0.0
 27
0.0
 37
0.0
 40
9.0000001219322137
 41
2.5693779904306222
 42
50.0
 43
0.0
 44
0.0
 50
0.0
 51
0.0
 71
     0
 72
   100
 73
     1
 74
     1
 75
     0
 76
     0
 77
     0
 78
     0
  0
ENDTAB
  0
TABLE
  2
LTYPE
 70
     9
  0
LTYPE
  2
CONTINUOUS
 70
     0
  3
Solid line
 72
    65
 73
     0
 40
0.0
  0
LTYPE
  2
BORDER
 70
     0
  3
__ __ . __ __ .
 72
    65
 73
     6
 40
12.89155679349521
 49
3.6833019409986312
 49
-1.841650970499314
 49
3.6833019409986312
 49
-1.841650970499314
 49
0.0
 49
-1.841650970499314
  0
LTYPE
  2
CENTER
 70
     0
  3
____ _ ____ _
 72
    65
 73
     4
 40
14.733207763994519
 49
9.2082548524965766
 49
-1.841650970499314
 49
1.841650970499314
 49
-1.841650970499314
  0
LTYPE
  2
DASHDOT
 70
     0
  3
__ . __ . __ .
 72
    65
 73
     4
 40
7.3666038819972623
 49
3.6833019409986312
 49
-1.841650970499314
 49
0.0
 49
-1.841650970499314
  0
LTYPE
  2
DASHED
 70
     0
  3
__ __ __ __ __
 72
    65
 73
     2
 40
5.5249529114979454
 49
3.6833019409986312
 49
-1.841650970499314
  0
LTYPE
  2
DIVIDE
 70
     0
  3
__ . . __ . . 
 72
    65
 73
     6
 40
9.2082548524965766
 49
3.6833019409986312
 49
-1.841650970499314
 49
0.0
 49
-1.841650970499314
 49
0.0
 49
-1.841650970499314
  0
LTYPE
  2
DOT
 70
     0
  3
..............
 72
    65
 73
     4
 40
3.6833019409986312
 49
0.0
 49
-1.841650970499314
 49
0.0
 49
-1.841650970499314
  0
LTYPE
  2
HIDDEN
 70
     0
  3
_ _ _ _ _ _ _
 72
    65
 73
     2
 40
2.7624764557489718
 49
1.841650970499314
 49
-0.9208254852496576
  0
LTYPE
  2
PHANTOM
 70
     0
  3
_____ _ _ _____ _ _ 
 72
    65
 73
     6
 40
18.416509704993139
 49
9.2082548524965766
 49
-1.841650970499314
 49
1.841650970499314
 49
-1.841650970499314
 49
1.841650970499314
 49
-1.841650970499314
  0
ENDTAB
  0
TABLE
  2
LAYER
 70
     2
  0
LAYER
  2
0
 70
     0
 62
     7
  6
CONTINUOUS
  0
LAYER
  2
1
 70
     0
 62
     7
  6
CONTINUOUS
  0
ENDTAB
  0
TABLE
  2
STYLE
 70
     4
  0
STYLE
  2
STANDARD
 70
     0
 40
0.0
 41
1.0
 50
0.0
 71
     0
 42
3.5
  3
txt
  4

  0
STYLE
  2
SIMPLEX
 70
     0
 40
0.0
 41
1.0
 50
0.0
 71
     0
 42
3.5
  3
simplex
  4

  0
STYLE
  2
COMPLEX
 70
     0
 40
0.0
 41
1.0
 50
0.0
 71
     0
 42
3.5
  3
complex
  4

  0
STYLE
  2
ITALIC
 70
     0
 40
0.0
 41
1.0
 50
0.0
 71
     0
 42
3.5
  3
italic
  4

  0
ENDTAB
  0
TABLE
  2
VIEW
 70
     0
  0
ENDTAB
  0
TABLE
  2
UCS
 70
     0
  0
ENDTAB
  0
TABLE
  2
APPID
 70
     1
  0
APPID
  2
ACAD
 70
     0
  0
ENDTAB
  0
TABLE
  2
DIMSTYLE
 70
     1
  0
DIMSTYLE
  2
STANDARD
 70
     0
  3

  4

  5

  6

  7

 40
1.0
 41
0.18
 42
0.0625
 43
0.38
 44
0.18
 45
0.0
 46
0.0
 47
0.0
 48
0.0
140
0.18
141
0.09
142
0.0
143
25.399999999999999
144
1.0
145
0.0
146
1.0
147
0.09
 71
     0
 72
     0
 73
     1
 74
     1
 75
     0
 76
     0
 77
     0
 78
     0
170
     0
171
     2
172
     0
173
     0
174
     0
175
     0
176
     0
177
     0
178
     0
  0
ENDTAB
  0
ENDSEC
  0
SECTION
  2
BLOCKS
  0
BLOCK
  8
0
  2
$MODEL_SPACE
 70
     0
 10
0.0
 20
0.0
 30
0.0
  3
$MODEL_SPACE
  1

  0
ENDBLK
  5
20
  8
0
  0
BLOCK
 67
     1
  8
0
  2
$PAPER_SPACE
 70
     0
 10
0.0
 20
0.0
 30
0.0
  3
$PAPER_SPACE
  1

  0
ENDBLK
  5
1C
 67
     1
  8
0
  0
ENDSEC
  0
SECTION
  2
ENTITIES
  0
POINT
  5
33
  8
1
  6
DOT
 62
     7
 10
94.732310542895931
 20
38.639111256101103
 30
0.0
  0
LINE
  5
34
  8
1
 62
     7
 10
75.232310542895945
 20
31.639111256101121
 30
0.0
 11
75.232310542895945
 21
34.139111256101089
 31
0.0
  0
LINE
  5
35
  8
1
 62
     7
 10
68.812310542895901
 20
59.639111256101103
 30
0.0
 11
70.652310542895933
 21
59.639111256101103
 31
0.0
  0
LINE
  5
36
  8
1
 62
     7
 10
67.232310542895959
 20
58.639111256101089
 30
0.0
 11
72.232310542895959
 21
58.639111256101089
 31
0.0
  0
LINE
  5
37
  8
1
  6
DASHDOT
 62
     3
 10
164.63688239078991
 20
34.488062813403758
 30
0.0
 11
169.30978765918459
 21
31.790159698798441
 31
0.0
  0
LINE
  5
38
  8
1
 62
     7
 10
158.44705558335841
 20
42.539111256101087
 30
0.0
 11
158.44705558335841
 21
41.46753838084728
 31
0.0
  0
LINE
  5
39
  8
1
 62
     7
 10
156.44705558335841
 20
42.539111256101087
 30
0.0
 11
158.44705558335841
 21
42.539111256101087
 31
0.0
  0
LINE
  5
3A
  8
1
 62
     7
 10
156.44705558335841
 20
41.46753838084728
 30
0.0
 11
156.44705558335841
 21
42.539111256101087
 31
0.0
  0
LINE
  5
3B
  8
1
 62
     7
 10
153.44705558335841
 20
72.639111256101089
 30
0.0
 11
153.44705558335841
 21
58.388098571910483
 31
0.0
  0
LINE
  5
3C
  8
1
 62
     7
 10
160.44705558335841
 20
73.639111256101074
 30
0.0
 11
154.44705558335841
 21
73.639111256101074
 31
0.0
  0
LINE
  5
3D
  8
1
 62
     7
 10
161.44705558335841
 20
72.639111256101089
 30
0.0
 11
161.44705558335841
 21
60.676528567864302
 31
0.0
  0
LINE
  5
3E
  8
1
 62
     7
 10
159.0470555833584
 20
69.28911125610108
 30
0.0
 11
159.0470555833584
 21
64.989111256101054
 31
0.0
  0
LINE
  5
3F
  8
1
 62
     7
 10
155.84705558335841
 20
69.28911125610108
 30
0.0
 11
155.84705558335841
 21
64.989111256101054
 31
0.0
  0
LINE
  5
40
  8
1
 62
     7
 10
171.28014750778809
 20
83.155699062356234
 30
0.0
 11
164.6595590508831
 21
58.447326565182919
 31
0.0
  0
LINE
  5
41
  8
1
 62
     7
 10
169.5028439874163
 20
83.631926105344874
 30
0.0
 11
162.88225553051129
 21
58.923553608171552
 31
0.0
  0
LINE
  5
42
  8
1
 62
     7
 10
167.72554046704431
 20
84.108153148333514
 30
0.0
 11
161.10495201013941
 21
59.399780651160171
 31
0.0
  0
LINE
  5
43
  8
1
 62
     7
 10
159.7256590065416
 20
58.734084917190017
 30
0.0
 11
160.2529789352414
 21
58.5927899681421
 31
0.0
  0
LINE
  5
44
  8
1
 62
     7
 10
160.46744096478861
 20
59.570601220927841
 30
0.0
 11
165.29707009623399
 21
58.276505995415249
 31
0.0
  0
LINE
  5
45
  8
1
 62
     7
 10
165.6506234868273
 20
57.664133559719431
 30
0.0
 11
165.29707009623399
 21
58.276505995415249
 31
0.0
  0
LINE
  5
46
  8
1
 62
     7
 10
165.521213964276
 20
57.181170646574913
 30
0.0
 11
165.6506234868273
 21
57.664133559719431
 31
0.0
  0
LINE
  5
47
  8
1
 62
     7
 10
159.8550685290929
 20
59.21704783033455
 30
0.0
 11
159.7256590065416
 21
58.734084917190017
 31
0.0
  0
LINE
  5
48
  8
1
 62
     7
 10
160.46744096478861
 20
59.570601220927841
 30
0.0
 11
159.8550685290929
 21
59.21704783033455
 31
0.0
  0
LINE
  5
49
  8
1
 62
     7
 10
164.99389403557629
 20
57.322465595622837
 30
0.0
 11
165.521213964276
 21
57.181170646574913
 31
0.0
  0
LINE
  5
4A
  8
1
 62
     7
 10
146.16139320805269
 20
47.464292543225518
 30
0.0
 11
147.10369298666771
 21
46.920255512384841
 31
0.0
  0
LINE
  5
4B
  8
1
 62
     7
 10
170.73271795866401
 20
44.000190928087761
 30
0.0
 11
169.79041818004899
 21
43.456153897247077
 31
0.0
  0
LINE
  5
4C
  8
1
 62
     7
 10
159.44705558335841
 20
24.452850296989979
 30
0.0
 11
159.44705558335841
 21
25.538847405470211
 31
0.0
  0
LINE
  5
4D
  8
1
 62
     7
 10
155.44705558335841
 20
24.452850296989979
 30
0.0
 11
155.44705558335841
 21
25.54143455655397
 31
0.0
  0
LINE
  5
4E
  8
1
 62
     7
 10
167.79041818004899
 20
46.92025551238482
 30
0.0
 11
168.73271795866401
 21
47.464292543225511
 31
0.0
  0
LINE
  5
4F
  8
1
 62
     7
 10
145.10369298666791
 20
43.456153897247091
 30
0.0
 11
144.1613932080528
 21
44.000190928087768
 31
0.0
  0
LINE
  5
50
  8
1
 62
     7
 10
62.232310542895974
 20
44.639111256101103
 30
0.0
 11
63.732310542895974
 21
44.639111256101103
 31
0.0
  0
LINE
  5
51
  8
1
 62
     7
 10
62.232310542895974
 20
63.389111256101103
 30
0.0
 11
63.732310542895974
 21
63.389111256101103
 31
0.0
  0
LINE
  5
52
  8
1
 62
     7
 10
62.232310542895974
 20
70.889111256101089
 30
0.0
 11
63.732310542895974
 21
70.889111256101089
 31
0.0
  0
LINE
  5
53
  8
1
 62
     7
 10
63.732310542895974
 20
22.639111256101099
 30
0.0
 11
62.232310542895974
 21
22.639111256101099
 31
0.0
  0
LINE
  5
54
  8
1
 62
     7
 10
62.232310542895974
 20
22.639111256101099
 30
0.0
 11
62.232310542895974
 21
32.63911125610106
 31
0.0
  0
LINE
  5
55
  8
1
 62
     7
 10
62.232310542895974
 20
73.639111256101074
 30
0.0
 11
63.732310542895974
 21
73.639111256101074
 31
0.0
  0
LINE
  5
56
  8
1
 62
     7
 10
74.732310542895959
 20
46.139111256101089
 30
0.0
 11
78.732310542895959
 21
46.139111256101089
 31
0.0
  0
LINE
  5
57
  8
1
 62
     7
 10
73.632310542895951
 20
46.489111256101083
 30
0.0
 11
73.632310542895951
 21
46.139111256101089
 31
0.0
  0
LINE
  5
58
  8
1
 62
     7
 10
74.732310542895959
 20
46.489111256101083
 30
0.0
 11
73.732310542895959
 21
46.489111256101083
 31
0.0
  0
LINE
  5
59
  8
1
 62
     7
 10
63.732310542895959
 20
46.639111256101089
 30
0.0
 11
64.598335946680393
 21
46.139111256101089
 31
0.0
  0
LINE
  5
5A
  8
1
 62
     7
 10
81.232310542895945
 20
58.639111256101089
 30
0.0
 11
81.232310542895945
 21
56.939111256101093
 31
0.0
  0
LINE
  5
5B
  8
1
 62
     7
 10
81.232310542895945
 20
58.639111256101089
 30
0.0
 11
72.232310542895959
 21
58.639111256101089
 31
0.0
  0
LINE
  5
5C
  8
1
 62
     7
 10
75.732310542895917
 20
46.139111256101103
 30
0.0
 11
76.732310542895917
 21
46.139111256101103
 31
0.0
  0
LINE
  5
5D
  8
1
 62
     3
 10
70.12231054289596
 20
86.881550337561137
 30
0.0
 11
70.12231054289596
 21
83.920745192923334
 31
0.0
  0
LINE
  5
5E
  8
1
 62
     3
 10
69.34231054289593
 20
83.920745192923334
 30
0.0
 11
69.34231054289593
 21
86.881550337561137
 31
0.0
  0
LINE
  5
5F
  8
1
 62
     7
 10
67.232310542895959
 20
59.639111256101103
 30
0.0
 11
66.732310542895959
 21
59.139111256101089
 31
0.0
  0
LINE
  5
60
  8
1
 62
     7
 10
66.732310542895959
 20
59.139111256101089
 30
0.0
 11
66.732310542895959
 21
58.639111256101089
 31
0.0
  0
LINE
  5
61
  8
1
 62
     7
 10
72.232310542895917
 20
59.639111256101103
 30
0.0
 11
70.652310542895933
 21
59.639111256101103
 31
0.0
  0
LINE
  5
62
  8
1
 62
     7
 10
72.732310542895917
 20
58.639111256101089
 30
0.0
 11
72.732310542895917
 21
59.139111256101089
 31
0.0
  0
LINE
  5
63
  8
1
 62
     7
 10
72.732310542895917
 20
59.139111256101089
 30
0.0
 11
72.232310542895917
 21
59.639111256101103
 31
0.0
  0
LINE
  5
64
  8
1
 62
     7
 10
68.812310542895901
 20
59.639111256101103
 30
0.0
 11
67.232310542895959
 21
59.639111256101103
 31
0.0
  0
LINE
  5
65
  8
1
 62
     7
 10
68.812310542895901
 20
83.920745192923334
 30
0.0
 11
68.812310542895901
 21
59.639111256101103
 31
0.0
  0
LINE
  5
66
  8
1
 62
     7
 10
70.652310542895933
 20
83.920745192923334
 30
0.0
 11
70.652310542895933
 21
59.639111256101103
 31
0.0
  0
LINE
  5
67
  8
1
 62
     7
 10
68.812310542895901
 20
83.920745192923334
 30
0.0
 11
70.652310542895933
 21
83.920745192923334
 31
0.0
  0
LINE
  5
68
  8
1
 62
     7
 10
67.232310542895959
 20
58.639111256101089
 30
0.0
 11
65.732310542895959
 21
58.639111256101089
 31
0.0
  0
LINE
  5
69
  8
1
 62
     7
 10
73.732310542895959
 20
44.939111256101057
 30
0.0
 11
74.732310542895959
 21
44.939111256101057
 31
0.0
  0
LINE
  5
6A
  8
1
 62
     7
 10
64.272310542895966
 20
41.639111256101089
 30
0.0
 11
68.192310542895953
 21
41.639111256101089
 31
0.0
  0
LINE
  5
6B
  8
1
 62
     7
 10
64.272310542895966
 20
46.139111256101089
 30
0.0
 11
73.192310542895953
 21
46.139111256101089
 31
0.0
  0
LINE
  5
6C
  8
1
 62
     7
 10
65.557310542895962
 20
45.058245551210078
 30
0.0
 11
63.732310542895974
 21
45.058245551210071
 31
0.0
  0
LINE
  5
6D
  8
1
 62
     7
 10
65.557310542895962
 20
42.719976960992099
 30
0.0
 11
63.732310542895974
 21
42.719976960992099
 31
0.0
  0
LINE
  5
6E
  8
1
 62
     7
 10
66.907310542895971
 20
42.719976960992099
 30
0.0
 11
70.557310542895962
 21
42.719976960992099
 31
0.0
  0
LINE
  5
6F
  8
1
 62
     7
 10
69.272310542895937
 20
41.639111256101089
 30
0.0
 11
73.192310542895953
 21
41.639111256101089
 31
0.0
  0
LINE
  5
70
  8
1
 62
     7
 10
71.907310542895956
 20
45.058245551210078
 30
0.0
 11
73.732310542895959
 21
45.058245551210071
 31
0.0
  0
LINE
  5
71
  8
1
 62
     7
 10
70.557310542895962
 20
45.058245551210078
 30
0.0
 11
66.907310542895971
 21
45.058245551210078
 31
0.0
  0
LINE
  5
72
  8
1
 62
     7
 10
71.907310542895956
 20
42.719976960992099
 30
0.0
 11
73.732310542895959
 21
42.719976960992099
 31
0.0
  0
LINE
  5
73
  8
1
 62
     7
 10
73.192310542895953
 20
46.139111256101089
 30
0.0
 11
73.632310542895951
 21
46.139111256101089
 31
0.0
  0
LINE
  5
74
  8
1
 62
     7
 10
73.732310542895959
 20
46.489111256101083
 30
0.0
 11
73.632310542895951
 21
46.489111256101083
 31
0.0
  0
LINE
  5
75
  8
1
 62
     7
 10
74.732310542895959
 20
43.139111256101089
 30
0.0
 11
74.732310542895959
 21
46.489111256101083
 31
0.0
  0
LINE
  5
76
  8
1
 62
     7
 10
78.732310542895959
 20
45.639111256101103
 30
0.0
 11
78.732310542895959
 21
57.689111256101093
 31
0.0
  0
LINE
  5
77
  8
1
 62
     7
 10
84.532310542895928
 20
33.639111256101081
 30
0.0
 11
84.732310542895959
 21
33.639111256101081
 31
0.0
  0
LINE
  5
78
  8
1
 62
     7
 10
84.532310542895928
 20
51.639111256101089
 30
0.0
 11
83.532310542895942
 21
50.639111256101089
 31
0.0
  0
LINE
  5
79
  8
1
 62
     7
 10
84.532310542895928
 20
58.639111256101089
 30
0.0
 11
84.532310542895928
 21
43.639111256101089
 31
0.0
  0
LINE
  5
7A
  8
1
 62
     7
 10
92.732310542895945
 20
43.639111256101089
 30
0.0
 11
84.032310542895942
 21
43.639111256101089
 31
0.0
  0
LINE
  5
7B
  8
1
 62
     7
 10
73.732310542895959
 20
43.139111256101089
 30
0.0
 11
75.232310542895945
 21
43.139111256101089
 31
0.0
  0
LINE
  5
7C
  8
1
 62
     7
 10
75.232310542895945
 20
43.139111256101089
 30
0.0
 11
75.232310542895945
 21
45.639111256101103
 31
0.0
  0
LINE
  5
7D
  8
1
 62
     7
 10
79.732310542895959
 20
56.939111256101093
 30
0.0
 11
81.732310542895959
 21
56.939111256101093
 31
0.0
  0
LINE
  5
7E
  8
1
 62
     7
 10
81.732310542895959
 20
56.939111256101093
 30
0.0
 11
82.713806000518318
 21
58.639111256101089
 31
0.0
  0
LINE
  5
7F
  8
1
 62
     7
 10
82.713806000518318
 20
58.639111256101089
 30
0.0
 11
84.532310542895928
 21
58.639111256101089
 31
0.0
  0
LINE
  5
80
  8
1
 62
     7
 10
83.532310542895942
 20
50.639111256101089
 30
0.0
 11
83.532310542895942
 21
44.139111256101089
 31
0.0
  0
LINE
  5
81
  8
1
 62
     7
 10
73.732310542895959
 20
42.539111256101087
 30
0.0
 11
92.732310542895945
 21
42.539111256101087
 31
0.0
  0
LINE
  5
82
  8
1
 62
     7
 10
73.732310542895959
 20
41.639111256101089
 30
0.0
 11
92.732310542895945
 21
41.639111256101089
 31
0.0
  0
LINE
  5
83
  8
1
 62
     7
 10
73.732310542895959
 20
43.139111256101089
 30
0.0
 11
73.732310542895959
 21
41.639111256101089
 31
0.0
  0
LINE
  5
84
  8
1
  6
DASHDOT
 62
     3
 10
155.9212726572791
 20
38.639111256101089
 30
0.0
 11
158.97283850943771
 21
38.639111256101089
 31
0.0
  0
LINE
  5
85
  8
1
  6
DASHDOT
 62
     3
 10
157.44705558335841
 20
37.11332833002178
 30
0.0
 11
157.44705558335841
 21
40.164894182180383
 31
0.0
  0
LINE
  5
86
  8
1
  6
DASHDOT
 62
     3
 10
157.44705558335829
 20
46.9412081414958
 30
0.0
 11
157.44705558335829
 21
52.337014370706463
 31
0.0
  0
LINE
  5
87
  8
1
  6
DASHDOT
 62
     3
 10
150.2572287759269
 20
34.488062813403651
 30
0.0
 11
145.5843235075321
 21
31.790159698798341
 31
0.0
  0
LINE
  5
88
  8
1
  6
DASHDOT
 62
     3
 10
62.232310542895974
 20
38.639111256101089
 30
0.0
 11
59.232310542895981
 21
38.639111256101089
 31
0.0
  0
LINE
  5
89
  8
1
 62
     7
 10
12.88085310792496
 20
38.639111256101089
 30
0.0
 11
12.88085310792496
 21
25.389111256101089
 31
0.0
  0
LINE
  5
8A
  8
1
 62
     7
 10
-18.119146892075008
 20
38.639111256101089
 30
0.0
 11
-18.119146892075008
 21
73.639111256101074
 31
0.0
  0
LINE
  5
8B
  8
1
 62
     7
 10
-13.039146892075079
 20
59.639111256101103
 30
0.0
 11
-11.19914689207504
 21
59.639111256101103
 31
0.0
  0
LINE
  5
8C
  8
1
 62
     7
 10
-14.61914689207503
 20
58.639111256101089
 30
0.0
 11
-9.6191468920750367
 21
58.639111256101089
 31
0.0
  0
LINE
  5
8D
  8
1
 62
     7
 10
-18.119146892075008
 20
22.639111256101099
 30
0.0
 11
-19.619146892075001
 21
22.639111256101099
 31
0.0
  0
LINE
  5
8E
  8
1
 62
     7
 10
-19.619146892075001
 20
22.639111256101099
 30
0.0
 11
-19.619146892075001
 21
73.639111256101074
 31
0.0
  0
LINE
  5
8F
  8
1
 62
     7
 10
-19.619146892075001
 20
73.639111256101074
 30
0.0
 11
-18.119146892075008
 21
73.639111256101074
 31
0.0
  0
LINE
  5
90
  8
1
 62
     7
 10
-0.6191468920750367
 20
18.639111256101089
 30
0.0
 11
-0.6191468920750367
 21
58.639111256101089
 31
0.0
  0
LINE
  5
91
  8
1
 62
     7
 10
-0.6191468920750367
 20
18.639111256101089
 30
0.0
 11
-16.11914689207503
 21
18.639111256101089
 31
0.0
  0
LINE
  5
92
  8
1
 62
     7
 10
-0.6191468920750367
 20
58.639111256101089
 30
0.0
 11
-9.6191468920750367
 21
58.639111256101089
 31
0.0
  0
LINE
  5
93
  8
1
 62
     7
 10
-14.61914689207501
 20
59.639111256101103
 30
0.0
 11
-15.11914689207501
 21
59.139111256101089
 31
0.0
  0
LINE
  5
94
  8
1
 62
     7
 10
-15.11914689207501
 20
59.139111256101089
 30
0.0
 11
-15.11914689207501
 21
58.639111256101089
 31
0.0
  0
LINE
  5
95
  8
1
 62
     7
 10
-9.6191468920750633
 20
59.639111256101103
 30
0.0
 11
-11.19914689207504
 21
59.639111256101103
 31
0.0
  0
LINE
  5
96
  8
1
 62
     7
 10
-9.1191468920750633
 20
58.639111256101089
 30
0.0
 11
-9.1191468920750633
 21
59.139111256101089
 31
0.0
  0
LINE
  5
97
  8
1
 62
     7
 10
-9.1191468920750633
 20
59.139111256101089
 30
0.0
 11
-9.6191468920750633
 21
59.639111256101103
 31
0.0
  0
LINE
  5
98
  8
1
 62
     7
 10
-13.039146892075079
 20
59.639111256101103
 30
0.0
 11
-14.61914689207501
 21
59.639111256101103
 31
0.0
  0
LINE
  5
99
  8
1
 62
     7
 10
-13.039146892075079
 20
83.920745192923334
 30
0.0
 11
-13.039146892075079
 21
59.639111256101103
 31
0.0
  0
LINE
  5
9A
  8
1
 62
     7
 10
-11.19914689207504
 20
83.920745192923334
 30
0.0
 11
-11.19914689207504
 21
59.639111256101103
 31
0.0
  0
LINE
  5
9B
  8
1
 62
     7
 10
-14.61914689207503
 20
58.639111256101089
 30
0.0
 11
-16.11914689207503
 21
58.639111256101089
 31
0.0
  0
LINE
  5
9C
  8
1
 62
     7
 10
-18.11914689207503
 20
20.639111256101089
 30
0.0
 11
-18.119146892075008
 21
38.639111256101089
 31
0.0
  0
LINE
  5
9D
  8
1
 62
     7
 10
2.6808531079249449
 20
18.639111256101089
 30
0.0
 11
2.6808531079249449
 21
58.639111256101089
 31
0.0
  0
LINE
  5
9E
  8
1
 62
     7
 10
0.8623485655473357
 20
18.639111256101089
 30
0.0
 11
0.8623485655473357
 21
58.639111256101089
 31
0.0
  0
LINE
  5
9F
  8
1
 62
     7
 10
-0.1191468920750367
 20
20.339111256101091
 30
0.0
 11
-0.1191468920750367
 21
56.939111256101093
 31
0.0
  0
LINE
  5
A0
  8
1
 62
     7
 10
2.6808531079249449
 20
33.639111256101081
 30
0.0
 11
2.880853107924962
 21
33.639111256101081
 31
0.0
  0
LINE
  5
A1
  8
1
 62
     7
 10
2.6808531079249449
 20
18.639111256101089
 30
0.0
 11
0.8623485655473357
 21
18.639111256101089
 31
0.0
  0
LINE
  5
A2
  8
1
 62
     7
 10
-0.1191468920750367
 20
56.939111256101093
 30
0.0
 11
0.8623485655473357
 21
58.639111256101089
 31
0.0
  0
LINE
  5
A3
  8
1
 62
     7
 10
0.8623485655473357
 20
58.639111256101089
 30
0.0
 11
2.6808531079249449
 21
58.639111256101089
 31
0.0
  0
LINE
  5
A4
  8
1
 62
     7
 10
0.8623485655473357
 20
18.639111256101089
 30
0.0
 11
-0.1191468920750367
 21
20.339111256101091
 31
0.0
  0
LINE
  5
A5
  8
1
 62
     7
 10
-0.1191468920750367
 20
20.339111256101091
 30
0.0
 11
-0.6191468920750367
 21
20.339111256101091
 31
0.0
  0
LINE
  5
A6
  8
1
 62
     7
 10
6.0808531079249803
 20
31.389111256101089
 30
0.0
 11
6.0808531079249803
 21
28.389111256101081
 31
0.0
  0
LINE
  5
A7
  8
1
 62
     7
 10
5.5808531079249519
 20
28.389111256101081
 30
0.0
 11
6.0808531079249803
 21
28.389111256101081
 31
0.0
  0
LINE
  5
A8
  8
1
 62
     7
 10
6.0808531079249803
 20
31.389111256101089
 30
0.0
 11
6.0808531079249803
 21
28.389111256101081
 31
0.0
  0
LINE
  5
A9
  8
1
 62
     7
 10
5.5808531079249519
 20
31.389111256101089
 30
0.0
 11
6.0808531079249803
 21
31.389111256101089
 31
0.0
  0
LINE
  5
AA
  8
1
 62
     7
 10
6.0808531079249803
 20
31.389111256101089
 30
0.0
 11
6.0808531079249803
 21
28.389111256101081
 31
0.0
  0
LINE
  5
AB
  8
1
 62
     7
 10
2.880853107924962
 20
58.789111256101087
 30
0.0
 11
2.880853107924962
 21
18.489111256101079
 31
0.0
  0
LINE
  5
AC
  8
1
 62
     7
 10
12.88085310792496
 20
25.389111256101089
 30
0.0
 11
5.5808531079249519
 21
25.389111256101089
 31
0.0
  0
LINE
  5
AD
  8
1
 62
     7
 10
12.88085310792496
 20
51.889111256101089
 30
0.0
 11
5.5808531079249519
 21
51.889111256101089
 31
0.0
  0
LINE
  5
AE
  8
1
 62
     7
 10
12.88085310792496
 20
51.889111256101089
 30
0.0
 11
12.88085310792496
 21
38.639111256101089
 31
0.0
  0
LINE
  5
AF
  8
1
 62
     7
 10
2.880853107924962
 20
58.789111256101087
 30
0.0
 11
5.330853107924951
 21
58.789111256101087
 31
0.0
  0
LINE
  5
B0
  8
1
 62
     7
 10
5.330853107924951
 20
58.789111256101087
 30
0.0
 11
5.330853107924951
 21
18.489111256101079
 31
0.0
  0
LINE
  5
B1
  8
1
 62
     7
 10
5.330853107924951
 20
18.489111256101079
 30
0.0
 11
2.880853107924962
 21
18.489111256101079
 31
0.0
  0
LINE
  5
B2
  8
1
 62
     7
 10
5.330853107924951
 20
58.139111256101089
 30
0.0
 11
5.5808531079249519
 21
58.139111256101089
 31
0.0
  0
LINE
  5
B3
  8
1
 62
     7
 10
5.5808531079249519
 20
58.139111256101089
 30
0.0
 11
5.5808531079249519
 21
19.139111256101089
 31
0.0
  0
LINE
  5
B4
  8
1
 62
     7
 10
5.5808531079249519
 20
19.139111256101089
 30
0.0
 11
5.330853107924951
 21
19.139111256101089
 31
0.0
  0
LINE
  5
B5
  8
1
 62
     7
 10
5.5808531079249519
 20
57.639111256101103
 30
0.0
 11
6.0808531079249803
 21
57.639111256101103
 31
0.0
  0
LINE
  5
B6
  8
1
 62
     7
 10
5.5808531079249519
 20
54.639111256101103
 30
0.0
 11
6.0808531079249803
 21
54.639111256101103
 31
0.0
  0
LINE
  5
B7
  8
1
 62
     7
 10
6.0808531079249803
 20
57.639111256101103
 30
0.0
 11
6.0808531079249803
 21
54.639111256101103
 31
0.0
  0
LINE
  5
B8
  8
1
  6
DASHDOT
 62
     3
 10
12.88085310792496
 20
38.639111256101089
 30
0.0
 11
15.88085310792496
 21
38.639111256101089
 31
0.0
  0
LINE
  5
B9
  8
1
  6
DASHDOT
 62
     3
 10
-19.619146892075001
 20
38.639111256101089
 30
0.0
 11
-22.619146892075001
 21
38.639111256101089
 31
0.0
  0
LINE
  5
BA
  8
1
 62
     7
 10
84.732310542895959
 20
43.639111256101089
 30
0.0
 11
84.732310542895917
 21
58.789111256101123
 31
0.0
  0
LINE
  5
BB
  8
1
  6
CENTER
 62
     3
 10
86.328181620830904
 20
49.639111256101103
 30
0.0
 11
95.836439464960918
 21
49.639111256101103
 31
0.0
  0
LINE
  5
BC
  8
1
 62
     7
 10
87.432310542895905
 20
28.889111256101099
 30
0.0
 11
87.432310542895905
 21
19.139111256101089
 31
0.0
  0
LINE
  5
BD
  8
1
 62
     7
 10
90.451925785166566
 20
29.1891112561011
 30
0.0
 11
91.132310542895951
 21
29.1891112561011
 31
0.0
  0
LINE
  5
BE
  8
1
 62
     7
 10
90.451925785166566
 20
31.589111256101081
 30
0.0
 11
91.132310542895951
 21
31.589111256101081
 31
0.0
  0
LINE
  5
BF
  8
1
 62
     7
 10
90.451925785166566
 20
31.589111256101081
 30
0.0
 11
90.451925785166566
 21
29.1891112561011
 31
0.0
  0
LINE
  5
C0
  8
1
 62
     7
 10
86.44319040127138
 20
27.639111256101099
 30
0.0
 11
86.882310542895894
 21
27.639111256101099
 31
0.0
  0
LINE
  5
C1
  8
1
 62
     7
 10
86.44319040127138
 20
33.139111256101103
 30
0.0
 11
86.882310542895894
 21
33.139111256101103
 31
0.0
  0
LINE
  5
C2
  8
1
 62
     7
 10
92.732310542895945
 20
46.139111256101103
 30
0.0
 11
92.732310542895945
 21
41.639111256101089
 31
0.0
  0
LINE
  5
C3
  8
1
 62
     7
 10
94.732310542895931
 20
46.139111256101103
 30
0.0
 11
92.732310542895945
 21
46.139111256101103
 31
0.0
  0
LINE
  5
C4
  8
1
 62
     7
 10
87.432310542895905
 20
33.139111256101103
 30
0.0
 11
92.732310542895945
 21
33.139111256101103
 31
0.0
  0
LINE
  5
C5
  8
1
 62
     7
 10
87.432310542895905
 20
44.139111256101103
 30
0.0
 11
92.732310542895945
 21
44.139111256101089
 31
0.0
  0
LINE
  5
C6
  8
1
 62
     7
 10
94.732310542895931
 20
25.389111256101099
 30
0.0
 11
87.432310542895905
 21
25.389111256101099
 31
0.0
  0
LINE
  5
C7
  8
1
 62
     7
 10
94.732310542895931
 20
51.889111256101103
 30
0.0
 11
87.432310542895905
 21
51.889111256101103
 31
0.0
  0
LINE
  5
C8
  8
1
 62
     7
 10
94.732310542895931
 20
51.889111256101103
 30
0.0
 11
94.732310542895931
 21
46.139111256101103
 31
0.0
  0
LINE
  5
C9
  8
1
 62
     7
 10
92.732310542895945
 20
31.139111256101099
 30
0.0
 11
94.732310542895931
 21
31.139111256101099
 31
0.0
  0
LINE
  5
CA
  8
1
 62
     3
 10
87.432310542895905
 20
48.139111256101103
 30
0.0
 11
94.732310542895931
 21
48.139111256101103
 31
0.0
  0
LINE
  5
CB
  8
1
 62
     3
 10
87.432310542895905
 20
51.139111256101103
 30
0.0
 11
94.732310542895931
 21
51.139111256101103
 31
0.0
  0
LINE
  5
CC
  8
1
 62
     7
 10
87.432310542895905
 20
48.439111256101107
 30
0.0
 11
94.732310542895931
 21
48.439111256101107
 31
0.0
  0
LINE
  5
CD
  8
1
 62
     7
 10
87.432310542895905
 20
50.839111256101091
 30
0.0
 11
94.732310542895931
 21
50.839111256101091
 31
0.0
  0
LINE
  5
CE
  8
1
 62
     7
 10
89.932310542895905
 20
31.889111256101099
 30
0.0
 11
87.182310542895905
 21
31.889111256101099
 31
0.0
  0
LINE
  5
CF
  8
1
 62
     7
 10
89.932310542895905
 20
31.889111256101099
 30
0.0
 11
90.451925785166566
 21
31.589111256101081
 31
0.0
  0
LINE
  5
D0
  8
1
 62
     7
 10
90.451925785166566
 20
29.1891112561011
 30
0.0
 11
89.932310542895905
 21
28.889111256101099
 31
0.0
  0
LINE
  5
D1
  8
1
 62
     7
 10
89.932310542895905
 20
28.889111256101099
 30
0.0
 11
87.182310542895905
 21
28.889111256101099
 31
0.0
  0
LINE
  5
D2
  8
1
 62
     3
 10
90.451925785166566
 20
31.589111256101081
 30
0.0
 11
87.182310542895905
 21
31.589111256101081
 31
0.0
  0
LINE
  5
D3
  8
1
 62
     7
 10
89.932310542895905
 20
28.889111256101099
 30
0.0
 11
89.932310542895905
 21
31.889111256101099
 31
0.0
  0
LINE
  5
D4
  8
1
 62
     7
 10
91.132310542895951
 20
31.589111256101081
 30
0.0
 11
91.132310542895951
 21
29.1891112561011
 31
0.0
  0
LINE
  5
D5
  8
1
 62
     3
 10
90.451925785166566
 20
29.1891112561011
 30
0.0
 11
87.182310542895905
 21
29.1891112561011
 31
0.0
  0
LINE
  5
D6
  8
1
 62
     7
 10
91.132310542895951
 20
31.589111256101081
 30
0.0
 11
91.825130865923484
 21
30.389111256101099
 31
0.0
  0
LINE
  5
D7
  8
1
 62
     7
 10
91.825130865923484
 20
30.389111256101099
 30
0.0
 11
91.132310542895951
 21
29.1891112561011
 31
0.0
  0
LINE
  5
D8
  8
1
 62
     7
 10
84.732310542895917
 20
18.489111256101101
 30
0.0
 11
84.732310542895959
 21
33.639111256101081
 31
0.0
  0
LINE
  5
D9
  8
1
 62
     7
 10
84.732310542895917
 20
58.789111256101123
 30
0.0
 11
87.182310542895934
 21
58.789111256101087
 31
0.0
  0
LINE
  5
DA
  8
1
 62
     7
 10
87.182310542895934
 20
58.789111256101087
 30
0.0
 11
87.182310542895934
 21
57.139111256101103
 31
0.0
  0
LINE
  5
DB
  8
1
 62
     7
 10
87.182310542895905
 20
55.139111256101103
 30
0.0
 11
87.182310542895905
 21
43.639111256101089
 31
0.0
  0
LINE
  5
DC
  8
1
 62
     7
 10
87.182310542895905
 20
18.489111256101101
 30
0.0
 11
84.732310542895917
 21
18.489111256101101
 31
0.0
  0
LINE
  5
DD
  8
1
 62
     7
 10
84.732310542895917
 20
57.389111256101103
 30
0.0
 11
85.732310542895917
 21
57.389111256101103
 31
0.0
  0
LINE
  5
DE
  8
1
 62
     7
 10
85.732310542895917
 20
57.389111256101103
 30
0.0
 11
85.732310542895917
 21
54.889111256101103
 31
0.0
  0
LINE
  5
DF
  8
1
 62
     7
 10
85.732310542895917
 20
54.889111256101103
 30
0.0
 11
84.732310542895917
 21
54.889111256101103
 31
0.0
  0
LINE
  5
E0
  8
1
 62
     7
 10
84.732310542895917
 20
46.889111256101103
 30
0.0
 11
87.182310542895905
 21
46.889111256101103
 31
0.0
  0
LINE
  5
E1
  8
1
 62
     7
 10
84.732310542895917
 20
27.089111256101091
 30
0.0
 11
87.182310542895905
 21
27.089111256101091
 31
0.0
  0
LINE
  5
E2
  8
1
 62
     7
 10
87.182310542895934
 20
58.139111256101089
 30
0.0
 11
87.432310542895905
 21
58.139111256101103
 31
0.0
  0
LINE
  5
E3
  8
1
 62
     7
 10
87.432310542895905
 20
58.139111256101103
 30
0.0
 11
87.432310542895905
 21
57.139111256101103
 31
0.0
  0
LINE
  5
E4
  8
1
 62
     7
 10
87.432310542895905
 20
55.139111256101103
 30
0.0
 11
87.432310542895905
 21
43.639111256101089
 31
0.0
  0
LINE
  5
E5
  8
1
 62
     7
 10
87.432310542895905
 20
19.139111256101089
 30
0.0
 11
87.182310542895905
 21
19.139111256101089
 31
0.0
  0
LINE
  5
E6
  8
1
 62
     7
 10
87.182310542895934
 20
57.139111256101103
 30
0.0
 11
87.432310542895905
 21
57.139111256101103
 31
0.0
  0
LINE
  5
E7
  8
1
 62
     7
 10
87.182310542895905
 20
55.139111256101103
 30
0.0
 11
87.432310542895905
 21
55.139111256101103
 31
0.0
  0
LINE
  5
E8
  8
1
 62
     7
 10
87.432310542895934
 20
57.639111256101103
 30
0.0
 11
87.932310542895905
 21
57.639111256101103
 31
0.0
  0
LINE
  5
E9
  8
1
 62
     7
 10
87.432310542895905
 20
54.639111256101103
 30
0.0
 11
87.932310542895905
 21
54.639111256101103
 31
0.0
  0
LINE
  5
EA
  8
1
 62
     7
 10
87.932310542895905
 20
57.639111256101103
 30
0.0
 11
87.932310542895905
 21
54.639111256101103
 31
0.0
  0
LINE
  5
EB
  8
1
 62
     7
 10
78.732310542895959
 20
31.139111256101081
 30
0.0
 11
74.732310542895959
 21
31.139111256101081
 31
0.0
  0
LINE
  5
EC
  8
1
 62
     7
 10
73.632310542895951
 20
31.139111256101081
 30
0.0
 11
73.632310542895951
 21
30.78911125610108
 31
0.0
  0
LINE
  5
ED
  8
1
 62
     7
 10
73.732310542895959
 20
30.78911125610108
 30
0.0
 11
74.732310542895959
 21
30.78911125610108
 31
0.0
  0
LINE
  5
EE
  8
1
 62
     7
 10
64.598335946680393
 20
31.139111256101081
 30
0.0
 11
63.732310542895959
 21
30.639111256101089
 31
0.0
  0
LINE
  5
EF
  8
1
 62
     7
 10
81.232310542895945
 20
20.339111256101081
 30
0.0
 11
81.232310542895945
 21
18.639111256101089
 31
0.0
  0
LINE
  5
F0
  8
1
 62
     7
 10
76.732310542895917
 20
31.139111256101071
 30
0.0
 11
75.732310542895917
 21
31.139111256101071
 31
0.0
  0
LINE
  5
F1
  8
1
 62
     7
 10
65.732310542895959
 20
18.639111256101089
 30
0.0
 11
81.232310542895945
 21
18.639111256101089
 31
0.0
  0
LINE
  5
F2
  8
1
 62
     7
 10
74.732310542895959
 20
32.339111256101098
 30
0.0
 11
73.732310542895959
 21
32.339111256101098
 31
0.0
  0
LINE
  5
F3
  8
1
 62
     7
 10
68.192310542895953
 20
35.639111256101089
 30
0.0
 11
64.272310542895966
 21
35.639111256101089
 31
0.0
  0
LINE
  5
F4
  8
1
 62
     7
 10
73.192310542895953
 20
31.139111256101081
 30
0.0
 11
64.272310542895966
 21
31.139111256101081
 31
0.0
  0
LINE
  5
F5
  8
1
 62
     7
 10
63.732310542895974
 20
32.219976960992099
 30
0.0
 11
65.557310542895962
 21
32.219976960992099
 31
0.0
  0
LINE
  5
F6
  8
1
 62
     7
 10
63.732310542895974
 20
34.558245551210049
 30
0.0
 11
65.557310542895962
 21
34.558245551210078
 31
0.0
  0
LINE
  5
F7
  8
1
 62
     7
 10
70.557310542895962
 20
34.558245551210078
 30
0.0
 11
66.907310542895971
 21
34.558245551210078
 31
0.0
  0
LINE
  5
F8
  8
1
 62
     7
 10
73.192310542895953
 20
35.639111256101089
 30
0.0
 11
69.272310542895937
 21
35.639111256101089
 31
0.0
  0
LINE
  5
F9
  8
1
 62
     7
 10
73.732310542895959
 20
32.219976960992099
 30
0.0
 11
71.907310542895956
 21
32.219976960992099
 31
0.0
  0
LINE
  5
FA
  8
1
 62
     7
 10
66.907310542895971
 20
32.219976960992099
 30
0.0
 11
70.557310542895962
 21
32.219976960992099
 31
0.0
  0
LINE
  5
FB
  8
1
 62
     7
 10
73.732310542895959
 20
34.558245551210049
 30
0.0
 11
71.907310542895956
 21
34.558245551210078
 31
0.0
  0
LINE
  5
FC
  8
1
 62
     7
 10
73.632310542895951
 20
31.139111256101081
 30
0.0
 11
73.192310542895953
 21
31.139111256101081
 31
0.0
  0
LINE
  5
FD
  8
1
 62
     7
 10
73.632310542895951
 20
30.78911125610108
 30
0.0
 11
73.732310542895959
 21
30.78911125610108
 31
0.0
  0
LINE
  5
FE
  8
1
 62
     7
 10
73.732310542895959
 20
30.78911125610108
 30
0.0
 11
73.732310542895959
 21
35.639111256101089
 31
0.0
  0
LINE
  5
FF
  8
1
 62
     7
 10
68.732310542895959
 20
31.679111256101091
 30
0.0
 11
68.732310542895959
 21
35.099111256101089
 31
0.0
  0
LINE
  5
100
  8
1
 62
     7
 10
74.732310542895959
 20
30.78911125610108
 30
0.0
 11
74.732310542895959
 21
34.139111256101089
 31
0.0
  0
LINE
  5
101
  8
1
 62
     7
 10
78.732310542895959
 20
19.58911125610113
 30
0.0
 11
78.732310542895959
 21
31.639111256101121
 31
0.0
  0
LINE
  5
102
  8
1
 62
     7
 10
83.532310542895942
 20
26.639111256101089
 30
0.0
 11
84.532310542895928
 21
25.639111256101089
 31
0.0
  0
LINE
  5
103
  8
1
 62
     7
 10
84.532310542895928
 20
33.639111256101081
 30
0.0
 11
84.532310542895928
 21
18.639111256101089
 31
0.0
  0
LINE
  5
104
  8
1
 62
     7
 10
75.232310542895945
 20
34.139111256101089
 30
0.0
 11
73.732310542895959
 21
34.139111256101089
 31
0.0
  0
LINE
  5
105
  8
1
 62
     7
 10
81.732310542895959
 20
20.339111256101081
 30
0.0
 11
79.732310542895959
 21
20.339111256101081
 31
0.0
  0
LINE
  5
106
  8
1
 62
     7
 10
82.713806000518318
 20
18.639111256101089
 30
0.0
 11
81.732310542895959
 21
20.339111256101081
 31
0.0
  0
LINE
  5
107
  8
1
 62
     7
 10
84.532310542895928
 20
18.639111256101089
 30
0.0
 11
82.713806000518318
 21
18.639111256101089
 31
0.0
  0
LINE
  5
108
  8
1
 62
     7
 10
83.532310542895942
 20
33.139111256101089
 30
0.0
 11
83.532310542895942
 21
26.639111256101089
 31
0.0
  0
LINE
  5
109
  8
1
 62
     7
 10
84.032310542895942
 20
33.639111256101081
 30
0.0
 11
92.732310542895945
 21
33.639111256101081
 31
0.0
  0
LINE
  5
10A
  8
1
 62
     7
 10
87.182310542895905
 20
33.639111256101081
 30
0.0
 11
87.182310542895905
 21
18.489111256101101
 31
0.0
  0
LINE
  5
10B
  8
1
 62
     7
 10
87.432310542895905
 20
33.639111256101081
 30
0.0
 11
87.432310542895905
 21
31.889111256101099
 31
0.0
  0
LINE
  5
10C
  8
1
 62
     7
 10
63.732310542895959
 20
20.639111256101089
 30
0.0
 11
63.732310542895974
 21
35.099111256101089
 31
0.0
  0
LINE
  5
10D
  8
1
  6
DASHDOT
 62
     3
 10
94.732310542895931
 20
38.639111256101103
 30
0.0
 11
97.732310542895945
 21
38.639111256101103
 31
0.0
  0
LINE
  5
10E
  8
1
 62
     7
 10
73.732310542895959
 20
35.639111256101089
 30
0.0
 11
92.732310542895945
 21
35.639111256101089
 31
0.0
  0
LINE
  5
10F
  8
1
 62
     7
 10
-0.6191468920750367
 20
56.939111256101093
 30
0.0
 11
-0.1191468920750367
 21
56.939111256101093
 31
0.0
  0
LINE
  5
110
  8
1
 62
     7
 10
2.880853107924962
 20
43.639111256101103
 30
0.0
 11
2.6808531079249449
 21
43.639111256101103
 31
0.0
  0
LINE
  5
111
  8
1
 62
     7
 10
-16.11914689207503
 20
58.639111256101089
 30
0.0
 11
-16.11914689207503
 21
18.639111256101089
 31
0.0
  0
LINE
  5
112
  8
1
 62
     7
 10
-89.546395400062281
 20
58.447326565182919
 30
0.0
 11
-96.166983856967235
 21
83.155699062356234
 31
0.0
  0
LINE
  5
113
  8
1
 62
     7
 10
-87.769091879690365
 20
58.923553608171552
 30
0.0
 11
-94.389680336595362
 21
83.631926105344874
 31
0.0
  0
LINE
  5
114
  8
1
 62
     7
 10
-90.183906445413157
 20
58.276505995415249
 30
0.0
 11
-86.333891932537455
 21
59.308114274988377
 31
0.0
  0
LINE
  5
115
  8
1
 62
     7
 10
-90.183906445413157
 20
58.276505995415249
 30
0.0
 11
-90.537459836006335
 21
57.664133559719431
 31
0.0
  0
LINE
  5
116
  8
1
 62
     7
 10
-90.537459836006335
 20
57.664133559719431
 30
0.0
 11
-90.349484722662311
 21
56.962600886160587
 31
0.0
  0
LINE
  5
117
  8
1
  6
DASHDOT
 62
     3
 10
-83.859674858616756
 20
38.639111256101089
 30
0.0
 11
-80.808109006458153
 21
38.639111256101089
 31
0.0
  0
LINE
  5
118
  8
1
  6
DASHDOT
 62
     3
 10
-82.333891932537455
 20
40.164894182180383
 30
0.0
 11
-82.333891932537455
 21
37.11332833002178
 31
0.0
  0
LINE
  5
119
  8
1
 62
     7
 10
-86.333891932537455
 20
60.676528567864302
 30
0.0
 11
-92.612376816223431
 21
84.108153148333514
 31
0.0
  0
LINE
  5
11A
  8
1
 62
     7
 10
-83.933891932537492
 20
69.289111256101094
 30
0.0
 11
-83.933891932537492
 21
64.989111256101054
 31
0.0
  0
LINE
  5
11B
  8
1
 62
     7
 10
-80.733891932537446
 20
69.289111256101094
 30
0.0
 11
-80.733891932537446
 21
64.989111256101054
 31
0.0
  0
LINE
  5
11C
  8
1
 62
     7
 10
-78.333891932537455
 20
72.639111256101089
 30
0.0
 11
-78.333891932537455
 21
55.609674004578217
 31
0.0
  0
LINE
  5
11D
  8
1
 62
     7
 10
-79.333891932537455
 20
73.639111256101074
 30
0.0
 11
-85.333891932537455
 21
73.639111256101074
 31
0.0
  0
LINE
  5
11E
  8
1
 62
     7
 10
-86.333891932537455
 20
72.639111256101089
 30
0.0
 11
-86.333891932537455
 21
55.609674004578217
 31
0.0
  0
LINE
  5
11F
  8
1
 62
     7
 10
63.732310542895974
 20
32.63911125610106
 30
0.0
 11
62.232310542895974
 21
32.63911125610106
 31
0.0
  0
LINE
  5
120
  8
1
 62
     7
 10
62.232310542895974
 20
44.639111256101103
 30
0.0
 11
62.232310542895974
 21
73.639111256101074
 31
0.0
  0
LINE
  5
121
  8
1
 62
     7
 10
62.232310542895974
 20
32.63911125610106
 30
0.0
 11
62.232310542895974
 21
44.639111256101103
 31
0.0
  0
LINE
  5
122
  8
1
 62
     7
 10
63.732310542895974
 20
42.179111256101088
 30
0.0
 11
63.732310542895974
 21
73.639111256101074
 31
0.0
  0
LINE
  5
123
  8
1
 62
     7
 10
63.732310542895974
 20
35.099111256101089
 30
0.0
 11
63.732310542895974
 21
42.179111256101088
 31
0.0
  0
LINE
  5
124
  8
1
 62
     7
 10
68.732310542895959
 20
42.179111256101088
 30
0.0
 11
68.732310542895959
 21
45.599111256101089
 31
0.0
  0
LINE
  5
125
  8
1
 62
     7
 10
68.732310542895959
 20
35.099111256101089
 30
0.0
 11
68.732310542895959
 21
42.179111256101088
 31
0.0
  0
LINE
  5
126
  8
1
 62
     7
 10
73.732310542895959
 20
41.639111256101089
 30
0.0
 11
73.732310542895959
 21
34.139111256101089
 31
0.0
  0
LINE
  5
127
  8
1
 62
     7
 10
73.732310542895959
 20
35.639111256101089
 30
0.0
 11
73.732310542895959
 21
46.489111256101083
 31
0.0
  0
LINE
  5
128
  8
1
 62
     7
 10
92.732310542895945
 20
41.639111256101089
 30
0.0
 11
92.732310542895945
 21
35.639111256101089
 31
0.0
  0
LINE
  5
129
  8
1
 62
     7
 10
92.732310542895945
 20
35.639111256101089
 30
0.0
 11
92.732310542895945
 21
31.139111256101099
 31
0.0
  0
LINE
  5
12A
  8
1
 62
     7
 10
94.732310542895931
 20
46.139111256101103
 30
0.0
 11
94.732310542895931
 21
31.139111256101099
 31
0.0
  0
LINE
  5
12B
  8
1
 62
     7
 10
94.732310542895931
 20
31.139111256101099
 30
0.0
 11
94.732310542895931
 21
25.389111256101099
 31
0.0
  0
LINE
  5
12C
  8
1
 62
     7
 10
78.732310542895959
 20
57.689111256101093
 30
0.0
 11
81.232310542895945
 21
57.689111256101093
 31
0.0
  0
LINE
  5
12D
  8
1
 62
     7
 10
79.732310542895959
 20
45.639111256101103
 30
0.0
 11
79.732310542895959
 21
56.939111256101093
 31
0.0
  0
LINE
  5
12E
  8
1
 62
     7
 10
75.232310542895945
 20
45.639111256101103
 30
0.0
 11
79.732310542895959
 21
45.639111256101103
 31
0.0
  0
LINE
  5
12F
  8
1
 62
     7
 10
79.732310542895959
 20
31.639111256101121
 30
0.0
 11
75.232310542895945
 21
31.639111256101121
 31
0.0
  0
LINE
  5
130
  8
1
 62
     7
 10
79.732310542895959
 20
20.339111256101081
 30
0.0
 11
79.732310542895959
 21
31.639111256101121
 31
0.0
  0
LINE
  5
131
  8
1
 62
     7
 10
81.232310542895945
 20
19.58911125610113
 30
0.0
 11
78.732310542895959
 21
19.58911125610113
 31
0.0
  0
LINE
  5
132
  8
1
 62
     3
 10
69.732310542895959
 20
83.920745192923334
 30
0.0
 11
69.732310542895959
 21
86.881550337561137
 31
0.0
  0
LINE
  5
133
  8
1
 62
     3
 10
-11.729146892075009
 20
86.881550337561137
 30
0.0
 11
-11.729146892075009
 21
83.920745192923334
 31
0.0
  0
LINE
  5
134
  8
1
 62
     3
 10
-12.50914689207505
 20
83.920745192923334
 30
0.0
 11
-12.50914689207505
 21
86.881550337561137
 31
0.0
  0
LINE
  5
135
  8
1
 62
     7
 10
-13.039146892075079
 20
83.920745192923334
 30
0.0
 11
-11.19914689207504
 21
83.920745192923334
 31
0.0
  0
LINE
  5
136
  8
1
 62
     3
 10
-12.11914689207503
 20
83.920745192923334
 30
0.0
 11
-12.11914689207503
 21
86.881550337561137
 31
0.0
  0
LINE
  5
137
  8
1
 62
     3
 10
-93.890630264426562
 20
86.830897210244331
 30
0.0
 11
-93.124317504156593
 21
83.970979054429208
 31
0.0
  0
LINE
  5
138
  8
1
 62
     3
 10
-93.877739648662114
 20
83.769100199249237
 30
0.0
 11
-94.64405240893187
 21
86.629018355064417
 31
0.0
  0
LINE
  5
139
  8
1
 62
     7
 10
-92.612376816223431
 20
84.108153148333514
 30
0.0
 11
-96.166983856967235
 21
83.155699062356234
 31
0.0
  0
LINE
  5
13A
  8
1
 62
     3
 10
-93.501028576409354
 20
83.870039626839215
 30
0.0
 11
-94.267341336679124
 21
86.729957782654381
 31
0.0
  0
LINE
  5
13B
  8
1
 62
     3
 10
-95.66793378479845
 20
86.354670167255676
 30
0.0
 11
-94.901621024528524
 21
83.494752011440539
 31
0.0
  0
LINE
  5
13C
  8
1
 62
     3
 10
-95.65504316903403
 20
83.292873156260583
 30
0.0
 11
-96.4213559293038
 21
86.152791312075749
 31
0.0
  0
LINE
  5
13D
  8
1
 62
     3
 10
-95.278332096781256
 20
83.393812583850561
 30
0.0
 11
-96.044644857051054
 21
86.253730739665741
 31
0.0
  0
LINE
  5
13E
  8
1
 62
     3
 10
168.23748115497759
 20
83.970979054429137
 30
0.0
 11
169.0037939152474
 21
86.830897210244331
 31
0.0
  0
LINE
  5
13F
  8
1
 62
     3
 10
169.75721605975281
 20
86.629018355064417
 30
0.0
 11
168.99090329948299
 21
83.769100199249237
 31
0.0
  0
LINE
  5
140
  8
1
 62
     7
 10
171.28014750778809
 20
83.155699062356234
 30
0.0
 11
167.72554046704431
 21
84.108153148333514
 31
0.0
  0
LINE
  5
141
  8
1
 62
     3
 10
169.3805049875001
 20
86.729957782654381
 30
0.0
 11
168.61419222723029
 21
83.870039626839215
 31
0.0
  0
LINE
  5
142
  8
1
 62
     3
 10
170.0147846753496
 20
83.494752011440497
 30
0.0
 11
170.78109743561939
 21
86.354670167255676
 31
0.0
  0
LINE
  5
143
  8
1
 62
     3
 10
171.53451958012479
 20
86.152791312075706
 30
0.0
 11
170.76820681985501
 21
83.292873156260583
 31
0.0
  0
LINE
  5
144
  8
1
 62
     3
 10
171.15780850787201
 20
86.253730739665741
 30
0.0
 11
170.39149574760211
 21
83.393812583850561
 31
0.0
  0
ARC
  5
145
  8
1
 62
     7
 10
157.44705558335841
 20
69.28911125610108
 30
0.0
 40
1.5999999999999941
 50
90.0
 51
180.0
  0
ARC
  5
146
  8
1
 62
     7
 10
157.44705558335841
 20
64.989111256101054
 30
0.0
 40
1.6000000000000001
 50
270.0
 51
0.0
  0
ARC
  5
147
  8
1
 62
     7
 10
157.44705558335841
 20
69.28911125610108
 30
0.0
 40
1.5999999999999941
 50
0.0
 51
90.0
  0
ARC
  5
148
  8
1
 62
     7
 10
157.44705558335841
 20
64.989111256101054
 30
0.0
 40
1.5999999999999941
 50
180.0
 51
270.0
  0
ARC
  5
149
  8
1
 62
     7
 10
157.44705558335841
 20
38.639111256101089
 30
0.0
 40
15.50000000000003
 50
41.940543960608778
 51
138.05945603939091
  0
ARC
  5
14A
  8
1
 62
     7
 10
157.44705558335841
 20
38.639111256101089
 30
0.0
 40
15.5
 50
281.94054396060898
 51
18.059456039391058
  0
ARC
  5
14B
  8
1
 62
     7
 10
157.44705558335841
 20
38.639111256101089
 30
0.0
 40
15.50000000000002
 50
161.94054396060881
 51
258.05945603939159
  0
ARC
  5
14C
  8
1
 62
     7
 10
66.232310542895959
 20
43.889111256101103
 30
0.0
 40
1.3499999999999881
 50
60.000000000000583
 51
120.0000000000005
  0
ARC
  5
14D
  8
1
 62
     7
 10
66.232310542895959
 20
43.889111256101103
 30
0.0
 40
1.3499999999999881
 50
299.99999999999937
 51
60.000000000000583
  0
ARC
  5
14E
  8
1
 62
     7
 10
66.232310542895959
 20
43.889111256101103
 30
0.0
 40
1.3500000000000021
 50
120.0000000000005
 51
239.99999999999949
  0
ARC
  5
14F
  8
1
 62
     7
 10
66.232310542895959
 20
43.889111256101103
 30
0.0
 40
1.3500000000000021
 50
239.99999999999949
 51
299.99999999999937
  0
ARC
  5
150
  8
1
 62
     7
 10
71.232310542895959
 20
43.889111256101103
 30
0.0
 40
1.3500000000000021
 50
59.999999999999517
 51
119.9999999999993
  0
ARC
  5
151
  8
1
 62
     7
 10
71.232310542895959
 20
43.889111256101103
 30
0.0
 40
1.3500000000000021
 50
300.00000000000051
 51
59.999999999999517
  0
ARC
  5
152
  8
1
 62
     7
 10
71.232310542895959
 20
43.889111256101103
 30
0.0
 40
1.3499999999999881
 50
119.9999999999993
 51
240.0000000000006
  0
ARC
  5
153
  8
1
 62
     7
 10
71.232310542895959
 20
43.889111256101103
 30
0.0
 40
1.3499999999999881
 50
240.0000000000006
 51
300.00000000000051
  0
ARC
  5
154
  8
1
  6
DASHDOT
 62
     3
 10
157.44705558335841
 20
38.639111256101089
 30
0.0
 40
10.999999999999989
 50
315.91195016223952
 51
344.08804983776099
  0
ARC
  5
155
  8
1
  6
DASHDOT
 62
     3
 10
157.44705558335841
 20
38.639111256101089
 30
0.0
 40
10.999999999999989
 50
75.911950162239307
 51
104.08804983776059
  0
ARC
  5
156
  8
1
  6
DASHDOT
 62
     3
 10
157.44705558335841
 20
38.639111256101089
 30
0.0
 40
11.00000000000002
 50
195.91195016223941
 51
224.08804983776059
  0
ARC
  5
157
  8
1
 62
     7
 10
92.182310542895934
 20
30.389111256101099
 30
0.0
 40
7.0000000000000133
 50
163.0422366999959
 51
196.95776330000399
  0
ARC
  5
158
  8
1
 62
     7
 10
66.232310542895959
 20
33.389111256101081
 30
0.0
 40
1.3500000000000021
 50
239.99999999999949
 51
299.99999999999937
  0
ARC
  5
159
  8
1
 62
     7
 10
66.232310542895959
 20
33.389111256101081
 30
0.0
 40
1.3499999999999881
 50
299.99999999999937
 51
60.000000000000583
  0
ARC
  5
15A
  8
1
 62
     7
 10
66.232310542895959
 20
33.389111256101081
 30
0.0
 40
1.3500000000000021
 50
120.0000000000005
 51
239.99999999999949
  0
ARC
  5
15B
  8
1
 62
     7
 10
66.232310542895959
 20
33.389111256101081
 30
0.0
 40
1.3499999999999881
 50
60.000000000000583
 51
120.0000000000005
  0
ARC
  5
15C
  8
1
 62
     7
 10
71.232310542895959
 20
33.389111256101081
 30
0.0
 40
1.3499999999999881
 50
240.0000000000006
 51
300.00000000000051
  0
ARC
  5
15D
  8
1
 62
     7
 10
71.232310542895959
 20
33.389111256101081
 30
0.0
 40
1.3500000000000021
 50
300.00000000000051
 51
59.999999999999517
  0
ARC
  5
15E
  8
1
 62
     7
 10
71.232310542895959
 20
33.389111256101081
 30
0.0
 40
1.3499999999999881
 50
119.9999999999993
 51
240.0000000000006
  0
ARC
  5
15F
  8
1
 62
     7
 10
71.232310542895959
 20
33.389111256101081
 30
0.0
 40
1.3500000000000021
 50
59.999999999999517
 51
119.9999999999993
  0
ARC
  5
160
  8
1
 62
     7
 10
-82.333891932537455
 20
38.639111256101089
 30
0.0
 40
20.0
 50
101.5369590328154
 51
78.46304096718454
  0
ARC
  5
161
  8
1
 62
     7
 10
-82.333891932537455
 20
64.989111256101054
 30
0.0
 40
1.600000000000023
 50
180.0
 51
270.0
  0
ARC
  5
162
  8
1
 62
     7
 10
-82.333891932537455
 20
69.289111256101094
 30
0.0
 40
1.600000000000023
 50
0.0
 51
90.0
  0
ARC
  5
163
  8
1
 62
     7
 10
-82.333891932537455
 20
38.639111256101089
 30
0.0
 40
16.000000000000028
 50
109.47122063449081
 51
0.0
  0
ARC
  5
164
  8
1
 62
     7
 10
-82.333891932537455
 20
38.639111256101089
 30
0.0
 40
16.000000000000028
 50
0.0
 51
70.528779365509379
  0
ARC
  5
165
  8
1
 62
     7
 10
-82.333891932537455
 20
64.989111256101054
 30
0.0
 40
1.600000000000023
 50
270.0
 51
0.0
  0
ARC
  5
166
  8
1
 62
     7
 10
-82.333891932537455
 20
69.289111256101094
 30
0.0
 40
1.600000000000023
 50
90.0
 51
180.0
  0
ARC
  5
167
  8
1
 62
     7
 10
160.44705558335841
 20
72.639111256101089
 30
0.0
 40
1.0
 50
0.0
 51
90.0
  0
ARC
  5
168
  8
1
 62
     7
 10
154.44705558335841
 20
72.639111256101089
 30
0.0
 40
1.0
 50
90.0
 51
180.0
  0
ARC
  5
169
  8
1
 62
     7
 10
168.2327179586641
 20
48.330317947009952
 30
0.0
 40
1.0000000000000011
 50
299.99999999999989
 51
41.940543960611819
  0
ARC
  5
16A
  8
1
 62
     7
 10
160.44705558335841
 20
24.452850296989979
 30
0.0
 40
1.0
 50
180.0
 51
281.94054396061159
  0
ARC
  5
16B
  8
1
 62
     7
 10
146.6613932080528
 20
48.330317947009959
 30
0.0
 40
0.9999999999999915
 50
138.05945603938821
 51
240.0
  0
ARC
  5
16C
  8
1
 62
     7
 10
171.23271795866401
 20
43.134165524303313
 30
0.0
 40
0.9999999999999932
 50
18.059456039389051
 51
119.9999999999999
  0
ARC
  5
16D
  8
1
 62
     7
 10
143.66139320805269
 20
43.134165524303327
 30
0.0
 40
1.0000000000000011
 50
60.000000000000057
 51
161.94054396060901
  0
ARC
  5
16E
  8
1
 62
     7
 10
154.44705558335841
 20
24.452850296989979
 30
0.0
 40
0.9999999999999111
 50
258.05945603939739
 51
0.0
  0
ARC
  5
16F
  8
1
 62
     7
 10
65.732310542895959
 20
56.639111256101089
 30
0.0
 40
2.0
 50
90.0
 51
180.0
  0
ARC
  5
170
  8
1
 62
     7
 10
64.272310542895966
 20
42.179111256101088
 30
0.0
 40
0.5399999999999922
 50
180.0
 51
270.0
  0
ARC
  5
171
  8
1
 62
     7
 10
68.192310542895953
 20
45.599111256101089
 30
0.0
 40
0.5399999999999922
 50
0.0
 51
90.0
  0
ARC
  5
172
  8
1
 62
     7
 10
64.272310542895966
 20
45.599111256101089
 30
0.0
 40
0.5399999999999992
 50
90.0
 51
180.0
  0
ARC
  5
173
  8
1
 62
     7
 10
68.192310542895953
 20
42.179111256101088
 30
0.0
 40
0.5399999999999992
 50
270.0
 51
0.0
  0
ARC
  5
174
  8
1
 62
     7
 10
69.272310542895937
 20
42.179111256101088
 30
0.0
 40
0.5399999999999922
 50
180.0
 51
270.0
  0
ARC
  5
175
  8
1
 62
     7
 10
73.192310542895953
 20
45.599111256101089
 30
0.0
 40
0.5399999999999922
 50
0.0
 51
90.0
  0
ARC
  5
176
  8
1
 62
     7
 10
69.272310542895937
 20
45.599111256101089
 30
0.0
 40
0.5399999999999992
 50
90.0
 51
180.0
  0
ARC
  5
177
  8
1
 62
     7
 10
73.192310542895953
 20
42.179111256101088
 30
0.0
 40
0.5399999999999992
 50
270.0
 51
0.0
  0
ARC
  5
178
  8
1
 62
     7
 10
84.032310542895942
 20
44.139111256101089
 30
0.0
 40
0.5
 50
180.0
 51
270.0
  0
ARC
  5
179
  8
1
 62
     7
 10
-16.11914689207503
 20
56.639111256101089
 30
0.0
 40
2.0
 50
90.0
 51
180.0
  0
ARC
  5
17A
  8
1
 62
     7
 10
-16.11914689207503
 20
20.639111256101089
 30
0.0
 40
2.0
 50
180.0
 51
270.0
  0
ARC
  5
17B
  8
1
 62
     7
 10
86.882310542895894
 20
27.9391112561011
 30
0.0
 40
0.3000000000000114
 50
270.0
 51
0.0
  0
ARC
  5
17C
  8
1
 62
     7
 10
86.882310542895894
 20
32.839111256101091
 30
0.0
 40
0.3000000000000114
 50
0.0
 51
90.0
  0
ARC
  5
17D
  8
1
 62
     7
 10
86.44319040127138
 20
28.639111256101099
 30
0.0
 40
0.9999999999999836
 50
196.95776330000351
 51
270.0
  0
ARC
  5
17E
  8
1
 62
     7
 10
86.44319040127138
 20
32.139111256101103
 30
0.0
 40
1.0
 50
90.0
 51
163.0422366999959
  0
ARC
  5
17F
  8
1
 62
     7
 10
65.732310542895959
 20
20.639111256101089
 30
0.0
 40
1.9999999999999929
 50
180.0
 51
270.0
  0
ARC
  5
180
  8
1
 62
     7
 10
64.272310542895966
 20
35.099111256101089
 30
0.0
 40
0.5399999999999992
 50
90.0
 51
180.0
  0
ARC
  5
181
  8
1
 62
     7
 10
68.192310542895953
 20
31.679111256101091
 30
0.0
 40
0.5400000000000027
 50
270.0
 51
0.0
  0
ARC
  5
182
  8
1
 62
     7
 10
64.272310542895966
 20
31.679111256101091
 30
0.0
 40
0.5399999999999922
 50
180.0
 51
270.0
  0
ARC
  5
183
  8
1
 62
     7
 10
68.192310542895953
 20
35.099111256101089
 30
0.0
 40
0.5399999999999922
 50
0.0
 51
90.0
  0
ARC
  5
184
  8
1
 62
     7
 10
69.272310542895937
 20
35.099111256101089
 30
0.0
 40
0.5399999999999992
 50
90.0
 51
180.0
  0
ARC
  5
185
  8
1
 62
     7
 10
73.192310542895953
 20
31.679111256101091
 30
0.0
 40
0.5400000000000027
 50
270.0
 51
0.0
  0
ARC
  5
186
  8
1
 62
     7
 10
69.272310542895937
 20
31.679111256101091
 30
0.0
 40
0.5399999999999922
 50
180.0
 51
270.0
  0
ARC
  5
187
  8
1
 62
     7
 10
73.192310542895953
 20
35.099111256101089
 30
0.0
 40
0.5399999999999922
 50
0.0
 51
90.0
  0
ARC
  5
188
  8
1
 62
     7
 10
84.032310542895942
 20
33.139111256101089
 30
0.0
 40
0.5
 50
90.0
 51
180.0
  0
ARC
  5
189
  8
1
 62
     7
 10
-88.333891932537455
 20
55.609674004578217
 30
0.0
 40
1.9999999999999649
 50
289.47122063448978
 51
0.0
  0
ARC
  5
18A
  8
1
 62
     7
 10
-76.333891932537455
 20
55.609674004578217
 30
0.0
 40
2.0
 50
180.0
 51
250.52877936550871
  0
ARC
  5
18B
  8
1
 62
     7
 10
-85.333891932537455
 20
72.639111256101089
 30
0.0
 40
1.0
 50
90.0
 51
180.0
  0
ARC
  5
18C
  8
1
 62
     7
 10
-79.333891932537455
 20
72.639111256101089
 30
0.0
 40
1.0
 50
0.0
 51
90.0
  0
CIRCLE
  5
18D
  8
1
 62
     7
 10
157.44705558335841
 20
38.639111256101089
 30
0.0
 40
7.5
  0
CIRCLE
  5
18E
  8
1
 62
     7
 10
157.44705558335841
 20
38.639111256101089
 30
0.0
 40
3.0
  0
CIRCLE
  5
18F
  8
1
 62
     7
 10
172.60250014958609
 20
29.889111256101071
 30
0.0
 40
1.500000000000085
  0
CIRCLE
  5
190
  8
1
 62
     7
 10
142.2916110171308
 20
29.889111256101071
 30
0.0
 40
1.5
  0
CIRCLE
  5
191
  8
1
 62
     7
 10
157.44705558335841
 20
56.139111256101089
 30
0.0
 40
1.5
  0
CIRCLE
  5
192
  8
1
 62
     7
 10
157.44705558335841
 20
38.639111256101089
 30
0.0
 40
20.150000000000009
  0
CIRCLE
  5
193
  8
1
 62
     7
 10
157.44705558335841
 20
38.639111256101089
 30
0.0
 40
19.5
  0
CIRCLE
  5
194
  8
1
 62
     3
 10
166.97333502498731
 20
33.139111256101081
 30
0.0
 40
1.5
  0
CIRCLE
  5
195
  8
1
 62
     7
 10
166.97333502498731
 20
33.139111256101081
 30
0.0
 40
1.1999999999999891
  0
CIRCLE
  5
196
  8
1
 62
     7
 10
157.44705558335841
 20
38.639111256101089
 30
0.0
 40
5.5
  0
CIRCLE
  5
197
  8
1
 62
     7
 10
157.44705558335841
 20
38.639111256101089
 30
0.0
 40
13.25
  0
CIRCLE
  5
198
  8
1
 62
     3
 10
157.44705558335841
 20
49.639111256101103
 30
0.0
 40
1.500000000000085
  0
CIRCLE
  5
199
  8
1
 62
     7
 10
157.44705558335841
 20
49.639111256101103
 30
0.0
 40
1.1999999999999891
  0
CIRCLE
  5
19A
  8
1
 62
     3
 10
147.9207761417295
 20
33.139111256100989
 30
0.0
 40
1.5
  0
CIRCLE
  5
19B
  8
1
 62
     7
 10
147.9207761417295
 20
33.139111256100989
 30
0.0
 40
1.1999999999999891
  0
CIRCLE
  5
19C
  8
1
 62
     7
 10
-82.333891932537455
 20
38.639111256101089
 30
0.0
 40
3.0
  0
CIRCLE
  5
19D
  8
1
 62
     7
 10
-82.333891932537455
 20
38.639111256101089
 30
0.0
 40
6.0
  0
TEXT
  5
19E
  8
1
 62
     7
 10
-90.885749961839295
 20
102.4279372162417
 30
0.0
 40
3.5
  1
AMC 5
 41
0.9
  7
SIMPLEX
  0
ENDSEC
  0
EOF
