  0
SECTION
  2
HEADER
  9
$ACADVER
  1
AC1009
  9
$INSBASE
 10
0
 20
0
  9
$EXTMIN
 10
-219.565152249602
 20
-25.9149004254947
  9
$EXTMAX
 10
267.2730621204512
 20
115.6447123561504
  9
$LIMMIN
 10
-219.565152249602
 20
-25.9149004254947
  9
$LIMMAX
 10
267.2730621204512
 20
115.6447123561504
  9
$VIEWCTR
 10
10
 20
10
  9
$VIEWSIZE
 40
10
  9
$SNAPMODE
 70
0
  9
$SNAPUNIT
 10
1
 20
1
  9
$SNAPBASE
 10
0
 20
0
  9
$SNAPANG
 50
0
  9
$SNAPSTYLE
 70
0
  9
$SNAPISOPAIR
 70
0
  9
$GRIDMODE
 70
0
  9
$GRIDUNIT
 10
0
 20
0
  9
$ORTHOMODE
 70
0
  9
$REGENMODE
 70
1
  9
$FILLMODE
 70
1
  9
$QTEXTMODE
 70
0
  9
$DRAGMODE
 70
2
  9
$LTSCALE
 40
1
  9
$OSMODE
 70
0
  9
$ATTMODE
 70
1
  9
$TEXTSIZE
 40
3.5
  9
$TRACEWID
 40
0.5
  9
$TEXTSTYLE
  7
STANDARD
  9
$CLAYER
  8
0
  9
$CELTYPE
  6
BYLAYER
  9
$CECOLOR
 62
256
  9
$DIMSCALE
 40
1
  9
$DIMASZ
 40
0.18
  9
$DIMEXO
 40
0.0625
  9
$DIMDLI
 40
0.38
  9
$DIMRND
 40
0
  9
$DIMDLE
 40
0
  9
$DIMEXE
 40
0.18
  9
$DIMTP
 40
0
  9
$DIMTM
 40
0
  9
$DIMTXT
 40
0.18
  9
$DIMCEN
 40
0.09
  9
$DIMTSZ
 40
0
  9
$DIMTOL
 70
0
  9
$DIMLIM
 70
0
  9
$DIMTIH
 70
1
  9
$DIMTOH
 70
1
  9
$DIMSE1
 70
0
  9
$DIMSE2
 70
0
  9
$DIMTAD
 70
0
  9
$DIMZIN
 70
0
  9
$DIMBLK
  1

  9
$DIMASO
 70
1
  9
$DIMSHO
 70
1
  9
$DIMPOST
  1

  9
$DIMAPOST
  1

  9
$DIMALT
 70
0
  9
$DIMALTD
 70
2
  9
$DIMALTF
 40
25.4
  9
$DIMLFAC
 40
1
  9
$DIMTOFL
 70
0
  9
$DIMTVP
 40
0
  9
$DIMTIX
 70
0
  9
$DIMSOXD
 70
0
  9
$DIMSAH
 70
0
  9
$DIMBLK1
  1

  9
$DIMBLK2
  1

  9
$DIMSTYLE
  2
*UNNAMED
  9
$DIMCLRD
 70
0
  9
$DIMCLRE
 70
0
  9
$DIMCLRT
 70
0
  9
$DIMTFAC
 40
1
  9
$DIMGAP
 40
0.09
  9
$LUNITS
 70
2
  9
$LUPREC
 70
4
  9
$AXISMODE
 70
0
  9
$AXISUNIT
 10
0
 20
0
  9
$SKETCHINC
 40
0.1
  9
$FILLETRAD
 40
2
  9
$AUNITS
 70
0
  9
$AUPREC
 70
0
  9
$MENU
  1
ACAD
  9
$ELEVATION
 40
0
  9
$THICKNESS
 40
0
  9
$VIEWDIR
 10
0
 20
0
 30
1
  9
$LIMCHECK
 70
0
  9
$BLIPMODE
 70
1
  9
$CHAMFERA
 40
0
  9
$CHAMFERB
 40
0
  9
$FASTZOOM
 70
1
  9
$SKPOLY
 70
0
  9
$ANGBASE
 50
0
  9
$ANGDIR
 70
0
  9
$PDMODE
 70
0
  9
$PDSIZE
 40
0
  9
$PLINEWID
 40
0
  9
$COORDS
 70
2
  0
ENDSEC
  0
SECTION
  2
TABLES
  0
TABLE
  2
DIMSTYLE
 70
0
  0
ENDTAB
  0
TABLE
  2
LTYPE
 70
9
  0
LTYPE
  2
CONTINUOUS
 70
64
  3
Solid line
 72
65
 73
0
 40
0
  0
LTYPE
  2
BORDER
 70
64
  3
__ __ . __ __ .
 72
65
 73
6
 40
22.42018092493666
 49
6.405765978553331
 49
-3.202882989276665
 49
6.405765978553331
 49
-3.202882989276665
 49
0
 49
-3.202882989276665
  0
LTYPE
  2
CENTER
 70
64
  3
____ _ ____ _
 72
65
 73
4
 40
25.62306391421332
 49
16.01441494638333
 49
-3.202882989276665
 49
3.202882989276665
 49
-3.202882989276665
  0
LTYPE
  2
DASHDOT
 70
64
  3
__ . __ . __ .
 72
65
 73
4
 40
12.81153195710666
 49
6.405765978553331
 49
-3.202882989276665
 49
0
 49
-3.202882989276665
  0
LTYPE
  2
DASHED
 70
64
  3
__ __ __ __ __
 72
65
 73
2
 40
9.608648967829996
 49
6.405765978553331
 49
-3.202882989276665
  0
LTYPE
  2
DIVIDE
 70
64
  3
__ . . __ . . 
 72
65
 73
6
 40
16.01441494638333
 49
6.405765978553331
 49
-3.202882989276665
 49
0
 49
-3.202882989276665
 49
0
 49
-3.202882989276665
  0
LTYPE
  2
DOT
 70
64
  3
..............
 72
65
 73
4
 40
6.405765978553331
 49
0
 49
-3.202882989276665
 49
0
 49
-3.202882989276665
  0
LTYPE
  2
HIDDEN
 70
64
  3
_ _ _ _ _ _ _
 72
65
 73
2
 40
4.804324483914998
 49
3.202882989276665
 49
-1.601441494638333
  0
LTYPE
  2
PHANTOM
 70
64
  3
_____ _ _ _____ _ _ 
 72
65
 73
6
 40
32.02882989276665
 49
16.01441494638333
 49
-3.202882989276665
 49
3.202882989276665
 49
-3.202882989276665
 49
3.202882989276665
 49
-3.202882989276665
  0
ENDTAB
  0
TABLE
  2
LAYER
 70
3
  0
LAYER
  2
1
 70
0
 62
7
  6
CONTINUOUS
  0
LAYER
  2
0
 70
0
 62
7
  6
CONTINUOUS
  0
ENDTAB
  0
TABLE
  2
STYLE
 70
4
  0
STYLE
  2
STANDARD
 70
0
 40
0
 41
1
 50
0
 71
0
 42
3.5
  3
txt
  4

  0
STYLE
  2
SIMPLEX
 70
0
 40
0
 41
1
 50
0
 71
0
 42
3.5
  3
simplex
  4

  0
STYLE
  2
COMPLEX
 70
0
 40
0
 41
1
 50
0
 71
0
 42
3.5
  3
complex
  4

  0
STYLE
  2
ITALIC
 70
0
 40
0
 41
1
 50
0
 71
0
 42
3.5
  3
italic
  4

  0
ENDTAB
  0
TABLE
  2
VIEW
 70
0
  0
ENDTAB
  0
ENDSEC
  0
SECTION
  2
BLOCKS
  0
ENDSEC
  0
SECTION
  2
ENTITIES
  0
LINE
  8
1
 62
3
 10
119.7315957126032
 20
30.23509957450531
 30
0
 11
107.6315957126033
 21
30.23509957450531
 31
0
  0
LINE
  8
1
 62
7
 10
119.7315957126032
 20
30.83509957450531
 30
0
 11
107.6315957126033
 21
30.83509957450531
 31
0
  0
LINE
  8
1
 62
3
 10
247.7188010127938
 20
70.99379654304887
 30
0
 11
246.952488252524
 21
68.13387838723372
 31
0
  0
LINE
  8
1
 62
7
 10
249.6184435330818
 20
67.41953782275073
 30
0
 11
246.0638364923381
 21
68.37199190872801
 31
0
  0
LINE
  8
1
 62
3
 10
248.0955120850465
 20
70.89285711545888
 30
0
 11
247.3291993247768
 21
68.03293895964372
 31
0
  0
LINE
  8
1
 62
3
 10
246.5757771802711
 20
68.2348178148237
 30
0
 11
247.342089940541
 21
71.09473597063881
 31
0
  0
LINE
  8
1
 62
3
 10
249.4961045331655
 20
70.51756950006022
 30
0
 11
248.7297917728958
 21
67.65765134424504
 31
0
  0
LINE
  8
1
 62
3
 10
249.8728156054184
 20
70.41663007247024
 30
0
 11
249.1065028451485
 21
67.55671191665506
 31
0
  0
LINE
  8
1
 62
3
 10
248.353080700643
 20
67.75859077183505
 30
0
 11
249.1193934609128
 21
70.6185089276502
 31
0
  0
LINE
  8
1
 62
3
 10
-198.7345993884103
 20
68.13387838723372
 30
0
 11
-199.5009121486799
 21
70.99379654304887
 31
0
  0
LINE
  8
1
 62
7
 10
-197.8459476282243
 20
68.37199190872801
 30
0
 11
-201.400554668968
 21
67.41953782275073
 31
0
  0
LINE
  8
1
 62
3
 10
-199.1113104606629
 20
68.03293895964372
 30
0
 11
-199.8776232209328
 21
70.89285711545888
 31
0
  0
LINE
  8
1
 62
3
 10
-199.1242010764273
 20
71.09473597063881
 30
0
 11
-198.3578883161575
 21
68.2348178148237
 31
0
  0
LINE
  8
1
 62
3
 10
-200.511902908782
 20
67.65765134424504
 30
0
 11
-201.2782156690518
 21
70.51756950006022
 31
0
  0
LINE
  8
1
 62
3
 10
-200.8886139810348
 20
67.55671191665506
 30
0
 11
-201.6549267413045
 21
70.41663007247024
 31
0
  0
LINE
  8
1
 62
3
 10
-200.901504596799
 20
70.6185089276502
 30
0
 11
-200.1351918365293
 21
67.75859077183505
 31
0
  0
LINE
  8
1
 62
3
 10
-62.01370684848942
 20
69.51673351132756
 30
0
 11
-62.01370684848942
 21
72.47753865596533
 31
0
  0
LINE
  8
1
 62
7
 10
-62.93370684848945
 20
69.51673351132756
 30
0
 11
-61.09370684848943
 21
69.51673351132756
 31
0
  0
LINE
  8
1
 62
3
 10
-62.40370684848947
 20
69.51673351132756
 30
0
 11
-62.40370684848947
 21
72.47753865596533
 31
0
  0
LINE
  8
1
 62
3
 10
-61.6237068484894
 20
72.47753865596533
 30
0
 11
-61.6237068484894
 21
69.51673351132756
 31
0
  0
LINE
  8
1
 62
3
 10
75.23159571260307
 20
69.51673351132756
 30
0
 11
75.23159571260307
 21
72.47753865596533
 31
0
  0
LINE
  8
1
 62
7
 10
119.7315957126032
 20
-6.764900425494658
 30
0
 11
119.7315957126032
 21
-17.76490042549466
 31
0
  0
LINE
  8
1
 62
7
 10
119.7315957126032
 20
25.23509957450531
 30
0
 11
119.7315957126032
 21
-6.764900425494658
 31
0
  0
LINE
  8
1
 62
7
 10
116.7315957126032
 20
1.735099574505294
 30
0
 11
116.7315957126032
 21
-6.764900425494658
 31
0
  0
LINE
  8
1
 62
7
 10
116.731595712603
 20
16.7350995745053
 30
0
 11
116.7315957126032
 21
1.735099574505294
 31
0
  0
LINE
  8
1
 62
7
 10
85.73159571260314
 20
1.735099574505294
 30
0
 11
85.73159571260314
 21
-7.614900425494699
 31
0
  0
LINE
  8
1
 62
7
 10
85.73159571260314
 20
16.7350995745053
 30
0
 11
85.73159571260314
 21
1.735099574505294
 31
0
  0
LINE
  8
1
 62
7
 10
76.73159571260315
 20
0.7150995745053095
 30
0
 11
76.73159571260315
 21
-5.744900425494696
 31
0
  0
LINE
  8
1
 62
7
 10
76.73159571260315
 20
17.75509957450528
 30
0
 11
76.73159571260315
 21
0.7150995745053095
 31
0
  0
LINE
  8
1
 62
7
 10
67.73159571260317
 20
0.7150995745053095
 30
0
 11
67.73159571260317
 21
17.75509957450528
 31
0
  0
LINE
  8
1
 62
7
 10
67.73159571260317
 20
17.75509957450528
 30
0
 11
67.73159571260314
 21
59.2350995745053
 31
0
  0
LINE
  8
1
 62
7
 10
65.73159571260318
 20
-4.764900425494708
 30
0
 11
65.73159571260318
 21
-22.7649004254947
 31
0
  0
LINE
  8
1
 62
7
 10
65.73159571260318
 20
23.2350995745053
 30
0
 11
65.73159571260318
 21
-4.764900425494708
 31
0
  0
LINE
  8
1
 62
7
 10
-186.5051732563374
 20
53.73509957450528
 30
0
 11
-186.5051732563374
 21
47.73509957450528
 31
0
  0
LINE
  8
1
 62
7
 10
-181.3051732563375
 20
53.73509957450528
 30
0
 11
-181.3051732563375
 21
47.73509957450528
 31
0
  0
LINE
  8
1
 62
7
 10
-177.9051732563375
 20
58.23509957450529
 30
0
 11
-177.9051732563375
 21
42.28052285822189
 31
0
  0
LINE
  8
1
 62
7
 10
-178.9051732563375
 20
59.23509957450528
 30
0
 11
-188.9051732563375
 21
59.23509957450528
 31
0
  0
LINE
  8
1
 62
7
 10
-189.9051732563375
 20
58.23509957450529
 30
0
 11
-189.9051732563375
 21
42.28052285822189
 31
0
  0
LINE
  8
1
 62
7
 10
-190.5258868748915
 20
43.60319744420265
 30
0
 11
-190.6267699753411
 21
43.97969830070542
 31
0
  0
LINE
  8
1
 62
7
 10
-68.51370684848939
 20
44.23509957450529
 30
0
 11
-68.51370684848939
 21
-25.76490042549469
 31
0
  0
LINE
  8
1
 62
7
 10
-194.8188880614356
 20
42.85642364496047
 30
0
 11
-201.400554668968
 21
67.41953782275073
 31
0
  0
LINE
  8
1
 62
7
 10
-193.0415845410637
 20
43.33265068794911
 30
0
 11
-199.6232511485961
 21
67.89576486573938
 31
0
  0
LINE
  8
1
 62
7
 10
-191.2642810206919
 20
43.80887773093773
 30
0
 11
-197.8459476282243
 21
68.37199190872801
 31
0
  0
LINE
  8
1
 62
7
 10
-195.4563991067864
 20
42.68560307519281
 30
0
 11
-190.6267699753411
 21
43.97969830070542
 31
0
  0
LINE
  8
1
 62
7
 10
-195.4563991067864
 20
42.68560307519281
 30
0
 11
-195.3555160063368
 21
42.30910221869001
 31
0
  0
LINE
  8
1
 62
3
  6
CENTER
 10
-183.9051732563375
 20
5.06486972295367
 30
0
 11
-183.9051732563375
 21
13.40532942605692
 31
0
  0
LINE
  8
1
 62
3
  6
DASHDOT
 10
-179.7349434047859
 20
9.235099574505297
 30
0
 11
-188.075403107889
 21
9.235099574505297
 31
0
  0
LINE
  8
1
 62
7
 10
-35.51370684848938
 20
21.23509957450528
 30
0
 11
-35.21370684848939
 21
21.23509957450528
 31
0
  0
LINE
  8
1
 62
7
 10
-40.51370684848938
 20
41.4850995745053
 30
0
 11
-40.01370684848938
 21
41.4850995745053
 31
0
  0
LINE
  8
1
 62
7
 10
107.0315957126031
 20
38.13509957450532
 30
0
 11
107.0315957126031
 21
21.2350995745053
 31
0
  0
LINE
  8
1
 62
7
 10
103.2315957126032
 20
37.73509957450531
 30
0
 11
103.2315957126032
 21
42.73509957450531
 31
0
  0
LINE
  8
1
 62
7
 10
107.6315957126033
 20
-25.26490042549466
 30
0
 11
107.0315957126031
 21
-25.26490042549466
 31
0
  0
LINE
  8
1
 62
7
 10
107.6315957126033
 20
43.73509957450531
 30
0
 11
107.6315957126033
 21
21.2350995745053
 31
0
  0
LINE
  8
1
 62
7
 10
107.0315957126031
 20
43.73509957450531
 30
0
 11
107.6315957126033
 21
43.73509957450531
 31
0
  0
LINE
  8
1
 62
7
 10
102.031595712603
 20
44.38509957450532
 30
0
 11
107.0315957126031
 21
44.38509957450532
 31
0
  0
LINE
  8
1
 62
7
 10
107.0315957126031
 20
44.38509957450532
 30
0
 11
107.0315957126031
 21
42.33509957450531
 31
0
  0
LINE
  8
1
 62
7
 10
107.0315957126031
 20
-25.91490042549469
 30
0
 11
102.031595712603
 21
-25.91490042549469
 31
0
  0
LINE
  8
1
 62
7
 10
102.031595712603
 20
-25.91490042549469
 30
0
 11
102.031595712603
 21
-2.764900425494702
 31
0
  0
LINE
  8
1
 62
7
 10
102.031595712603
 20
-11.76490042549466
 30
0
 11
107.0315957126031
 21
-11.76490042549466
 31
0
  0
LINE
  8
1
 62
7
 10
102.031595712603
 20
25.7350995745053
 30
0
 11
107.0315957126031
 21
25.7350995745053
 31
0
  0
LINE
  8
1
 62
7
 10
102.031595712603
 20
43.8350995745053
 30
0
 11
104.531595712603
 21
43.8350995745053
 31
0
  0
LINE
  8
1
 62
7
 10
104.531595712603
 20
43.8350995745053
 30
0
 11
104.531595712603
 21
36.63509957450532
 31
0
  0
LINE
  8
1
 62
7
 10
104.531595712603
 20
36.63509957450532
 30
0
 11
102.031595712603
 21
36.63509957450532
 31
0
  0
LINE
  8
1
 62
7
 10
104.531595712603
 20
42.33509957450531
 30
0
 11
107.6315957126033
 21
42.33509957450531
 31
0
  0
LINE
  8
1
 62
7
 10
104.531595712603
 20
38.13509957450532
 30
0
 11
107.6315957126033
 21
38.13509957450532
 31
0
  0
LINE
  8
1
 62
7
 10
107.6315957126033
 20
33.63509957450531
 30
0
 11
119.7315957126032
 21
33.63509957450531
 31
0
  0
LINE
  8
1
 62
3
  6
CENTER
 10
105.441595712603
 20
32.23509957450531
 30
0
 11
121.9215957126032
 21
32.23509957450531
 31
0
  0
LINE
  8
1
 62
3
 10
107.6315957126033
 20
34.23509957450531
 30
0
 11
119.7315957126032
 21
34.23509957450531
 31
0
  0
LINE
  8
1
 62
7
 10
116.7315957126032
 20
-6.764900425494658
 30
0
 11
119.7315957126032
 21
-6.764900425494658
 31
0
  0
LINE
  8
1
 62
7
 10
119.7315957126032
 20
36.23509957450531
 30
0
 11
119.7315957126032
 21
25.23509957450531
 31
0
  0
LINE
  8
1
 62
7
 10
119.7315957126032
 20
36.23509957450531
 30
0
 11
107.6315957126033
 21
36.23509957450531
 31
0
  0
LINE
  8
1
 62
7
 10
119.7315957126032
 20
-17.76490042549466
 30
0
 11
107.6315957126033
 21
-17.76490042549466
 31
0
  0
LINE
  8
1
 62
7
 10
107.6315957126033
 20
22.2350995745053
 30
0
 11
116.7315957126032
 21
22.2350995745053
 31
0
  0
LINE
  8
1
 62
7
 10
107.6315957126033
 20
-3.764900425494658
 30
0
 11
116.7315957126032
 21
-3.764900425494658
 31
0
  0
LINE
  8
1
 62
7
 10
119.7315957126032
 20
25.23509957450531
 30
0
 11
116.7315957126032
 21
25.23509957450531
 31
0
  0
LINE
  8
1
 62
7
 10
116.7315957126032
 20
25.23509957450531
 30
0
 11
116.731595712603
 21
16.7350995745053
 31
0
  0
LINE
  8
1
 62
7
 10
111.4315957126032
 20
-5.264900425494658
 30
0
 11
112.0315957126031
 21
-5.864900425494794
 31
0
  0
LINE
  8
1
 62
7
 10
112.0315957126031
 20
-5.864900425494794
 30
0
 11
112.0315957126031
 21
-8.664900425494693
 31
0
  0
LINE
  8
1
 62
7
 10
112.0315957126031
 20
-8.664900425494693
 30
0
 11
111.4315957126032
 21
-9.264900425494661
 31
0
  0
LINE
  8
1
 62
7
 10
111.4315957126032
 20
-5.264900425494658
 30
0
 11
111.4315957126032
 21
-9.264900425494661
 31
0
  0
LINE
  8
1
 62
7
 10
108.5708261971445
 20
-5.264900425494658
 30
0
 11
108.5708261971445
 21
-9.264900425494661
 31
0
  0
LINE
  8
1
 62
3
 10
112.0315957126031
 20
-5.864900425494794
 30
0
 11
108.5708261971445
 21
-5.864900425494794
 31
0
  0
LINE
  8
1
 62
3
 10
108.5708261971445
 20
-5.864900425494794
 30
0
 11
107.531595712603
 21
-5.264900425494658
 31
0
  0
LINE
  8
1
 62
3
 10
112.0315957126031
 20
-8.664900425494693
 30
0
 11
108.5708261971445
 21
-8.664900425494693
 31
0
  0
LINE
  8
1
 62
3
 10
108.5708261971445
 20
-8.664900425494693
 30
0
 11
107.531595712603
 21
-9.264900425494661
 31
0
  0
LINE
  8
1
 62
7
 10
111.4315957126032
 20
-5.264900425494658
 30
0
 11
107.0315957126031
 21
-5.264900425494658
 31
0
  0
LINE
  8
1
 62
3
 10
113.1315957126032
 20
-5.264900425494658
 30
0
 11
113.8244160356307
 21
-5.664900425494692
 31
0
  0
LINE
  8
1
 62
7
 10
113.1315957126032
 20
-5.264900425494658
 30
0
 11
113.1315957126032
 21
-9.264900425494661
 31
0
  0
LINE
  8
1
 62
3
 10
113.8244160356307
 20
-8.864900425494795
 30
0
 11
113.1315957126032
 21
-9.264900425494661
 31
0
  0
LINE
  8
1
 62
7
 10
114.7315957126032
 20
-5.664900425494692
 30
0
 11
114.7315957126032
 21
-8.864900425494795
 31
0
  0
LINE
  8
1
 62
7
 10
111.8315957126032
 20
-8.864900425494795
 30
0
 11
114.7315957126032
 21
-8.864900425494795
 31
0
  0
LINE
  8
1
 62
7
 10
114.7315957126032
 20
-5.664900425494692
 30
0
 11
115.6553561433065
 21
-7.264900425494658
 31
0
  0
LINE
  8
1
 62
7
 10
115.6553561433065
 20
-7.264900425494658
 30
0
 11
114.7315957126032
 21
-8.864900425494795
 31
0
  0
LINE
  8
1
 62
7
 10
111.4315957126032
 20
-9.264900425494661
 30
0
 11
107.0315957126031
 21
-9.264900425494661
 31
0
  0
LINE
  8
1
 62
3
 10
111.4315957126032
 20
-5.264900425494658
 30
0
 11
113.1315957126032
 21
-5.264900425494658
 31
0
  0
LINE
  8
1
 62
3
 10
111.4315957126032
 20
-9.264900425494661
 30
0
 11
113.1315957126032
 21
-9.264900425494661
 31
0
  0
LINE
  8
1
 62
7
 10
111.8315957126032
 20
-5.664900425494692
 30
0
 11
114.7315957126032
 21
-5.664900425494692
 31
0
  0
LINE
  8
1
 62
7
 10
107.6315957126033
 20
-9.264900425494661
 30
0
 11
107.6315957126033
 21
-25.26490042549466
 31
0
  0
LINE
  8
1
 62
7
 10
107.0315957126031
 20
-10.76490042549466
 30
0
 11
103.3315957126031
 21
-10.76490042549466
 31
0
  0
LINE
  8
1
 62
7
 10
103.3315957126031
 20
-10.76490042549466
 30
0
 11
103.031595712603
 21
-10.24528518322409
 31
0
  0
LINE
  8
1
 62
7
 10
103.031595712603
 20
-10.24528518322409
 30
0
 11
103.031595712603
 21
-4.28451566776539
 31
0
  0
LINE
  8
1
 62
7
 10
103.031595712603
 20
-4.28451566776539
 30
0
 11
103.3315957126031
 21
-3.764900425494658
 31
0
  0
LINE
  8
1
 62
7
 10
103.3315957126031
 20
-3.764900425494658
 30
0
 11
107.0315957126031
 21
-3.764900425494658
 31
0
  0
LINE
  8
1
 62
7
 10
103.3315957126031
 20
-10.76490042549466
 30
0
 11
103.3315957126031
 21
-3.764900425494658
 31
0
  0
LINE
  8
1
 62
7
 10
102.031595712603
 20
21.2350995745053
 30
0
 11
102.031595712603
 21
44.38509957450532
 31
0
  0
LINE
  8
1
 62
7
 10
107.0315957126031
 20
-2.764900425494702
 30
0
 11
107.0315957126031
 21
-25.91490042549469
 31
0
  0
LINE
  8
1
 62
7
 10
107.6315957126033
 20
-2.764900425494702
 30
0
 11
107.6315957126033
 21
-5.264900425494658
 31
0
  0
LINE
  8
1
 62
3
  6
DASHDOT
 10
119.7315957126032
 20
9.235099574505297
 30
0
 11
124.7315957126031
 21
9.235099574505297
 31
0
  0
LINE
  8
1
 62
7
 10
85.73159571260314
 20
1.735099574505294
 30
0
 11
116.7315957126032
 21
1.735099574505294
 31
0
  0
LINE
  8
1
 62
7
 10
67.73159571260314
 20
-24.76490042549469
 30
0
 11
67.73159571260317
 21
0.7150995745053095
 31
0
  0
LINE
  8
1
 62
7
 10
116.7315957126032
 20
-1.764900425494627
 30
0
 11
115.731595712603
 21
-2.764900425494698
 31
0
  0
LINE
  8
1
 62
7
 10
100.7315957126031
 20
-3.264900425494698
 30
0
 11
100.7315957126031
 21
-11.5149004254947
 31
0
  0
LINE
  8
1
 62
7
 10
93.73159571260314
 20
-6.214900425494697
 30
0
 11
93.73159571260314
 21
-23.01490042549469
 31
0
  0
LINE
  8
1
 62
7
 10
87.73159571260315
 20
-6.214900425494697
 30
0
 11
93.73159571260314
 21
-6.214900425494697
 31
0
  0
LINE
  8
1
 62
7
 10
87.73159571260315
 20
-1.764900425494698
 30
0
 11
87.73159571260315
 21
-6.214900425494697
 31
0
  0
LINE
  8
1
 62
7
 10
85.73159571260314
 20
-1.764900425494698
 30
0
 11
87.73159571260315
 21
-1.764900425494698
 31
0
  0
LINE
  8
1
 62
7
 10
97.23159571260317
 20
-23.01490042549469
 30
0
 11
93.73159571260314
 21
-23.01490042549469
 31
0
  0
LINE
  8
1
 62
7
 10
98.81930895287462
 20
-25.76490042549469
 30
0
 11
97.23159571260317
 21
-23.01490042549469
 31
0
  0
LINE
  8
1
 62
7
 10
101.7315957126031
 20
-25.76490042549469
 30
0
 11
98.81930895287462
 21
-25.76490042549469
 31
0
  0
LINE
  8
1
 62
7
 10
100.7315957126031
 20
-11.5149004254947
 30
0
 11
101.7315957126031
 21
-12.5149004254947
 31
0
  0
LINE
  8
1
 62
7
 10
101.7315957126031
 20
-25.76490042549469
 30
0
 11
101.7315957126031
 21
-2.764900425494698
 31
0
  0
LINE
  8
1
 62
7
 10
101.231595712603
 20
-2.764900425494698
 30
0
 11
115.731595712603
 21
-2.764900425494698
 31
0
  0
LINE
  8
1
 62
7
 10
68.73159571260312
 20
-25.76490042549469
 30
0
 11
96.73159571260315
 21
-25.76490042549469
 31
0
  0
LINE
  8
1
 62
7
 10
96.73159571260315
 20
-23.01490042549469
 30
0
 11
96.73159571260315
 21
-25.76490042549469
 31
0
  0
LINE
  8
1
 62
7
 10
92.73159571260315
 20
-6.214900425494697
 30
0
 11
92.73159571260315
 21
-24.06490042549469
 31
0
  0
LINE
  8
1
 62
7
 10
86.93159571260316
 20
-1.764900425494698
 30
0
 11
86.93159571260316
 21
-7.614900425494699
 31
0
  0
LINE
  8
1
 62
7
 10
92.73159571260315
 20
-6.764900425494697
 30
0
 11
86.93159571260316
 21
-6.764900425494697
 31
0
  0
LINE
  8
1
 62
7
 10
85.73159571260314
 20
-7.614900425494699
 30
0
 11
85.58159571260318
 21
-7.614900425494699
 31
0
  0
LINE
  8
1
 62
7
 10
68.73159571260312
 20
-25.76490042549469
 30
0
 11
67.73159571260314
 21
-24.76490042549469
 31
0
  0
LINE
  8
1
 62
7
 10
96.73159571260315
 20
-24.06490042549469
 30
0
 11
92.73159571260315
 21
-24.06490042549469
 31
0
  0
LINE
  8
1
 62
7
 10
67.73159571260318
 20
-4.764900425494708
 30
0
 11
65.73159571260318
 21
-4.764900425494708
 31
0
  0
LINE
  8
1
 62
7
 10
86.93159571260316
 20
-4.464900425494668
 30
0
 11
85.73159571260314
 21
-4.464900425494668
 31
0
  0
LINE
  8
1
 62
7
 10
75.71159571260314
 20
1.735099574505301
 30
0
 11
68.75159571260316
 21
1.735099574505301
 31
0
  0
LINE
  8
1
 62
7
 10
67.73159571260317
 20
-4.723265205145001
 30
0
 11
70.95659571260316
 21
-4.723265205145018
 31
0
  0
LINE
  8
1
 62
7
 10
67.73159571260317
 20
-0.3065356458443986
 30
0
 11
70.95659571260316
 21
-0.3065356458443809
 31
0
  0
LINE
  8
1
 62
7
 10
79.95659571260316
 20
-0.3065356458443809
 30
0
 11
73.50659571260314
 21
-0.3065356458443809
 31
0
  0
LINE
  8
1
 62
7
 10
84.71159571260313
 20
1.735099574505301
 30
0
 11
77.75159571260316
 21
1.735099574505301
 31
0
  0
LINE
  8
1
 62
7
 10
85.73159571260314
 20
-4.723265205145001
 30
0
 11
82.50659571260314
 21
-4.723265205145018
 31
0
  0
LINE
  8
1
 62
7
 10
73.52085787448353
 20
-4.723265205145001
 30
0
 11
79.95659571260316
 21
-4.723265205145018
 31
0
  0
LINE
  8
1
 62
7
 10
85.73159571260314
 20
-0.3065356458443986
 30
0
 11
82.50659571260314
 21
-0.3065356458443809
 31
0
  0
LINE
  8
1
 62
7
 10
86.93159571260316
 20
-7.614900425494699
 30
0
 11
85.73159571260314
 21
-7.614900425494699
 31
0
  0
LINE
  8
1
 62
7
 10
85.58159571260318
 20
-7.614900425494699
 30
0
 11
85.58159571260318
 21
-6.277347605973659
 31
0
  0
LINE
  8
1
 62
7
 10
85.58159571260318
 20
-6.764900425494697
 30
0
 11
67.73159571260317
 21
-6.764900425494697
 31
0
  0
LINE
  8
1
 62
7
 10
115.731595712603
 20
21.2350995745053
 30
0
 11
116.7315957126032
 21
20.23509957450523
 31
0
  0
LINE
  8
1
 62
7
 10
100.7315957126031
 20
29.9850995745053
 30
0
 11
100.7315957126031
 21
21.7350995745053
 31
0
  0
LINE
  8
1
 62
7
 10
93.73159571260314
 20
41.4850995745053
 30
0
 11
93.73159571260314
 21
24.6850995745053
 31
0
  0
LINE
  8
1
 62
7
 10
93.73159571260314
 20
24.6850995745053
 30
0
 11
87.73159571260315
 21
24.6850995745053
 31
0
  0
LINE
  8
1
 62
7
 10
87.73159571260315
 20
24.6850995745053
 30
0
 11
87.73159571260315
 21
20.2350995745053
 31
0
  0
LINE
  8
1
 62
7
 10
87.73159571260315
 20
20.2350995745053
 30
0
 11
85.73159571260314
 21
20.2350995745053
 31
0
  0
LINE
  8
1
 62
7
 10
93.73159571260314
 20
41.4850995745053
 30
0
 11
97.23159571260317
 21
41.4850995745053
 31
0
  0
LINE
  8
1
 62
7
 10
97.23159571260317
 20
41.4850995745053
 30
0
 11
98.81930895287462
 21
44.23509957450529
 31
0
  0
LINE
  8
1
 62
7
 10
98.81930895287462
 20
44.23509957450529
 30
0
 11
101.7315957126031
 21
44.23509957450529
 31
0
  0
LINE
  8
1
 62
7
 10
85.73159571260314
 20
16.7350995745053
 30
0
 11
116.731595712603
 21
16.7350995745053
 31
0
  0
LINE
  8
1
 62
7
 10
85.73159571260314
 20
18.7350995745053
 30
0
 11
116.731595712603
 21
18.7350995745053
 31
0
  0
LINE
  8
1
 62
7
 10
101.7315957126031
 20
30.9850995745053
 30
0
 11
100.7315957126031
 21
29.9850995745053
 31
0
  0
LINE
  8
1
 62
7
 10
101.7315957126031
 20
21.2350995745053
 30
0
 11
101.7315957126031
 21
44.23509957450529
 31
0
  0
LINE
  8
1
 62
7
 10
115.731595712603
 20
21.2350995745053
 30
0
 11
101.231595712603
 21
21.2350995745053
 31
0
  0
LINE
  8
1
 62
7
 10
68.73159571260312
 20
44.23509957450529
 30
0
 11
96.73159571260315
 21
44.23509957450529
 31
0
  0
LINE
  8
1
 62
7
 10
74.31159571260305
 20
69.51673351132756
 30
0
 11
74.31159571260305
 21
44.5850995745053
 31
0
  0
LINE
  8
1
 62
7
 10
76.15159571260308
 20
69.51673351132756
 30
0
 11
76.15159571260308
 21
44.5850995745053
 31
0
  0
LINE
  8
1
 62
7
 10
74.31159571260305
 20
69.51673351132756
 30
0
 11
76.15159571260308
 21
69.51673351132756
 31
0
  0
LINE
  8
1
 62
7
 10
72.73159571260312
 20
44.5850995745053
 30
0
 11
72.73159571260314
 21
44.23509957450529
 31
0
  0
LINE
  8
1
 62
7
 10
72.73159571260312
 20
44.5850995745053
 30
0
 11
77.73159571260312
 21
44.5850995745053
 31
0
  0
LINE
  8
1
 62
3
 10
74.84159571260301
 20
69.51673351132756
 30
0
 11
74.84159571260301
 21
72.47753865596533
 31
0
  0
LINE
  8
1
 62
3
 10
75.62159571260311
 20
72.47753865596533
 30
0
 11
75.62159571260311
 21
69.51673351132756
 31
0
  0
LINE
  8
1
 62
7
 10
96.73159571260315
 20
44.23509957450529
 30
0
 11
96.73159571260315
 21
41.4850995745053
 31
0
  0
LINE
  8
1
 62
7
 10
92.73159571260315
 20
42.53509957450529
 30
0
 11
92.73159571260315
 21
24.68509957450529
 31
0
  0
LINE
  8
1
 62
7
 10
86.93159571260316
 20
26.0850995745053
 30
0
 11
86.93159571260316
 21
20.2350995745053
 31
0
  0
LINE
  8
1
 62
7
 10
86.93159571260316
 20
25.2350995745053
 30
0
 11
92.73159571260315
 21
25.2350995745053
 31
0
  0
LINE
  8
1
 62
7
 10
85.58159571260318
 20
26.0850995745053
 30
0
 11
85.73159571260314
 21
26.0850995745053
 31
0
  0
LINE
  8
1
 62
7
 10
67.73159571260314
 20
43.2350995745053
 30
0
 11
68.73159571260312
 21
44.23509957450529
 31
0
  0
LINE
  8
1
 62
7
 10
92.73159571260315
 20
42.53509957450529
 30
0
 11
96.73159571260315
 21
42.53509957450529
 31
0
  0
LINE
  8
1
 62
7
 10
65.73159571260318
 20
59.23509957450531
 30
0
 11
67.73159571260314
 21
59.2350995745053
 31
0
  0
LINE
  8
1
 62
7
 10
67.73159571260318
 20
-22.7649004254947
 30
0
 11
65.73159571260318
 21
-22.7649004254947
 31
0
  0
LINE
  8
1
 62
7
 10
65.73159571260318
 20
23.2350995745053
 30
0
 11
67.73159571260318
 21
23.2350995745053
 31
0
  0
LINE
  8
1
 62
7
 10
65.73159571260318
 20
56.33509957450531
 30
0
 11
67.73159571260318
 21
56.33509957450531
 31
0
  0
LINE
  8
1
 62
7
 10
65.73159571260318
 20
45.13509957450531
 30
0
 11
67.73159571260318
 21
45.13509957450531
 31
0
  0
LINE
  8
1
 62
7
 10
65.73159571260318
 20
59.23509957450531
 30
0
 11
65.73159571260318
 21
23.2350995745053
 31
0
  0
LINE
  8
1
 62
7
 10
85.73159571260314
 20
22.93509957450527
 30
0
 11
86.93159571260316
 21
22.93509957450527
 31
0
  0
LINE
  8
1
 62
7
 10
68.75159571260316
 20
16.7350995745053
 30
0
 11
75.71159571260314
 21
16.7350995745053
 31
0
  0
LINE
  8
1
 62
7
 10
70.95659571260316
 20
23.19346435415562
 30
0
 11
67.73159571260317
 21
23.1934643541556
 31
0
  0
LINE
  8
1
 62
7
 10
70.95659571260316
 20
18.77673479485498
 30
0
 11
67.73159571260317
 21
18.776734794855
 31
0
  0
LINE
  8
1
 62
7
 10
73.50659571260314
 20
18.77673479485498
 30
0
 11
79.95659571260316
 21
18.77673479485498
 31
0
  0
LINE
  8
1
 62
7
 10
77.75159571260316
 20
16.7350995745053
 30
0
 11
84.71159571260313
 21
16.7350995745053
 31
0
  0
LINE
  8
1
 62
7
 10
82.50659571260314
 20
23.19346435415562
 30
0
 11
85.73159571260314
 21
23.1934643541556
 31
0
  0
LINE
  8
1
 62
7
 10
79.95659571260316
 20
23.19346435415562
 30
0
 11
73.52085787448353
 21
23.1934643541556
 31
0
  0
LINE
  8
1
 62
7
 10
82.50659571260314
 20
18.77673479485498
 30
0
 11
85.73159571260314
 21
18.776734794855
 31
0
  0
LINE
  8
1
 62
7
 10
85.73159571260314
 20
26.0850995745053
 30
0
 11
86.93159571260316
 21
26.0850995745053
 31
0
  0
LINE
  8
1
 62
7
 10
85.58159571260318
 20
24.74754675498425
 30
0
 11
85.58159571260318
 21
26.0850995745053
 31
0
  0
LINE
  8
1
 62
7
 10
67.73159571260317
 20
25.2350995745053
 30
0
 11
85.58159571260318
 21
25.2350995745053
 31
0
  0
LINE
  8
1
 62
7
 10
76.73159571260315
 20
24.21509957450529
 30
0
 11
76.73159571260315
 21
17.75509957450528
 31
0
  0
LINE
  8
1
 62
7
 10
85.73159571260314
 20
26.0850995745053
 30
0
 11
85.73159571260314
 21
16.7350995745053
 31
0
  0
LINE
  8
1
 62
3
  6
CENTER
 10
254.6397226188466
 20
-3.764900425494718
 30
0
 11
249.44357019614
 21
-0.7649004254947159
 31
0
  0
LINE
  8
1
 62
7
 10
226.1230621204513
 20
58.23509957450531
 30
0
 11
226.1230621204513
 21
43.86922292128572
 31
0
  0
LINE
  8
1
 62
7
 10
237.1230621204513
 20
59.23509957450531
 30
0
 11
227.1230621204513
 21
59.23509957450531
 31
0
  0
LINE
  8
1
 62
7
 10
238.1230621204514
 20
58.23509957450531
 30
0
 11
238.1230621204514
 21
43.86922292128572
 31
0
  0
LINE
  8
1
 62
7
 10
234.7230621204513
 20
53.73509957450531
 30
0
 11
234.7230621204513
 21
47.73509957450531
 31
0
  0
LINE
  8
1
 62
7
 10
229.5230621204513
 20
53.73509957450531
 30
0
 11
229.5230621204513
 21
47.73509957450531
 31
0
  0
LINE
  8
1
 62
7
 10
249.6184435330818
 20
67.41953782275073
 30
0
 11
243.0367769255495
 21
42.85642364496047
 31
0
  0
LINE
  8
1
 62
7
 10
247.8411400127099
 20
67.89576486573938
 30
0
 11
241.2594734051776
 21
43.33265068794911
 31
0
  0
LINE
  8
1
 62
7
 10
246.0638364923381
 20
68.37199190872801
 30
0
 11
239.4821698848056
 21
43.80887773093773
 31
0
  0
LINE
  8
1
 62
7
 10
238.8446588394549
 20
43.97969830070542
 30
0
 11
243.6742879709001
 21
42.68560307519281
 31
0
  0
LINE
  8
1
 62
7
 10
238.7826975883779
 20
43.7484557635857
 30
0
 11
238.8446588394549
 21
43.97969830070542
 31
0
  0
LINE
  8
1
 62
7
 10
243.6123267198233
 20
42.4543605380731
 30
0
 11
243.6742879709001
 21
42.68560307519281
 31
0
  0
LINE
  8
1
 62
7
 10
229.6230621204514
 20
16.30616738637076
 30
0
 11
229.6230621204514
 21
18.7350995745053
 31
0
  0
LINE
  8
1
 62
7
 10
229.6230621204514
 20
18.7350995745053
 30
0
 11
234.6230621204513
 21
18.7350995745053
 31
0
  0
LINE
  8
1
 62
7
 10
234.6230621204513
 20
18.7350995745053
 30
0
 11
234.6230621204513
 21
16.30616738637076
 31
0
  0
LINE
  8
1
 62
7
 10
77.73159571260312
 20
44.5850995745053
 30
0
 11
77.73159571260314
 21
44.23509957450529
 31
0
  0
LINE
  8
1
 62
3
  6
DASHDOT
 10
60.73159571260318
 20
9.235099574505297
 30
0
 11
65.73159571260318
 21
9.235099574505297
 31
0
  0
LINE
  8
1
 62
3
  6
CENTER
 10
232.1230621204513
 20
13.40532942605692
 30
0
 11
232.1230621204513
 21
5.06486972295367
 31
0
  0
LINE
  8
1
 62
3
  6
DASHDOT
 10
236.2932919720029
 20
9.235099574505297
 30
0
 11
227.9528322688996
 21
9.235099574505297
 31
0
  0
LINE
  8
1
 62
3
  6
CENTER
 10
232.1230621204513
 20
35.23509957450528
 30
0
 11
232.1230621204513
 21
29.23509957450527
 31
0
  0
LINE
  8
1
 62
3
  6
CENTER
 10
209.6064016220558
 20
-3.764900425494694
 30
0
 11
214.8025540447626
 21
-0.7649004254946998
 31
0
  0
LINE
  8
1
 62
7
 10
-40.51370684848938
 20
-25.76490042549469
 30
0
 11
-40.51370684848938
 21
44.23509957450529
 31
0
  0
LINE
  8
1
 62
7
 10
-29.61370684848937
 20
-25.2649004254947
 30
0
 11
-29.61370684848937
 21
43.73509957450529
 31
0
  0
LINE
  8
1
 62
7
 10
-17.51370684848938
 20
-17.76490042549469
 30
0
 11
-29.61370684848937
 21
-17.76490042549469
 31
0
  0
LINE
  8
1
 62
7
 10
-17.51370684848938
 20
36.23509957450529
 30
0
 11
-29.61370684848937
 21
36.23509957450529
 31
0
  0
LINE
  8
1
 62
7
 10
-17.51370684848938
 20
36.23509957450529
 30
0
 11
-17.51370684848938
 21
-17.76490042549469
 31
0
  0
LINE
  8
1
 62
7
 10
-35.21370684848939
 20
-25.9149004254947
 30
0
 11
-35.21370684848939
 21
44.3850995745053
 31
0
  0
LINE
  8
1
 62
7
 10
-30.21370684848939
 20
-25.9149004254947
 30
0
 11
-35.21370684848939
 21
-25.9149004254947
 31
0
  0
LINE
  8
1
 62
7
 10
-30.21370684848939
 20
44.3850995745053
 30
0
 11
-30.21370684848939
 21
-25.9149004254947
 31
0
  0
LINE
  8
1
 62
7
 10
-35.21370684848939
 20
44.3850995745053
 30
0
 11
-30.21370684848939
 21
44.3850995745053
 31
0
  0
LINE
  8
1
 62
7
 10
-30.21370684848939
 20
43.73509957450529
 30
0
 11
-29.61370684848937
 21
43.73509957450529
 31
0
  0
LINE
  8
1
 62
7
 10
-29.61370684848937
 20
-25.2649004254947
 30
0
 11
-30.21370684848939
 21
-25.2649004254947
 31
0
  0
LINE
  8
1
 62
7
 10
-40.01370684848938
 20
41.4850995745053
 30
0
 11
-38.42599360821789
 21
44.23509957450529
 31
0
  0
LINE
  8
1
 62
7
 10
-38.42599360821789
 20
44.23509957450529
 30
0
 11
-35.51370684848938
 21
44.23509957450529
 31
0
  0
LINE
  8
1
 62
7
 10
-38.42599360821789
 20
-25.76490042549471
 30
0
 11
-40.01370684848938
 21
-23.0149004254947
 31
0
  0
LINE
  8
1
 62
7
 10
-40.01370684848938
 20
-23.0149004254947
 30
0
 11
-40.51370684848938
 21
-23.0149004254947
 31
0
  0
LINE
  8
1
 62
7
 10
-35.51370684848938
 20
-25.76490042549469
 30
0
 11
-38.42599360821789
 21
-25.76490042549471
 31
0
  0
LINE
  8
1
 62
7
 10
-35.21370684848939
 20
-2.764900425494702
 30
0
 11
-35.51370684848938
 21
-2.764900425494702
 31
0
  0
LINE
  8
1
 62
7
 10
-40.01370684848938
 20
-23.0149004254947
 30
0
 11
-40.01370684848938
 21
41.4850995745053
 31
0
  0
LINE
  8
1
 62
7
 10
-38.42599360821789
 20
-25.76490042549471
 30
0
 11
-38.42599360821789
 21
44.23509957450529
 31
0
  0
LINE
  8
1
 62
7
 10
-35.51370684848938
 20
-25.76490042549469
 30
0
 11
-35.51370684848938
 21
44.23509957450529
 31
0
  0
LINE
  8
1
 62
7
 10
-68.51370684848939
 20
44.23509957450529
 30
0
 11
-40.51370684848938
 21
44.23509957450529
 31
0
  0
LINE
  8
1
 62
7
 10
-62.93370684848945
 20
69.51673351132756
 30
0
 11
-62.93370684848945
 21
44.5850995745053
 31
0
  0
LINE
  8
1
 62
7
 10
-61.09370684848943
 20
69.51673351132756
 30
0
 11
-61.09370684848943
 21
44.5850995745053
 31
0
  0
LINE
  8
1
 62
7
 10
-64.51370684848939
 20
44.5850995745053
 30
0
 11
-64.51370684848939
 21
44.23509957450529
 31
0
  0
LINE
  8
1
 62
7
 10
-59.51370684848938
 20
44.5850995745053
 30
0
 11
-64.51370684848939
 21
44.5850995745053
 31
0
  0
LINE
  8
1
 62
7
 10
-68.51370684848939
 20
-25.76490042549469
 30
0
 11
-40.51370684848938
 21
-25.76490042549469
 31
0
  0
LINE
  8
1
 62
7
 10
-68.51370684848939
 20
-25.76490042549469
 30
0
 11
-69.51370684848939
 21
-24.76490042549469
 31
0
  0
LINE
  8
1
 62
7
 10
-69.51370684848938
 20
43.2350995745053
 30
0
 11
-68.51370684848939
 21
44.23509957450529
 31
0
  0
LINE
  8
1
 62
7
 10
-71.51370684848934
 20
59.23509957450531
 30
0
 11
-69.51370684848939
 21
59.2350995745053
 31
0
  0
LINE
  8
1
 62
7
 10
-69.51370684848934
 20
-22.7649004254947
 30
0
 11
-71.51370684848934
 21
-22.7649004254947
 31
0
  0
LINE
  8
1
 62
7
 10
-71.51370684848934
 20
59.23509957450531
 30
0
 11
-71.51370684848934
 21
-22.7649004254947
 31
0
  0
LINE
  8
1
 62
7
 10
-59.51370684848938
 20
44.5850995745053
 30
0
 11
-59.51370684848938
 21
44.23509957450529
 31
0
  0
LINE
  8
1
 62
7
 10
-69.51370684848939
 20
59.2350995745053
 30
0
 11
-69.51370684848939
 21
-24.76490042549469
 31
0
  0
LINE
  8
1
 62
3
  6
DASHDOT
 10
-76.51370684848934
 20
9.235099574505297
 30
0
 11
-71.51370684848934
 21
9.235099574505297
 31
0
  0
LINE
  8
1
 62
3
  6
DASHDOT
 10
-17.51370684848938
 20
9.235099574505297
 30
0
 11
-12.51370684848938
 21
9.235099574505297
 31
0
  0
ARC
  8
1
 62
7
 10
-183.9051732563375
 20
9.235099574505297
 30
0
 40
31.99999999999996
 50
103.6089606307828
 51
76.39103936921708
  0
ARC
  8
1
 62
7
 10
-183.9051732563375
 20
53.73509957450528
 30
0
 40
2.599999999999994
 50
90
 51
180
  0
ARC
  8
1
 62
7
 10
-183.9051732563375
 20
47.73509957450528
 30
0
 40
2.599999999999909
 50
270
 51
0
  0
ARC
  8
1
 62
7
 10
-183.9051732563375
 20
53.73509957450528
 30
0
 40
2.599999999999994
 50
0
 51
90
  0
ARC
  8
1
 62
7
 10
-183.9051732563375
 20
47.73509957450528
 30
0
 40
2.599999999999909
 50
180
 51
270
  0
ARC
  8
1
 62
7
 10
-183.9051732563375
 20
9.235099574505297
 30
0
 40
34.99999999999998
 50
99.87088960613956
 51
80.12911039386044
  0
ARC
  8
1
 62
7
 10
103.8815957126032
 20
37.73509957450531
 30
0
 40
0.6500000000000057
 50
180
 51
0
  0
ARC
  8
1
 62
7
 10
103.8815957126032
 20
42.73509957450531
 30
0
 40
0.6499999999998067
 50
0
 51
180
  0
ARC
  8
1
 62
7
 10
106.2795123792697
 20
40.23509957450531
 30
0
 40
3.752083333333392
 50
291.1220213823951
 51
68.8779786176035
  0
ARC
  8
1
 62
7
 10
72.23159571260315
 20
-2.514900425494698
 30
0
 40
2.549999999999995
 50
119.9999999999998
 51
60.00000000000015
  0
ARC
  8
1
 62
7
 10
72.23159571260315
 20
-2.514900425494698
 30
0
 40
2.549999999999995
 50
60.00000000000015
 51
119.9999999999998
  0
ARC
  8
1
 62
7
 10
81.23159571260314
 20
-2.514900425494698
 30
0
 40
2.549999999999987
 50
119.9999999999996
 51
300.0000000000001
  0
ARC
  8
1
 62
7
 10
81.23159571260314
 20
-2.514900425494698
 30
0
 40
2.550000000000004
 50
300.0000000000001
 51
119.9999999999996
  0
ARC
  8
1
 62
7
 10
72.23159571260315
 20
20.9850995745053
 30
0
 40
2.549999999999995
 50
299.9999999999998
 51
240.0000000000001
  0
ARC
  8
1
 62
7
 10
72.23159571260315
 20
20.9850995745053
 30
0
 40
2.549999999999995
 50
240.0000000000001
 51
299.9999999999998
  0
ARC
  8
1
 62
7
 10
81.23159571260314
 20
20.9850995745053
 30
0
 40
2.550000000000005
 50
59.99999999999992
 51
240.0000000000005
  0
ARC
  8
1
 62
7
 10
81.23159571260314
 20
20.9850995745053
 30
0
 40
2.549999999999987
 50
240.0000000000005
 51
59.99999999999992
  0
ARC
  8
1
 62
7
 10
232.1230621204513
 20
9.235099574505297
 30
0
 40
27.50000000000005
 50
43.60896063078288
 51
136.3910393692171
  0
ARC
  8
1
 62
7
 10
232.1230621204513
 20
9.235099574505297
 30
0
 40
27.5000000000001
 50
283.6089606307829
 51
16.39103936921701
  0
ARC
  8
1
 62
7
 10
232.1230621204513
 20
9.235099574505297
 30
0
 40
27.49999999999991
 50
163.6089606307829
 51
256.391039369217
  0
ARC
  8
1
 62
7
 10
232.1230621204513
 20
47.73509957450531
 30
0
 40
2.599999999999994
 50
180
 51
270
  0
ARC
  8
1
 62
7
 10
232.1230621204513
 20
53.73509957450531
 30
0
 40
2.599999999999994
 50
0
 51
90
  0
ARC
  8
1
 62
7
 10
232.1230621204513
 20
47.73509957450531
 30
0
 40
2.600000000000101
 50
270
 51
0
  0
ARC
  8
1
 62
7
 10
232.1230621204513
 20
53.73509957450531
 30
0
 40
2.599999999999881
 50
90
 51
180
  0
ARC
  8
1
 62
3
  6
CENTER
 10
232.1230621204513
 20
9.235099574505297
 30
0
 40
22.99999999999994
 50
322.5213295369546
 51
337.4786704630452
  0
ARC
  8
1
 62
3
  6
CENTER
 10
232.1230621204513
 20
9.235099574505297
 30
0
 40
23.00000000000001
 50
82.52132953695502
 51
97.47867046304548
  0
ARC
  8
1
 62
3
  6
CENTER
 10
232.1230621204513
 20
9.235099574505297
 30
0
 40
23.00000000000009
 50
202.5213295369546
 51
217.4786704630452
  0
ARC
  8
1
 62
7
 10
-30.9657901818227
 20
40.2350995745053
 30
0
 40
3.752083333333329
 50
291.1220213823926
 51
68.87797861760726
  0
ARC
  8
1
 62
7
 10
-30.9657901818227
 20
-6.264900425494687
 30
0
 40
3.752083333333329
 50
291.1220213823926
 51
68.87797861760727
  0
ARC
  8
1
 62
7
 10
-191.9051732563375
 20
42.28052285822189
 30
0
 40
2.000000000000027
 50
283.6089606307852
 51
0
  0
ARC
  8
1
 62
7
 10
-175.9051732563375
 20
42.28052285822189
 30
0
 40
2
 50
180
 51
256.3910393692172
  0
ARC
  8
1
 62
7
 10
-188.9051732563375
 20
58.23509957450529
 30
0
 40
0.9999999999999858
 50
90
 51
180
  0
ARC
  8
1
 62
7
 10
-178.9051732563375
 20
58.23509957450529
 30
0
 40
1
 50
0
 51
90
  0
ARC
  8
1
 62
7
 10
101.231595712603
 20
-3.264900425494698
 30
0
 40
0.5
 50
90
 51
180
  0
ARC
  8
1
 62
7
 10
68.75159571260316
 20
0.7150995745053095
 30
0
 40
1.019999999999992
 50
90
 51
180
  0
ARC
  8
1
 62
7
 10
75.71159571260314
 20
-5.744900425494696
 30
0
 40
1.020000000000001
 50
270
 51
0
  0
ARC
  8
1
 62
7
 10
68.75159571260316
 20
-5.744900425494696
 30
0
 40
1.019999999999996
 50
180
 51
270
  0
ARC
  8
1
 62
7
 10
75.71159571260314
 20
0.7150995745053095
 30
0
 40
1.02000000000001
 50
0
 51
90
  0
ARC
  8
1
 62
7
 10
77.75159571260316
 20
0.7150995745053095
 30
0
 40
1.019999999999992
 50
90
 51
180
  0
ARC
  8
1
 62
7
 10
84.71159571260313
 20
-5.744900425494696
 30
0
 40
1.020000000000001
 50
270
 51
0
  0
ARC
  8
1
 62
7
 10
77.75159571260316
 20
-5.744900425494696
 30
0
 40
1.02000000000001
 50
180
 51
270
  0
ARC
  8
1
 62
7
 10
84.71159571260313
 20
0.7150995745053095
 30
0
 40
1.019999999999996
 50
0
 51
90
  0
ARC
  8
1
 62
7
 10
101.231595712603
 20
21.7350995745053
 30
0
 40
0.4999999999999005
 50
180
 51
270
  0
ARC
  8
1
 62
7
 10
68.75159571260316
 20
17.75509957450528
 30
0
 40
1.019999999999996
 50
180
 51
270
  0
ARC
  8
1
 62
7
 10
75.71159571260314
 20
24.21509957450529
 30
0
 40
1.02000000000001
 50
0
 51
90
  0
ARC
  8
1
 62
7
 10
68.75159571260316
 20
24.21509957450529
 30
0
 40
1.02
 50
90
 51
180
  0
ARC
  8
1
 62
7
 10
75.71159571260314
 20
17.75509957450528
 30
0
 40
1.019999999999982
 50
270
 51
0
  0
ARC
  8
1
 62
7
 10
77.75159571260316
 20
17.75509957450528
 30
0
 40
1.02000000000001
 50
180
 51
270
  0
ARC
  8
1
 62
7
 10
84.71159571260313
 20
24.21509957450529
 30
0
 40
1.019999999999996
 50
0
 51
90
  0
ARC
  8
1
 62
7
 10
77.75159571260316
 20
24.21509957450529
 30
0
 40
1.02
 50
90
 51
180
  0
ARC
  8
1
 62
7
 10
84.71159571260313
 20
17.75509957450528
 30
0
 40
1.019999999999982
 50
270
 51
0
  0
ARC
  8
1
 62
7
 10
226.1230621204513
 20
-15.54896788828216
 30
0
 40
2.000000000000137
 50
256.3910393692156
 51
306.8800248677716
  0
ARC
  8
1
 62
7
 10
256.5866941523326
 20
16.43098088319239
 30
0
 40
2.000000000000069
 50
16.39103936921634
 51
56.49759711938093
  0
ARC
  8
1
 62
7
 10
213.65943008857
 20
26.82328572860567
 30
0
 40
1.999999999999881
 50
136.3910393692167
 51
173.4979779420786
  0
ARC
  8
1
 62
7
 10
250.5866941523326
 20
26.82328572860564
 30
0
 40
2.000000000000045
 50
6.502022057920865
 51
43.60896063078334
  0
ARC
  8
1
 62
7
 10
238.1230621204514
 20
-15.54896788828216
 30
0
 40
2.000000000000069
 50
233.1199751322266
 51
283.608960630779
  0
ARC
  8
1
 62
7
 10
207.6594300885701
 20
16.4309808831924
 30
0
 40
1.999999999999972
 50
123.502402880617
 51
163.608960630783
  0
ARC
  8
1
 62
7
 10
237.1230621204513
 20
58.23509957450531
 30
0
 40
1.000000000000114
 50
0
 51
90
  0
ARC
  8
1
 62
7
 10
227.1230621204513
 20
58.23509957450531
 30
0
 40
1
 50
90
 51
180
  0
CIRCLE
  8
1
 62
7
 10
-183.9051732563375
 20
9.235099574505297
 30
0
 40
14
  0
CIRCLE
  8
1
 62
7
 10
-183.9051732563375
 20
9.235099574505297
 30
0
 40
7.5
  0
CIRCLE
  8
1
 62
3
 10
252.0416464074935
 20
-2.264900425494715
 30
0
 40
2
  0
CIRCLE
  8
1
 62
7
 10
252.0416464074935
 20
-2.264900425494715
 30
0
 40
1.600000000000023
  0
CIRCLE
  8
1
 62
7
 10
232.1230621204513
 20
9.235099574505297
 30
0
 40
16
  0
CIRCLE
  8
1
 62
7
 10
232.1230621204513
 20
9.421203116739768
 30
0
 40
27.00000000000003
  0
CIRCLE
  8
1
 62
7
 10
232.1230621204513
 20
9.235099574505297
 30
0
 40
35.14999999999989
  0
CIRCLE
  8
1
 62
7
 10
232.1230621204513
 20
9.235099574505297
 30
0
 40
13
  0
CIRCLE
  8
1
 62
7
 10
232.1230621204513
 20
9.235099574505297
 30
0
 40
34.50000000000003
  0
CIRCLE
  8
1
 62
7
 10
232.1230621204513
 20
40.2350995745053
 30
0
 40
3.150000000000006
  0
CIRCLE
  8
1
 62
7
 10
205.2762746031336
 20
-6.264900425494696
 30
0
 40
3.149999999999892
  0
CIRCLE
  8
1
 62
7
 10
258.9698496377689
 20
-6.264900425494722
 30
0
 40
3.14999999999992
  0
CIRCLE
  8
1
 62
7
 10
232.1230621204513
 20
9.235099574505297
 30
0
 40
7.5
  0
CIRCLE
  8
1
 62
3
 10
232.1230621204513
 20
32.23509957450532
 30
0
 40
2
  0
CIRCLE
  8
1
 62
7
 10
232.1230621204513
 20
32.23509957450532
 30
0
 40
1.599999999999994
  0
CIRCLE
  8
1
 62
3
 10
212.2044778334092
 20
-2.264900425494748
 30
0
 40
2
  0
CIRCLE
  8
1
 62
7
 10
212.2044778334092
 20
-2.264900425494748
 30
0
 40
1.600000000000023
  0
TEXT
  8
1
 62
7
 10
-219.565152249602
 20
109.6447123561504
 30
0
 40
6
  1
AMC 80
 41
0.8910000000000001
  7
SIMPLEX
  0
ENDSEC
  0
EOF
