  0
SECTION
  2
HEADER
  9
$ACADVER
  1
AC1009
  9
$INSBASE
 10
0.0
 20
0.0
 30
0.0
  9
$EXTMIN
 10
-25.750000000000011
 20
-27.75
 30
0.0
  9
$EXTMAX
 10
262.25
 20
74.04018668012111
 30
0.0
  9
$LIMMIN
 10
-25.750000000000011
 20
-27.750000000000021
  9
$LIMMAX
 10
262.25
 20
74.040186680121096
  9
$ORTHOMODE
 70
     0
  9
$REGENMODE
 70
     1
  9
$FILLMODE
 70
     1
  9
$QTEXTMODE
 70
     0
  9
$MIRRTEXT
 70
     1
  9
$DRAGMODE
 70
     2
  9
$LTSCALE
 40
1.0
  9
$OSMODE
 70
    37
  9
$ATTMODE
 70
     1
  9
$TEXTSIZE
 40
3.5
  9
$TRACEWID
 40
0.5
  9
$TEXTSTYLE
  7
STANDARD
  9
$CLAYER
  8
0
  9
$CELTYPE
  6
BYLAYER
  9
$CECOLOR
 62
   256
  9
$DIMSCALE
 40
1.0
  9
$DIMASZ
 40
0.18
  9
$DIMEXO
 40
0.0625
  9
$DIMDLI
 40
0.38
  9
$DIMRND
 40
0.0
  9
$DIMDLE
 40
0.0
  9
$DIMEXE
 40
0.18
  9
$DIMTP
 40
0.0
  9
$DIMTM
 40
0.0
  9
$DIMTXT
 40
0.18
  9
$DIMCEN
 40
0.09
  9
$DIMTSZ
 40
0.0
  9
$DIMTOL
 70
     0
  9
$DIMLIM
 70
     0
  9
$DIMTIH
 70
     1
  9
$DIMTOH
 70
     1
  9
$DIMSE1
 70
     0
  9
$DIMSE2
 70
     0
  9
$DIMTAD
 70
     0
  9
$DIMZIN
 70
     0
  9
$DIMBLK
  1

  9
$DIMASO
 70
     1
  9
$DIMSHO
 70
     1
  9
$DIMPOST
  1

  9
$DIMAPOST
  1

  9
$DIMALT
 70
     0
  9
$DIMALTD
 70
     2
  9
$DIMALTF
 40
25.399999999999999
  9
$DIMLFAC
 40
1.0
  9
$DIMTOFL
 70
     0
  9
$DIMTVP
 40
0.0
  9
$DIMTIX
 70
     0
  9
$DIMSOXD
 70
     0
  9
$DIMSAH
 70
     0
  9
$DIMBLK1
  1

  9
$DIMBLK2
  1

  9
$DIMSTYLE
  2
STANDARD
  9
$DIMCLRD
 70
     0
  9
$DIMCLRE
 70
     0
  9
$DIMCLRT
 70
     0
  9
$DIMTFAC
 40
1.0
  9
$DIMGAP
 40
0.09
  9
$LUNITS
 70
     2
  9
$LUPREC
 70
     4
  9
$SKETCHINC
 40
0.1
  9
$FILLETRAD
 40
2.0
  9
$AUNITS
 70
     0
  9
$AUPREC
 70
     0
  9
$MENU
  1
ACAD
  9
$ELEVATION
 40
0.0
  9
$PELEVATION
 40
0.0
  9
$THICKNESS
 40
0.0
  9
$LIMCHECK
 70
     0
  9
$BLIPMODE
 70
     0
  9
$CHAMFERA
 40
0.0
  9
$CHAMFERB
 40
0.0
  9
$SKPOLY
 70
     0
  9
$TDCREATE
 40
2452093.9037989578
  9
$TDUPDATE
 40
2452093.904391435
  9
$TDINDWG
 40
0.0006090278
  9
$TDUSRTIMER
 40
0.0006090278
  9
$USRTIMER
 70
     1
  9
$ANGBASE
 50
0.0
  9
$ANGDIR
 70
     0
  9
$PDMODE
 70
     0
  9
$PDSIZE
 40
0.0
  9
$PLINEWID
 40
0.0
  9
$COORDS
 70
     1
  9
$SPLFRAME
 70
     0
  9
$SPLINETYPE
 70
     6
  9
$SPLINESEGS
 70
     8
  9
$ATTDIA
 70
     0
  9
$ATTREQ
 70
     1
  9
$HANDLING
 70
 10241
  9
$HANDSEED
  5
362
  9
$SURFTAB1
 70
     6
  9
$SURFTAB2
 70
     6
  9
$SURFTYPE
 70
     6
  9
$SURFU
 70
     6
  9
$SURFV
 70
     6
  9
$UCSNAME
  2

  9
$UCSORG
 10
0.0
 20
0.0
 30
0.0
  9
$UCSXDIR
 10
1.0
 20
0.0
 30
0.0
  9
$UCSYDIR
 10
0.0
 20
1.0
 30
0.0
  9
$PUCSNAME
  2

  9
$PUCSORG
 10
0.0
 20
0.0
 30
0.0
  9
$PUCSXDIR
 10
1.0
 20
0.0
 30
0.0
  9
$PUCSYDIR
 10
0.0
 20
1.0
 30
0.0
  9
$USERI1
 70
     0
  9
$USERI2
 70
     0
  9
$USERI3
 70
     0
  9
$USERI4
 70
     0
  9
$USERI5
 70
     0
  9
$USERR1
 40
0.0
  9
$USERR2
 40
0.0
  9
$USERR3
 40
0.0
  9
$USERR4
 40
0.0
  9
$USERR5
 40
0.0
  9
$WORLDVIEW
 70
     1
  9
$SHADEDGE
 70
     3
  9
$SHADEDIF
 70
    70
  9
$TILEMODE
 70
     1
  9
$MAXACTVP
 70
    64
  9
$PLIMCHECK
 70
     0
  9
$PEXTMIN
 10
1.0000000000000000E+020
 20
1.0000000000000000E+020
 30
1.0000000000000000E+020
  9
$PEXTMAX
 10
-1.0000000000000000E+020
 20
-1.0000000000000000E+020
 30
-1.0000000000000000E+020
  9
$PLIMMIN
 10
0.0
 20
0.0
  9
$PLIMMAX
 10
12.0
 20
9.0
  9
$UNITMODE
 70
     0
  9
$VISRETAIN
 70
     1
  9
$PLINEGEN
 70
     0
  9
$PSLTSCALE
 70
     1
  0
ENDSEC
  0
SECTION
  2
TABLES
  0
TABLE
  2
VPORT
 70
     2
  0
VPORT
  2
*ACTIVE
 70
     0
 10
0.0
 20
0.0
 11
1.0
 21
1.0
 12
-12.36449551080778
 22
64.93733051097945
 13
0.0
 23
0.0
 14
1.0
 24
1.0
 15
0.0
 25
0.0
 16
0.0
 26
0.0
 36
1.0
 17
0.0
 27
0.0
 37
0.0
 40
9.0000001062800301
 41
2.5693779904306222
 42
50.0
 43
0.0
 44
0.0
 50
0.0
 51
0.0
 71
     0
 72
   100
 73
     1
 74
     1
 75
     0
 76
     0
 77
     0
 78
     0
  0
ENDTAB
  0
TABLE
  2
LTYPE
 70
     9
  0
LTYPE
  2
CONTINUOUS
 70
     0
  3
Solid line
 72
    65
 73
     0
 40
0.0
  0
LTYPE
  2
BORDER
 70
     0
  3
__ __ . __ __ .
 72
    65
 73
     6
 40
13.263157894736841
 49
3.7894736842105261
 49
-1.8947368421052631
 49
3.7894736842105261
 49
-1.8947368421052631
 49
0.0
 49
-1.8947368421052631
  0
LTYPE
  2
CENTER
 70
     0
  3
____ _ ____ _
 72
    65
 73
     4
 40
15.157894736842101
 49
9.4736842105263168
 49
-1.8947368421052631
 49
1.8947368421052631
 49
-1.8947368421052631
  0
LTYPE
  2
DASHDOT
 70
     0
  3
__ . __ . __ .
 72
    65
 73
     4
 40
7.5789473684210531
 49
3.7894736842105261
 49
-1.8947368421052631
 49
0.0
 49
-1.8947368421052631
  0
LTYPE
  2
DASHED
 70
     0
  3
__ __ __ __ __
 72
    65
 73
     2
 40
5.6842105263157894
 49
3.7894736842105261
 49
-1.8947368421052631
  0
LTYPE
  2
DIVIDE
 70
     0
  3
__ . . __ . . 
 72
    65
 73
     6
 40
9.4736842105263168
 49
3.7894736842105261
 49
-1.8947368421052631
 49
0.0
 49
-1.8947368421052631
 49
0.0
 49
-1.8947368421052631
  0
LTYPE
  2
DOT
 70
     0
  3
..............
 72
    65
 73
     4
 40
3.7894736842105261
 49
0.0
 49
-1.8947368421052631
 49
0.0
 49
-1.8947368421052631
  0
LTYPE
  2
HIDDEN
 70
     0
  3
_ _ _ _ _ _ _
 72
    65
 73
     2
 40
2.8421052631578951
 49
1.8947368421052631
 49
-0.9473684210526316
  0
LTYPE
  2
PHANTOM
 70
     0
  3
_____ _ _ _____ _ _ 
 72
    65
 73
     6
 40
18.94736842105263
 49
9.4736842105263168
 49
-1.8947368421052631
 49
1.8947368421052631
 49
-1.8947368421052631
 49
1.8947368421052631
 49
-1.8947368421052631
  0
ENDTAB
  0
TABLE
  2
LAYER
 70
     2
  0
LAYER
  2
0
 70
     0
 62
     7
  6
CONTINUOUS
  0
LAYER
  2
1
 70
     0
 62
     7
  6
CONTINUOUS
  0
ENDTAB
  0
TABLE
  2
STYLE
 70
     4
  0
STYLE
  2
STANDARD
 70
     0
 40
0.0
 41
1.0
 50
0.0
 71
     0
 42
3.5
  3
txt
  4

  0
STYLE
  2
SIMPLEX
 70
     0
 40
0.0
 41
1.0
 50
0.0
 71
     0
 42
3.5
  3
simplex
  4

  0
STYLE
  2
COMPLEX
 70
     0
 40
0.0
 41
1.0
 50
0.0
 71
     0
 42
3.5
  3
complex
  4

  0
STYLE
  2
ITALIC
 70
     0
 40
0.0
 41
1.0
 50
0.0
 71
     0
 42
3.5
  3
italic
  4

  0
ENDTAB
  0
TABLE
  2
VIEW
 70
     0
  0
ENDTAB
  0
TABLE
  2
UCS
 70
     0
  0
ENDTAB
  0
TABLE
  2
APPID
 70
     1
  0
APPID
  2
ACAD
 70
     0
  0
ENDTAB
  0
TABLE
  2
DIMSTYLE
 70
     1
  0
DIMSTYLE
  2
STANDARD
 70
     0
  3

  4

  5

  6

  7

 40
1.0
 41
0.18
 42
0.0625
 43
0.38
 44
0.18
 45
0.0
 46
0.0
 47
0.0
 48
0.0
140
0.18
141
0.09
142
0.0
143
25.399999999999999
144
1.0
145
0.0
146
1.0
147
0.09
 71
     0
 72
     0
 73
     1
 74
     1
 75
     0
 76
     0
 77
     0
 78
     0
170
     0
171
     2
172
     0
173
     0
174
     0
175
     0
176
     0
177
     0
178
     0
  0
ENDTAB
  0
ENDSEC
  0
SECTION
  2
BLOCKS
  0
BLOCK
  8
0
  2
$MODEL_SPACE
 70
     0
 10
0.0
 20
0.0
 30
0.0
  3
$MODEL_SPACE
  1

  0
ENDBLK
  5
20
  8
0
  0
BLOCK
 67
     1
  8
0
  2
$PAPER_SPACE
 70
     0
 10
0.0
 20
0.0
 30
0.0
  3
$PAPER_SPACE
  1

  0
ENDBLK
  5
1C
 67
     1
  8
0
  0
ENDSEC
  0
SECTION
  2
ENTITIES
  0
POLYLINE
  5
33
  8
1
 62
     7
 66
     1
 10
0.0
 20
0.0
 30
0.0
  0
VERTEX
  5
239
  8
1
 62
     7
 10
132.49999999999989
 20
13.244560070812289
 30
0.0
 42
-0.000097994069659
  0
VERTEX
  5
23A
  8
1
 62
     7
 10
132.4996768105463
 20
13.269550597984651
 30
0.0
 42
-0.000293977106059
  0
VERTEX
  5
23B
  8
1
 62
     7
 10
132.4993732083324
 20
13.29454169926777
 30
0.0
 42
-0.000489933164145
  0
VERTEX
  5
23C
  8
1
 62
     7
 10
132.4991087805976
 20
13.319533948772429
 30
0.0
 42
-0.0006858448215041
  0
VERTEX
  5
23D
  8
1
 62
     7
 10
132.49890311458171
 20
13.344527920609391
 30
0.0
 42
-0.0008816757737305
  0
VERTEX
  5
23E
  8
1
 62
     7
 10
132.49877579752419
 20
13.3695241888894
 30
0.0
 42
-0.0010773869845353
  0
VERTEX
  5
23F
  8
1
 62
     7
 10
132.4987464166648
 20
13.394523327723251
 30
0.0
 42
-0.0012729133884764
  0
VERTEX
  5
240
  8
1
 62
     7
 10
132.49883455924299
 20
13.41952591122168
 30
0.0
 42
-0.0014681801154042
  0
VERTEX
  5
241
  8
1
 62
     7
 10
132.4990598124985
 20
13.44453251349548
 30
0.0
 42
-0.0016630792961568
  0
VERTEX
  5
242
  8
1
 62
     7
 10
132.499441763671
 20
13.469543708655401
 30
0.0
 42
-0.0018574864757274
  0
VERTEX
  5
243
  8
1
 62
     7
 10
132.49999999999989
 20
13.494560070812209
 30
0.0
 42
-0.0032124785496465
  0
VERTEX
  5
244
  8
1
 62
     7
 10
132.50128539017351
 20
13.53415629246641
 30
0.0
 42
-0.0034983415258971
  0
VERTEX
  5
245
  8
1
 62
     7
 10
132.50310281777121
 20
13.57374748808239
 30
0.0
 42
-0.0037433078472109
  0
VERTEX
  5
246
  8
1
 62
     7
 10
132.5054938085714
 20
13.613314254505971
 30
0.0
 42
-0.0040352769435248
  0
VERTEX
  5
247
  8
1
 62
     7
 10
132.50849988835239
 20
13.65283718858289
 30
0.0
 42
-0.0042862602991023
  0
VERTEX
  5
248
  8
1
 62
     7
 10
132.51216258289219
 20
13.69229688715893
 30
0.0
 42
-0.0045838899054743
  0
VERTEX
  5
249
  8
1
 62
     7
 10
132.51652341796921
 20
13.73167394707988
 30
0.0
 42
-0.0048398798818103
  0
VERTEX
  5
24A
  8
1
 62
     7
 10
132.5216239193619
 20
13.770948965191501
 30
0.0
 42
-0.0051415358599951
  0
VERTEX
  5
24B
  8
1
 62
     7
 10
132.5275056128485
 20
13.810102538339571
 30
0.0
 42
-0.0054002155103358
  0
VERTEX
  5
24C
  8
1
 62
     7
 10
132.53421002420731
 20
13.84911526336986
 30
0.0
 42
-0.0343825422601025
  0
VERTEX
  5
24D
  8
1
 62
     7
 10
132.59357956367609
 20
14.08188949380083
 30
0.0
 42
-0.0094009021875369
  0
VERTEX
  5
24E
  8
1
 62
     7
 10
132.6201876449914
 20
14.157768421923
 30
0.0
 42
-0.0110944374741224
  0
VERTEX
  5
24F
  8
1
 62
     7
 10
132.64989002029949
 20
14.232511637805599
 30
0.0
 42
-0.0186145457037804
  0
VERTEX
  5
250
  8
1
 62
     7
 10
132.7193110455992
 20
14.38086742193731
 30
0.0
 42
-0.034622476768601
  0
VERTEX
  5
251
  8
1
 62
     7
 10
132.8684301395927
 20
14.627332299123591
 30
0.0
 42
-0.017900907160321
  0
VERTEX
  5
252
  8
1
 62
     7
 10
132.97119012010691
 20
14.76275182048971
 30
0.0
 42
-0.0192594164736577
  0
VERTEX
  5
253
  8
1
 62
     7
 10
133.08374949828851
 20
14.890201109927659
 30
0.0
 42
-0.0210456934867163
  0
VERTEX
  5
254
  8
1
 62
     7
 10
133.23994312080501
 20
15.040677857639309
 30
0.0
 42
-0.0180832855359694
  0
VERTEX
  5
255
  8
1
 62
     7
 10
133.3757288155023
 20
15.15240714734751
 30
0.0
 42
-0.0198269753274139
  0
VERTEX
  5
256
  8
1
 62
     7
 10
133.55784049698141
 20
15.280421543733571
 30
0.0
 42
-0.0170912367390425
  0
VERTEX
  5
257
  8
1
 62
     7
 10
133.7136084026437
 20
15.37355465050036
 30
0.0
 42
-0.0187726956150774
  0
VERTEX
  5
258
  8
1
 62
     7
 10
133.9172266459808
 20
15.476257121910351
 30
0.0
 42
-0.0200824140826149
  0
VERTEX
  5
259
  8
1
 62
     7
 10
134.132654967853
 20
15.564671753435629
 30
0.0
 42
-0.0216514718594601
  0
VERTEX
  5
25A
  8
1
 62
     7
 10
134.40076076924069
 20
15.64937108027331
 30
0.0
 42
-0.0264637098065834
  0
VERTEX
  5
25B
  8
1
 62
     7
 10
134.72555175490251
 20
15.71852451259506
 30
0.0
 42
-0.181658847613407
  0
VERTEX
  5
25C
  8
1
 62
     7
 10
136.98012203579711
 20
15.25556012792795
 30
0.0
 42
-0.0296038909170436
  0
VERTEX
  5
25D
  8
1
 62
     7
 10
137.1242711844977
 20
15.152407147347491
 30
0.0
 42
-0.0041008929331915
  0
VERTEX
  5
25E
  8
1
 62
     7
 10
137.26005687919491
 20
15.040677857639301
 30
0.0
 42
-0.0306813673108327
  0
VERTEX
  5
25F
  8
1
 62
     7
 10
137.38670181881119
 20
14.92077573069202
 30
0.0
 42
-0.0049504735169144
  0
VERTEX
  5
260
  8
1
 62
     7
 10
137.50154795636871
 20
14.795375469711241
 30
0.0
 42
-0.0317931506052426
  0
VERTEX
  5
261
  8
1
 62
     7
 10
137.60685564032431
 20
14.661914624042099
 30
0.0
 42
-0.0204730625097523
  0
VERTEX
  5
262
  8
1
 62
     7
 10
137.76143221265301
 20
14.417281462907781
 30
0.0
 42
-0.0424346904739734
  0
VERTEX
  5
263
  8
1
 62
     7
 10
137.86533669903091
 20
14.19528908251025
 30
0.0
 42
-0.010212164091783
  0
VERTEX
  5
264
  8
1
 62
     7
 10
137.8935144374878
 20
14.11996383327585
 30
0.0
 42
-0.0106965776248011
  0
VERTEX
  5
265
  8
1
 62
     7
 10
137.91850784137171
 20
14.043559580729941
 30
0.0
 42
-0.0110814507968194
  0
VERTEX
  5
266
  8
1
 62
     7
 10
137.94013682952351
 20
13.966189742728661
 30
0.0
 42
-0.0116154570570935
  0
VERTEX
  5
267
  8
1
 62
     7
 10
137.95822132078351
 20
13.88796773712815
 30
0.0
 42
-0.0057886881025498
  0
VERTEX
  5
268
  8
1
 62
     7
 10
137.9657899757926
 20
13.849115263369869
 30
0.0
 42
-0.0053143698874244
  0
VERTEX
  5
269
  8
1
 62
     7
 10
137.97249438715139
 20
13.810102538339571
 30
0.0
 42
-0.0052273813268567
  0
VERTEX
  5
26A
  8
1
 62
     7
 10
137.97837608063799
 20
13.770948965191501
 30
0.0
 42
-0.004754034746618
  0
VERTEX
  5
26B
  8
1
 62
     7
 10
137.9834765820307
 20
13.73167394707988
 30
0.0
 42
-0.0046697349030244
  0
VERTEX
  5
26C
  8
1
 62
     7
 10
137.9878374171077
 20
13.69229688715893
 30
0.0
 42
-0.0042004155935474
  0
VERTEX
  5
26D
  8
1
 62
     7
 10
137.9915001116475
 20
13.6528371885829
 30
0.0
 42
-0.0041211215311133
  0
VERTEX
  5
26E
  8
1
 62
     7
 10
137.99450619142851
 20
13.61331425450598
 30
0.0
 42
-0.0036574635119012
  0
VERTEX
  5
26F
  8
1
 62
     7
 10
137.99689718222871
 20
13.573747488082409
 30
0.0
 42
-0.0035841857622902
  0
VERTEX
  5
270
  8
1
 62
     7
 10
137.99871460982641
 20
13.53415629246641
 30
0.0
 42
-0.0031266345273846
  0
VERTEX
  5
271
  8
1
 62
     7
 10
138.0
 20
13.494560070812209
 30
0.0
 42
-0.0019433299456275
  0
VERTEX
  5
272
  8
1
 62
     7
 10
138.00055823632891
 20
13.469543708655401
 30
0.0
 42
-0.0015772359109539
  0
VERTEX
  5
273
  8
1
 62
     7
 10
138.00094018750141
 20
13.44453251349548
 30
0.0
 42
-0.0015540234718611
  0
VERTEX
  5
274
  8
1
 62
     7
 10
138.00116544075689
 20
13.41952591122169
 30
0.0
 42
-0.0011870700975978
  0
VERTEX
  5
275
  8
1
 62
     7
 10
138.00125358333511
 20
13.394523327723251
 30
0.0
 42
-0.0011632302532847
  0
VERTEX
  5
276
  8
1
 62
     7
 10
138.0012242024757
 20
13.369524188889409
 30
0.0
 42
-0.0007958325517622
  0
VERTEX
  5
277
  8
1
 62
     7
 10
138.00109688541821
 20
13.344527920609391
 30
0.0
 42
-0.0007716880292411
  0
VERTEX
  5
278
  8
1
 62
     7
 10
138.00089121940229
 20
13.31953394877244
 30
0.0
 42
-0.0004040899848459
  0
VERTEX
  5
279
  8
1
 62
     7
 10
138.0006267916676
 20
13.29454169926777
 30
0.0
 42
-0.0003798202779486
  0
VERTEX
  5
27A
  8
1
 62
     7
 10
138.00032318945361
 20
13.26955059798466
 30
0.0
 42
-0.0000121509072523
  0
VERTEX
  5
27B
  8
1
 62
     7
 10
138.0
 20
13.2445600708123
 30
0.0
  0
SEQEND
  5
27C
  8
1
 62
     7
  0
POLYLINE
  5
78
  8
1
 62
     7
 66
     1
 10
0.0
 20
0.0
 30
0.0
  0
VERTEX
  5
27D
  8
1
 62
     7
 10
138.0
 20
13.025000000000009
 30
0.0
 42
-0.0003153291247781
  0
VERTEX
  5
27E
  8
1
 62
     7
 10
137.9975446912122
 20
12.983366247134571
 30
0.0
 42
-0.0009463082742702
  0
VERTEX
  5
27F
  8
1
 62
     7
 10
137.99498498490129
 20
12.941749356465531
 30
0.0
 42
-0.0015788443715729
  0
VERTEX
  5
280
  8
1
 62
     7
 10
137.99221648354359
 20
12.90016619018931
 30
0.0
 42
-0.0022133441123445
  0
VERTEX
  5
281
  8
1
 62
     7
 10
137.9891347896164
 20
12.85863361050234
 30
0.0
 42
-0.0028505686791899
  0
VERTEX
  5
282
  8
1
 62
     7
 10
137.98563550559601
 20
12.81716847960103
 30
0.0
 42
-0.0034902018966127
  0
VERTEX
  5
283
  8
1
 62
     7
 10
137.98161423395919
 20
12.775787659681781
 30
0.0
 42
-0.0041320245010452
  0
VERTEX
  5
284
  8
1
 62
     7
 10
137.97696657718291
 20
12.73450801294103
 30
0.0
 42
-0.0047744749535147
  0
VERTEX
  5
285
  8
1
 62
     7
 10
137.97158813774371
 20
12.69334640157517
 30
0.0
 42
-0.0054158235185957
  0
VERTEX
  5
286
  8
1
 62
     7
 10
137.96537451811821
 20
12.652319687780629
 30
0.0
 42
-0.0060527464109264
  0
VERTEX
  5
287
  8
1
 62
     7
 10
137.95822132078351
 20
12.611444733753819
 30
0.0
 42
-0.0064615831488371
  0
VERTEX
  5
288
  8
1
 62
     7
 10
137.94996249351451
 20
12.57033880530134
 30
0.0
 42
-0.0059587517448338
  0
VERTEX
  5
289
  8
1
 62
     7
 10
137.9406780345995
 20
12.529418961067
 30
0.0
 42
-0.0060263030772573
  0
VERTEX
  5
28A
  8
1
 62
     7
 10
137.93040690306481
 20
12.48869933351714
 30
0.0
 42
-0.0055303030628303
  0
VERTEX
  5
28B
  8
1
 62
     7
 10
137.91918805793651
 20
12.448194055118019
 30
0.0
 42
-0.0056060439077517
  0
VERTEX
  5
28C
  8
1
 62
     7
 10
137.90706045824049
 20
12.40791725833601
 30
0.0
 42
-0.0051193288041123
  0
VERTEX
  5
28D
  8
1
 62
     7
 10
137.8940630630033
 20
12.367883075637421
 30
0.0
 42
-0.00520520157761
  0
VERTEX
  5
28E
  8
1
 62
     7
 10
137.8802348312505
 20
12.328105639488539
 30
0.0
 42
-0.0047292529043905
  0
VERTEX
  5
28F
  8
1
 62
     7
 10
137.8656147220085
 20
12.288599082355709
 30
0.0
 42
-0.0048263297890807
  0
VERTEX
  5
290
  8
1
 62
     7
 10
137.85024169430329
 20
12.24937753670525
 30
0.0
 42
-0.0043618592556315
  0
VERTEX
  5
291
  8
1
 62
     7
 10
137.8341547071611
 20
12.21045513500346
 30
0.0
 42
-0.0155275692899592
  0
VERTEX
  5
292
  8
1
 62
     7
 10
137.77194392185351
 20
12.075415128847871
 30
0.0
 42
-0.0145479567335331
  0
VERTEX
  5
293
  8
1
 62
     7
 10
137.70179360102739
 20
11.944480621077769
 30
0.0
 42
-0.0143984413876548
  0
VERTEX
  5
294
  8
1
 62
     7
 10
137.62419714341391
 20
11.817843276298809
 30
0.0
 42
-0.0246815954200184
  0
VERTEX
  5
295
  8
1
 62
     7
 10
137.46843003629081
 20
11.603253369585589
 30
0.0
 42
-0.0138412370812456
  0
VERTEX
  5
296
  8
1
 62
     7
 10
137.38458031756531
 20
11.50469183117896
 30
0.0
 42
-0.049126075603467
  0
VERTEX
  5
297
  8
1
 62
     7
 10
137.0274244154626
 20
11.178562128887849
 30
0.0
 42
-0.0237940033150002
  0
VERTEX
  5
298
  8
1
 62
     7
 10
136.8031655939194
 20
11.027017603135061
 30
0.0
 42
-0.033573765117761
  0
VERTEX
  5
299
  8
1
 62
     7
 10
136.47944604799079
 20
10.85866325757789
 30
0.0
 42
-0.0223394779414406
  0
VERTEX
  5
29A
  8
1
 62
     7
 10
136.2207797573549
 20
10.75899781916519
 30
0.0
 42
-0.0322232173274298
  0
VERTEX
  5
29B
  8
1
 62
     7
 10
135.85906004590549
 20
10.66328410828336
 30
0.0
 42
-0.063210000106587
  0
VERTEX
  5
29C
  8
1
 62
     7
 10
135.06117239420561
 20
10.60894181983954
 30
0.0
 42
-0.0619593678259887
  0
VERTEX
  5
29D
  8
1
 62
     7
 10
134.32319120903421
 20
10.74476484101722
 30
0.0
 42
-0.0270995604169543
  0
VERTEX
  5
29E
  8
1
 62
     7
 10
134.02055395200921
 20
10.85866325757789
 30
0.0
 42
-0.0246581779453728
  0
VERTEX
  5
29F
  8
1
 62
     7
 10
133.77507208644721
 20
10.981343096536481
 30
0.0
 42
-0.0284395114755122
  0
VERTEX
  5
2A0
  8
1
 62
     7
 10
133.50816923650009
 20
11.152275827284351
 30
0.0
 42
-0.0174188888954794
  0
VERTEX
  5
2A1
  8
1
 62
     7
 10
133.3685102021015
 20
11.260960799625069
 30
0.0
 42
-0.0127544371205886
  0
VERTEX
  5
2A2
  8
1
 62
     7
 10
133.26888390934451
 20
11.348632537706481
 30
0.0
 42
-0.0187925051956251
  0
VERTEX
  5
2A3
  8
1
 62
     7
 10
133.14450883855491
 20
11.47284556933529
 30
0.0
 42
-0.0130004393405475
  0
VERTEX
  5
2A4
  8
1
 62
     7
 10
133.0589498311877
 20
11.56991205735109
 30
0.0
 42
-0.0129661725119778
  0
VERTEX
  5
2A5
  8
1
 62
     7
 10
132.9785224141622
 20
11.671316762116721
 30
0.0
 42
-0.0119638095254191
  0
VERTEX
  5
2A6
  8
1
 62
     7
 10
132.90323776072799
 20
11.776618880364079
 30
0.0
 42
-0.0141051960693887
  0
VERTEX
  5
2A7
  8
1
 62
     7
 10
132.8232689016811
 20
11.90178124534475
 30
0.0
 42
-0.0144736965154372
  0
VERTEX
  5
2A8
  8
1
 62
     7
 10
132.75058171317789
 20
12.031304661518419
 30
0.0
 42
-0.0152220695223412
  0
VERTEX
  5
2A9
  8
1
 62
     7
 10
132.68566959394951
 20
12.16499746427947
 30
0.0
 42
-0.0095975330800297
  0
VERTEX
  5
2AA
  8
1
 62
     7
 10
132.64975830569651
 20
12.249377536705239
 30
0.0
 42
-0.0048124651983331
  0
VERTEX
  5
2AB
  8
1
 62
     7
 10
132.63438527799141
 20
12.288599082355701
 30
0.0
 42
-0.0047431174838001
  0
VERTEX
  5
2AC
  8
1
 62
     7
 10
132.61976516874941
 20
12.32810563948853
 30
0.0
 42
-0.0051913369348814
  0
VERTEX
  5
2AD
  8
1
 62
     7
 10
132.60593693699661
 20
12.36788307563741
 30
0.0
 42
-0.0051331934362134
  0
VERTEX
  5
2AE
  8
1
 62
     7
 10
132.59293954175931
 20
12.407917258335999
 30
0.0
 42
-0.0055921792053381
  0
VERTEX
  5
2AF
  8
1
 62
     7
 10
132.58081194206341
 20
12.448194055118019
 30
0.0
 42
-0.0055441677560162
  0
VERTEX
  5
2B0
  8
1
 62
     7
 10
132.56959309693511
 20
12.488699333517131
 30
0.0
 42
-0.0060124383068236
  0
VERTEX
  5
2B1
  8
1
 62
     7
 10
132.55932196540039
 20
12.529418961067
 30
0.0
 42
-0.0059726165060185
  0
VERTEX
  5
2B2
  8
1
 62
     7
 10
132.55003750648541
 20
12.57033880530134
 30
0.0
 42
-0.0126730439448622
  0
VERTEX
  5
2B3
  8
1
 62
     7
 10
132.5346254818817
 20
12.652319687780629
 30
0.0
 42
-0.0050855504735044
  0
VERTEX
  5
2B4
  8
1
 62
     7
 10
132.52841186225629
 20
12.69334640157517
 30
0.0
 42
-0.0051047469516825
  0
VERTEX
  5
2B5
  8
1
 62
     7
 10
132.52303342281709
 20
12.73450801294103
 30
0.0
 42
-0.0038017553641297
  0
VERTEX
  5
2B6
  8
1
 62
     7
 10
132.51838576604081
 20
12.7757876596818
 30
0.0
 42
-0.0038204702492396
  0
VERTEX
  5
2B7
  8
1
 62
     7
 10
132.51436449440391
 20
12.81716847960104
 30
0.0
 42
-0.0025203023576571
  0
VERTEX
  5
2B8
  8
1
 62
     7
 10
132.51086521038351
 20
12.85863361050235
 30
0.0
 42
-0.0025436099208536
  0
VERTEX
  5
2B9
  8
1
 62
     7
 10
132.5077835164563
 20
12.900166190189321
 30
0.0
 42
-0.0012485797706774
  0
VERTEX
  5
2BA
  8
1
 62
     7
 10
132.50501501509871
 20
12.941749356465531
 30
0.0
 42
-0.0012765726234201
  0
VERTEX
  5
2BB
  8
1
 62
     7
 10
132.50245530878769
 20
12.983366247134571
 30
0.0
 42
-0.0003153291247757
  0
VERTEX
  5
2BC
  8
1
 62
     7
 10
132.49999999999989
 20
13.025000000000009
 30
0.0
  0
SEQEND
  5
2BD
  8
1
 62
     7
  0
POLYLINE
  5
BA
  8
1
 62
     7
 66
     1
 10
0.0
 20
0.0
 30
0.0
  0
VERTEX
  5
2BE
  8
1
 62
     7
 10
135.5124999999999
 20
15.27940488455425
 30
0.0
 42
0.0003144207022932
  0
VERTEX
  5
2BF
  8
1
 62
     7
 10
135.5138307976512
 20
15.25688572133158
 30
0.0
 42
0.0009435791764996
  0
VERTEX
  5
2C0
  8
1
 62
     7
 10
135.51521790130781
 20
15.234375623739931
 30
0.0
 42
0.001574275860955
  0
VERTEX
  5
2C1
  8
1
 62
     7
 10
135.516717616975
 20
15.211883657410381
 30
0.0
 42
0.0022069117400311
  0
VERTEX
  5
2C2
  8
1
 62
     7
 10
135.51838625065841
 20
15.189418887973909
 30
0.0
 42
0.0028422370752683
  0
VERTEX
  5
2C3
  8
1
 62
     7
 10
135.5202801083631
 20
15.16699038106159
 30
0.0
 42
0.0034799361509433
  0
VERTEX
  5
2C4
  8
1
 62
     7
 10
135.52245549609449
 20
15.14460720230444
 30
0.0
 42
0.0041197873305215
  0
VERTEX
  5
2C5
  8
1
 62
     7
 10
135.52496871985801
 20
15.12227841733352
 30
0.0
 42
0.0047602406405302
  0
VERTEX
  5
2C6
  8
1
 62
     7
 10
135.5278760856589
 20
15.100013091779839
 30
0.0
 42
0.0053995777152832
  0
VERTEX
  5
2C7
  8
1
 62
     7
 10
135.53123389950261
 20
15.077820291274429
 30
0.0
 42
0.0060345026457897
  0
VERTEX
  5
2C8
  8
1
 62
     7
 10
135.53509846739431
 20
15.055709081448351
 30
0.0
 42
0.006445022801104
  0
VERTEX
  5
2C9
  8
1
 62
     7
 10
135.5395595409245
 20
15.033472415059279
 30
0.0
 42
0.0059556446705231
  0
VERTEX
  5
2CA
  8
1
 62
     7
 10
135.54457455072051
 20
15.011336120338459
 30
0.0
 42
0.0060290391213062
  0
VERTEX
  5
2CB
  8
1
 62
     7
 10
135.55012325421481
 20
14.989308122448319
 30
0.0
 42
0.0055465531671844
  0
VERTEX
  5
2CC
  8
1
 62
     7
 10
135.55618540884021
 20
14.96739634655134
 30
0.0
 42
0.0056281313868705
  0
VERTEX
  5
2CD
  8
1
 62
     7
 10
135.56274077202971
 20
14.945608717810011
 30
0.0
 42
0.0051548794570797
  0
VERTEX
  5
2CE
  8
1
 62
     7
 10
135.56976910121571
 20
14.92395316138678
 30
0.0
 42
0.0052465136081201
  0
VERTEX
  5
2CF
  8
1
 62
     7
 10
135.57725015383099
 20
14.90243760244412
 30
0.0
 42
0.0047839444641472
  0
VERTEX
  5
2D0
  8
1
 62
     7
 10
135.58516368730861
 20
14.8810699661445
 30
0.0
 42
0.0048867075083487
  0
VERTEX
  5
2D1
  8
1
 62
     7
 10
135.59348945908101
 20
14.859858177650411
 30
0.0
 42
0.0136258334566752
  0
VERTEX
  5
2D2
  8
1
 62
     7
 10
135.6211102045595
 20
14.79649101281994
 30
0.0
 42
0.1123019269772534
  0
VERTEX
  5
2D3
  8
1
 62
     7
 10
135.96726237108399
 20
14.352288492082231
 30
0.0
 42
0.0200378319966294
  0
VERTEX
  5
2D4
  8
1
 62
     7
 10
136.08457367052469
 20
14.264013577777501
 30
0.0
 42
0.0382972036136152
  0
VERTEX
  5
2D5
  8
1
 62
     7
 10
136.25624999999991
 20
14.16377988455424
 30
0.0
 42
0.0067381934960628
  0
VERTEX
  5
2D6
  8
1
 62
     7
 10
136.32512450595789
 20
14.131487218085139
 30
0.0
 42
0.0170951004135172
  0
VERTEX
  5
2D7
  8
1
 62
     7
 10
136.3954706258678
 20
14.10250811817537
 30
0.0
 42
0.0057692232524131
  0
VERTEX
  5
2D8
  8
1
 62
     7
 10
136.46710923814061
 20
14.076759894459819
 30
0.0
 42
0.0163965851203592
  0
VERTEX
  5
2D9
  8
1
 62
     7
 10
136.54057027095891
 20
14.053978418868679
 30
0.0
 42
0.002719237726098
  0
VERTEX
  5
2DA
  8
1
 62
     7
 10
136.5903278481845
 20
14.04060944056277
 30
0.0
 42
0.01362207720846
  0
VERTEX
  5
2DB
  8
1
 62
     7
 10
136.64046813822409
 20
14.02887988056886
 30
0.0
 42
0.0036352653243311
  0
VERTEX
  5
2DC
  8
1
 62
     7
 10
136.69094151082129
 20
14.01889572082642
 30
0.0
 42
0.014570576811686
  0
VERTEX
  5
2DD
  8
1
 62
     7
 10
136.7416983357204
 20
14.01076294327498
 30
0.0
 42
0.0045902600755943
  0
VERTEX
  5
2DE
  8
1
 62
     7
 10
136.76735938819431
 20
14.00739017690432
 30
0.0
 42
0.0041080369647015
  0
VERTEX
  5
2DF
  8
1
 62
     7
 10
136.7930738450747
 20
14.00446446790807
 30
0.0
 42
0.0036225124478808
  0
VERTEX
  5
2E0
  8
1
 62
     7
 10
136.8188357725387
 20
14.001936143244651
 30
0.0
 42
0.003137707922411
  0
VERTEX
  5
2E1
  8
1
 62
     7
 10
136.84463923676341
 20
13.999755529872431
 30
0.0
 42
0.0026518248110429
  0
VERTEX
  5
2E2
  8
1
 62
     7
 10
136.87047830392581
 20
13.99787295474983
 30
0.0
 42
0.0021681207161665
  0
VERTEX
  5
2E3
  8
1
 62
     7
 10
136.8963470402029
 20
13.99623874483523
 30
0.0
 42
0.0016841419659975
  0
VERTEX
  5
2E4
  8
1
 62
     7
 10
136.92223951177189
 20
13.99480322708704
 30
0.0
 42
0.001202603271668
  0
VERTEX
  5
2E5
  8
1
 62
     7
 10
136.94814978480969
 20
13.99351672846365
 30
0.0
 42
0.0007206204717783
  0
VERTEX
  5
2E6
  8
1
 62
     7
 10
136.97407192549321
 20
13.99232957592346
 30
0.0
 42
0.0002405884436215
  0
VERTEX
  5
2E7
  8
1
 62
     7
 10
137.0
 20
13.99119209642488
 30
0.0
  0
SEQEND
  5
2E8
  8
1
 62
     7
  0
POLYLINE
  5
E6
  8
1
 62
     7
 66
     1
 10
0.0
 20
0.0
 30
0.0
  0
VERTEX
  5
2E9
  8
1
 62
     7
 10
137.0
 20
13.53652875943806
 30
0.0
 42
0.0002402677612725
  0
VERTEX
  5
2EA
  8
1
 62
     7
 10
136.9740719254934
 20
13.53539127993948
 30
0.0
 42
0.0007209411542508
  0
VERTEX
  5
2EB
  8
1
 62
     7
 10
136.94814978480969
 20
13.534204127399301
 30
0.0
 42
0.0012022825889056
  0
VERTEX
  5
2EC
  8
1
 62
     7
 10
136.92223951177189
 20
13.532917628775911
 30
0.0
 42
0.0016844626492004
  0
VERTEX
  5
2ED
  8
1
 62
     7
 10
136.8963470402029
 20
13.531482111027721
 30
0.0
 42
0.0021678000324001
  0
VERTEX
  5
2EE
  8
1
 62
     7
 10
136.87047830392581
 20
13.52984790111311
 30
0.0
 42
0.0026521454955231
  0
VERTEX
  5
2EF
  8
1
 62
     7
 10
136.84463923676341
 20
13.5279653259905
 30
0.0
 42
0.0031373872370327
  0
VERTEX
  5
2F0
  8
1
 62
     7
 10
136.8188357725387
 20
13.525784712618281
 30
0.0
 42
0.003622833134339
  0
VERTEX
  5
2F1
  8
1
 62
     7
 10
136.7930738450747
 20
13.52325638795487
 30
0.0
 42
0.00410771627704
  0
VERTEX
  5
2F2
  8
1
 62
     7
 10
136.76735938819431
 20
13.520330678958629
 30
0.0
 42
0.004590580764606
  0
VERTEX
  5
2F3
  8
1
 62
     7
 10
136.7416983357204
 20
13.516957912587969
 30
0.0
 42
0.0095065431690662
  0
VERTEX
  5
2F4
  8
1
 62
     7
 10
136.69094151082129
 20
13.50882513503652
 30
0.0
 42
0.0086987577295521
  0
VERTEX
  5
2F5
  8
1
 62
     7
 10
136.64046813822409
 20
13.49884097529408
 30
0.0
 42
0.0085581546349203
  0
VERTEX
  5
2F6
  8
1
 62
     7
 10
136.5903278481845
 20
13.487111415300159
 30
0.0
 42
0.0077826771721286
  0
VERTEX
  5
2F7
  8
1
 62
     7
 10
136.5405702709588
 20
13.473742436994261
 30
0.0
 42
0.0076788788078513
  0
VERTEX
  5
2F8
  8
1
 62
     7
 10
136.49124503680301
 20
13.458840022315901
 30
0.0
 42
0.0107287698334983
  0
VERTEX
  5
2F9
  8
1
 62
     7
 10
136.4192153985401
 20
13.43415038169508
 30
0.0
 42
0.0118177341701474
  0
VERTEX
  5
2FA
  8
1
 62
     7
 10
136.34841854544371
 20
13.40625742833506
 30
0.0
 42
0.011689468435752
  0
VERTEX
  5
2FB
  8
1
 62
     7
 10
136.279033599103
 20
13.37507847187074
 30
0.0
 42
0.0248526178792225
  0
VERTEX
  5
2FC
  8
1
 62
     7
 10
136.1473941771192
 20
13.30394848963742
 30
0.0
 42
0.0289802364351499
  0
VERTEX
  5
2FD
  8
1
 62
     7
 10
136.00505420151239
 20
13.205932879538
 30
0.0
 42
0.0262056361905012
  0
VERTEX
  5
2FE
  8
1
 62
     7
 10
135.89493195384239
 20
13.1106307760747
 30
0.0
 42
0.0262457329740997
  0
VERTEX
  5
2FF
  8
1
 62
     7
 10
135.79700276758291
 20
13.00604465724169
 30
0.0
 42
0.0189396516433808
  0
VERTEX
  5
300
  8
1
 62
     7
 10
135.738761123828
 20
12.9313386494096
 30
0.0
 42
0.0836960415711826
  0
VERTEX
  5
301
  8
1
 62
     7
 10
135.55618540884021
 20
12.56032450931164
 30
0.0
 42
0.010197055656904
  0
VERTEX
  5
302
  8
1
 62
     7
 10
135.55012325421481
 20
12.53841273341466
 30
0.0
 42
0.0013787609859912
  0
VERTEX
  5
303
  8
1
 62
     7
 10
135.54457455072051
 20
12.516384735524531
 30
0.0
 42
0.0106061778914163
  0
VERTEX
  5
304
  8
1
 62
     7
 10
135.5395595409245
 20
12.4942484408037
 30
0.0
 42
0.00800231292379
  0
VERTEX
  5
305
  8
1
 62
     7
 10
135.53123389950261
 20
12.44990056458855
 30
0.0
 42
0.0097040655631284
  0
VERTEX
  5
306
  8
1
 62
     7
 10
135.5278760856589
 20
12.427707764083159
 30
0.0
 42
0.0004559689843109
  0
VERTEX
  5
307
  8
1
 62
     7
 10
135.52496871985801
 20
12.405442438529469
 30
0.0
 42
0.0084241990275777
  0
VERTEX
  5
308
  8
1
 62
     7
 10
135.52245549609449
 20
12.38311365355853
 30
0.0
 42
0.0034801339441591
  0
VERTEX
  5
309
  8
1
 62
     7
 10
135.5202801083631
 20
12.3607304748014
 30
0.0
 42
0.0028420392828544
  0
VERTEX
  5
30A
  8
1
 62
     7
 10
135.51838625065841
 20
12.33830196788908
 30
0.0
 42
0.0022071095318139
  0
VERTEX
  5
30B
  8
1
 62
     7
 10
135.516717616975
 20
12.315837198452609
 30
0.0
 42
0.0015740780696432
  0
VERTEX
  5
30C
  8
1
 62
     7
 10
135.51521790130781
 20
12.293345232123061
 30
0.0
 42
0.0009437769674975
  0
VERTEX
  5
30D
  8
1
 62
     7
 10
135.5138307976512
 20
12.27083513453141
 30
0.0
 42
0.0003142229114543
  0
VERTEX
  5
30E
  8
1
 62
     7
 10
135.5124999999999
 20
12.248315971308751
 30
0.0
  0
SEQEND
  5
30F
  8
1
 62
     7
  0
POLYLINE
  5
10E
  8
1
 62
     7
 66
     1
 10
0.0
 20
0.0
 30
0.0
  0
VERTEX
  5
310
  8
1
 62
     7
 10
133.49999999999989
 20
13.53652875943806
 30
0.0
 42
-0.0002402677612237
  0
VERTEX
  5
311
  8
1
 62
     7
 10
133.52592807450671
 20
13.53539127993948
 30
0.0
 42
-0.0007209411543229
  0
VERTEX
  5
312
  8
1
 62
     7
 10
133.5518502151902
 20
13.534204127399301
 30
0.0
 42
-0.0012022825888603
  0
VERTEX
  5
313
  8
1
 62
     7
 10
133.57776048822799
 20
13.532917628775911
 30
0.0
 42
-0.0016844626492182
  0
VERTEX
  5
314
  8
1
 62
     7
 10
133.6036529597971
 20
13.531482111027721
 30
0.0
 42
-0.0021678000323827
  0
VERTEX
  5
315
  8
1
 62
     7
 10
133.62952169607419
 20
13.52984790111311
 30
0.0
 42
-0.0026521454955433
  0
VERTEX
  5
316
  8
1
 62
     7
 10
133.6553607632365
 20
13.5279653259905
 30
0.0
 42
-0.0031373872370081
  0
VERTEX
  5
317
  8
1
 62
     7
 10
133.6811642274613
 20
13.525784712618281
 30
0.0
 42
-0.0036228331343674
  0
VERTEX
  5
318
  8
1
 62
     7
 10
133.70692615492521
 20
13.52325638795487
 30
0.0
 42
-0.0041077162770134
  0
VERTEX
  5
319
  8
1
 62
     7
 10
133.73264061180561
 20
13.520330678958629
 30
0.0
 42
-0.0045905807646315
  0
VERTEX
  5
31A
  8
1
 62
     7
 10
133.75830166427949
 20
13.516957912587969
 30
0.0
 42
-0.0095065431690402
  0
VERTEX
  5
31B
  8
1
 62
     7
 10
133.80905848917851
 20
13.50882513503652
 30
0.0
 42
-0.0086987577295743
  0
VERTEX
  5
31C
  8
1
 62
     7
 10
133.85953186177591
 20
13.49884097529408
 30
0.0
 42
-0.0085581546348984
  0
VERTEX
  5
31D
  8
1
 62
     7
 10
133.9096721518155
 20
13.487111415300159
 30
0.0
 42
-0.0077826771721471
  0
VERTEX
  5
31E
  8
1
 62
     7
 10
133.9594297290412
 20
13.473742436994261
 30
0.0
 42
-0.007678878807831
  0
VERTEX
  5
31F
  8
1
 62
     7
 10
134.00875496319691
 20
13.458840022315901
 30
0.0
 42
-0.0107287698335148
  0
VERTEX
  5
320
  8
1
 62
     7
 10
134.08078460145981
 20
13.43415038169508
 30
0.0
 42
-0.011817734170125
  0
VERTEX
  5
321
  8
1
 62
     7
 10
134.15158145455621
 20
13.40625742833506
 30
0.0
 42
-0.0116894684357699
  0
VERTEX
  5
322
  8
1
 62
     7
 10
134.22096640089691
 20
13.37507847187074
 30
0.0
 42
-0.0248526178792052
  0
VERTEX
  5
323
  8
1
 62
     7
 10
134.35260582288069
 20
13.30394848963742
 30
0.0
 42
-0.0289802364351746
  0
VERTEX
  5
324
  8
1
 62
     7
 10
134.49494579848749
 20
13.205932879538
 30
0.0
 42
-0.0262056361904775
  0
VERTEX
  5
325
  8
1
 62
     7
 10
134.6050680461575
 20
13.1106307760747
 30
0.0
 42
-0.0262457329741228
  0
VERTEX
  5
326
  8
1
 62
     7
 10
134.702997232417
 20
13.00604465724169
 30
0.0
 42
-0.0189396516433596
  0
VERTEX
  5
327
  8
1
 62
     7
 10
134.76123887617189
 20
12.9313386494096
 30
0.0
 42
-0.0836960415712039
  0
VERTEX
  5
328
  8
1
 62
     7
 10
134.94381459115971
 20
12.56032450931164
 30
0.0
 42
-0.0101970556568807
  0
VERTEX
  5
329
  8
1
 62
     7
 10
134.9498767457851
 20
12.53841273341466
 30
0.0
 42
-0.0013787609860185
  0
VERTEX
  5
32A
  8
1
 62
     7
 10
134.9554254492794
 20
12.516384735524531
 30
0.0
 42
-0.0106061778913902
  0
VERTEX
  5
32B
  8
1
 62
     7
 10
134.96044045907539
 20
12.4942484408037
 30
0.0
 42
-0.0080023129238159
  0
VERTEX
  5
32C
  8
1
 62
     7
 10
134.96876610049731
 20
12.44990056458855
 30
0.0
 42
-0.0097040655631028
  0
VERTEX
  5
32D
  8
1
 62
     7
 10
134.9721239143411
 20
12.427707764083159
 30
0.0
 42
-0.0004559689843387
  0
VERTEX
  5
32E
  8
1
 62
     7
 10
134.97503128014191
 20
12.405442438529469
 30
0.0
 42
-0.0084241990275509
  0
VERTEX
  5
32F
  8
1
 62
     7
 10
134.97754450390539
 20
12.38311365355853
 30
0.0
 42
-0.0034801339441602
  0
VERTEX
  5
330
  8
1
 62
     7
 10
134.9797198916369
 20
12.3607304748014
 30
0.0
 42
-0.0028420392828532
  0
VERTEX
  5
331
  8
1
 62
     7
 10
134.98161374934151
 20
12.33830196788908
 30
0.0
 42
-0.0022071095318153
  0
VERTEX
  5
332
  8
1
 62
     7
 10
134.98328238302491
 20
12.315837198452609
 30
0.0
 42
-0.0015740780696414
  0
VERTEX
  5
333
  8
1
 62
     7
 10
134.98478209869219
 20
12.293345232123061
 30
0.0
 42
-0.0009437769674992
  0
VERTEX
  5
334
  8
1
 62
     7
 10
134.98616920234869
 20
12.27083513453141
 30
0.0
 42
-0.0003142229114525
  0
VERTEX
  5
335
  8
1
 62
     7
 10
134.98750000000001
 20
12.248315971308751
 30
0.0
  0
SEQEND
  5
336
  8
1
 62
     7
  0
POLYLINE
  5
136
  8
1
 62
     7
 66
     1
 10
0.0
 20
0.0
 30
0.0
  0
VERTEX
  5
337
  8
1
 62
     7
 10
134.98750000000001
 20
15.27940488455425
 30
0.0
 42
-0.0003144207010355
  0
VERTEX
  5
338
  8
1
 62
     7
 10
134.9861692023488
 20
15.25688572133158
 30
0.0
 42
-0.0009435791790151
  0
VERTEX
  5
339
  8
1
 62
     7
 10
134.98478209869219
 20
15.234375623739931
 30
0.0
 42
-0.0015742758578105
  0
VERTEX
  5
33A
  8
1
 62
     7
 10
134.98328238302491
 20
15.211883657410381
 30
0.0
 42
-0.0022069117431756
  0
VERTEX
  5
33B
  8
1
 62
     7
 10
134.98161374934151
 20
15.189418887973909
 30
0.0
 42
-0.0028422370721239
  0
VERTEX
  5
33C
  8
1
 62
     7
 10
134.9797198916369
 20
15.16699038106159
 30
0.0
 42
-0.0034799361540878
  0
VERTEX
  5
33D
  8
1
 62
     7
 10
134.97754450390539
 20
15.14460720230444
 30
0.0
 42
-0.0041197873273768
  0
VERTEX
  5
33E
  8
1
 62
     7
 10
134.97503128014191
 20
15.12227841733352
 30
0.0
 42
-0.0047602406436742
  0
VERTEX
  5
33F
  8
1
 62
     7
 10
134.9721239143411
 20
15.100013091779839
 30
0.0
 42
-0.0053995777121393
  0
VERTEX
  5
340
  8
1
 62
     7
 10
134.96876610049731
 20
15.077820291274429
 30
0.0
 42
-0.0060345026489332
  0
VERTEX
  5
341
  8
1
 62
     7
 10
134.96490153260561
 20
15.055709081448351
 30
0.0
 42
-0.0064450227979607
  0
VERTEX
  5
342
  8
1
 62
     7
 10
134.96044045907539
 20
15.033472415059279
 30
0.0
 42
-0.0059556446730566
  0
VERTEX
  5
343
  8
1
 62
     7
 10
134.9554254492794
 20
15.011336120338459
 30
0.0
 42
-0.0060290391199906
  0
VERTEX
  5
344
  8
1
 62
     7
 10
134.9498767457851
 20
14.989308122448319
 30
0.0
 42
-0.0055465531678904
  0
VERTEX
  5
345
  8
1
 62
     7
 10
134.94381459115971
 20
14.96739634655134
 30
0.0
 42
-0.0056281313861623
  0
VERTEX
  5
346
  8
1
 62
     7
 10
134.9372592279702
 20
14.945608717810011
 30
0.0
 42
-0.0051548794577866
  0
VERTEX
  5
347
  8
1
 62
     7
 10
134.9302308987842
 20
14.92395316138678
 30
0.0
 42
-0.0052465136074097
  0
VERTEX
  5
348
  8
1
 62
     7
 10
134.9227498461689
 20
14.90243760244412
 30
0.0
 42
-0.0047839444648569
  0
VERTEX
  5
349
  8
1
 62
     7
 10
134.91483631269131
 20
14.8810699661445
 30
0.0
 42
-0.0048867075076408
  0
VERTEX
  5
34A
  8
1
 62
     7
 10
134.90651054091899
 20
14.859858177650411
 30
0.0
 42
-0.0136258334571955
  0
VERTEX
  5
34B
  8
1
 62
     7
 10
134.87888979544039
 20
14.79649101281994
 30
0.0
 42
-0.1123019269769379
  0
VERTEX
  5
34C
  8
1
 62
     7
 10
134.53273762891581
 20
14.352288492082231
 30
0.0
 42
-0.0200378319968682
  0
VERTEX
  5
34D
  8
1
 62
     7
 10
134.41542632947539
 20
14.264013577777501
 30
0.0
 42
-0.0382972036134671
  0
VERTEX
  5
34E
  8
1
 62
     7
 10
134.24375000000001
 20
14.16377988455424
 30
0.0
 42
-0.0067381934961743
  0
VERTEX
  5
34F
  8
1
 62
     7
 10
134.174875494042
 20
14.131487218085139
 30
0.0
 42
-0.0170951004134099
  0
VERTEX
  5
350
  8
1
 62
     7
 10
134.10452937413211
 20
14.10250811817537
 30
0.0
 42
-0.0057692232525128
  0
VERTEX
  5
351
  8
1
 62
     7
 10
134.03289076185931
 20
14.076759894459819
 30
0.0
 42
-0.0163965851202086
  0
VERTEX
  5
352
  8
1
 62
     7
 10
133.9594297290412
 20
14.053978418868679
 30
0.0
 42
-0.0027192377263768
  0
VERTEX
  5
353
  8
1
 62
     7
 10
133.9096721518155
 20
14.04060944056277
 30
0.0
 42
-0.0136220772081093
  0
VERTEX
  5
354
  8
1
 62
     7
 10
133.85953186177591
 20
14.02887988056886
 30
0.0
 42
-0.0036352653246844
  0
VERTEX
  5
355
  8
1
 62
     7
 10
133.80905848917851
 20
14.01889572082642
 30
0.0
 42
-0.0145705768113349
  0
VERTEX
  5
356
  8
1
 62
     7
 10
133.75830166427949
 20
14.01076294327498
 30
0.0
 42
-0.004590260075308
  0
VERTEX
  5
357
  8
1
 62
     7
 10
133.73264061180561
 20
14.00739017690432
 30
0.0
 42
-0.0041080369649877
  0
VERTEX
  5
358
  8
1
 62
     7
 10
133.70692615492521
 20
14.00446446790807
 30
0.0
 42
-0.0036225124475919
  0
VERTEX
  5
359
  8
1
 62
     7
 10
133.6811642274613
 20
14.001936143244651
 30
0.0
 42
-0.0031377079226977
  0
VERTEX
  5
35A
  8
1
 62
     7
 10
133.6553607632365
 20
13.999755529872431
 30
0.0
 42
-0.0026518248107558
  0
VERTEX
  5
35B
  8
1
 62
     7
 10
133.62952169607419
 20
13.99787295474983
 30
0.0
 42
-0.0021681207164556
  0
VERTEX
  5
35C
  8
1
 62
     7
 10
133.6036529597971
 20
13.99623874483523
 30
0.0
 42
-0.0016841419657086
  0
VERTEX
  5
35D
  8
1
 62
     7
 10
133.57776048822799
 20
13.99480322708704
 30
0.0
 42
-0.0012026032719571
  0
VERTEX
  5
35E
  8
1
 62
     7
 10
133.5518502151902
 20
13.99351672846365
 30
0.0
 42
-0.0007206204714886
  0
VERTEX
  5
35F
  8
1
 62
     7
 10
133.52592807450671
 20
13.99232957592346
 30
0.0
 42
-0.0002405884439104
  0
VERTEX
  5
360
  8
1
 62
     7
 10
133.49999999999989
 20
13.99119209642488
 30
0.0
  0
SEQEND
  5
361
  8
1
 62
     7
  0
LINE
  5
162
  8
1
 62
     7
 10
236.5
 20
40.75
 30
0.0
 11
238.34
 21
40.75
 31
0.0
  0
LINE
  5
163
  8
1
 62
     3
 10
237.02999999999989
 20
40.75
 30
0.0
 11
237.02999999999989
 21
43.75
 31
0.0
  0
LINE
  5
164
  8
1
 62
     3
 10
237.80999999999989
 20
43.75
 30
0.0
 11
237.80999999999989
 21
40.75
 31
0.0
  0
LINE
  5
165
  8
1
 62
     3
 10
237.41999999999999
 20
40.75
 30
0.0
 11
237.41999999999999
 21
43.75
 31
0.0
  0
LINE
  5
166
  8
1
 62
     7
 10
238.34
 20
40.75
 30
0.0
 11
234.66
 21
40.749999999999993
 31
0.0
  0
LINE
  5
167
  8
1
 62
     3
 10
237.02999999999989
 20
40.75
 30
0.0
 11
237.02999999999989
 21
43.75
 31
0.0
  0
LINE
  5
168
  8
1
 62
     3
 10
237.80999999999989
 20
43.75
 30
0.0
 11
237.80999999999989
 21
40.75
 31
0.0
  0
LINE
  5
169
  8
1
 62
     3
 10
237.41999999999999
 20
40.75
 30
0.0
 11
237.41999999999999
 21
43.75
 31
0.0
  0
LINE
  5
16A
  8
1
 62
     3
 10
235.19
 20
40.75
 30
0.0
 11
235.19
 21
43.75
 31
0.0
  0
LINE
  5
16B
  8
1
 62
     3
 10
235.97
 20
43.75
 30
0.0
 11
235.97
 21
40.75
 31
0.0
  0
LINE
  5
16C
  8
1
 62
     3
 10
235.58000000000001
 20
40.75
 30
0.0
 11
235.58000000000001
 21
43.75
 31
0.0
  0
LINE
  5
16D
  8
1
 62
     7
 10
234.66
 20
40.749999999999993
 30
0.0
 11
236.5
 21
40.75
 31
0.0
  0
LINE
  5
16E
  8
1
 62
     3
 10
235.19
 20
40.75
 30
0.0
 11
235.19
 21
43.75
 31
0.0
  0
LINE
  5
16F
  8
1
 62
     3
 10
235.97
 20
43.75
 30
0.0
 11
235.97
 21
40.75
 31
0.0
  0
LINE
  5
170
  8
1
 62
     3
 10
235.58000000000001
 20
40.75
 30
0.0
 11
235.58000000000001
 21
43.75
 31
0.0
  0
LINE
  5
171
  8
1
 62
     7
 10
1.840000000000003
 20
40.75
 30
0.0
 11
-1.840000000000003
 21
40.749999999999993
 31
0.0
  0
LINE
  5
172
  8
1
 62
     3
 10
0.5300000000000013
 20
40.75
 30
0.0
 11
0.5300000000000007
 21
43.75
 31
0.0
  0
LINE
  5
173
  8
1
 62
     3
 10
1.3100000000000009
 20
43.75
 30
0.0
 11
1.3100000000000009
 21
40.75
 31
0.0
  0
LINE
  5
174
  8
1
 62
     3
 10
0.9200000000000155
 20
40.75
 30
0.0
 11
0.9200000000000155
 21
43.75
 31
0.0
  0
LINE
  5
175
  8
1
 62
     3
 10
-1.3100000000000009
 20
40.75
 30
0.0
 11
-1.3100000000000009
 21
43.75
 31
0.0
  0
LINE
  5
176
  8
1
 62
     3
 10
-0.5300000000000013
 20
43.75
 30
0.0
 11
-0.5300000000000013
 21
40.75
 31
0.0
  0
LINE
  5
177
  8
1
 62
     3
 10
-0.9199999999999876
 20
40.75
 30
0.0
 11
-0.9199999999999876
 21
43.75
 31
0.0
  0
LINE
  5
178
  8
1
 62
     7
 10
96.329999999999984
 20
40.75
 30
0.0
 11
98.170000000000002
 21
40.75
 31
0.0
  0
LINE
  5
179
  8
1
 62
     3
 10
96.859999999999985
 20
40.75
 30
0.0
 11
96.859999999999985
 21
43.75
 31
0.0
  0
LINE
  5
17A
  8
1
 62
     3
 10
97.640000000000015
 20
43.75
 30
0.0
 11
97.640000000000015
 21
40.75
 31
0.0
  0
LINE
  5
17B
  8
1
 62
     3
 10
97.250000000000014
 20
40.75
 30
0.0
 11
97.250000000000014
 21
43.75
 31
0.0
  0
LINE
  5
17C
  8
1
 62
     7
 10
2.7000000000000002
 20
25.608055373260999
 30
0.0
 11
2.7000000000000002
 21
22.840971958303349
 31
0.0
  0
LINE
  5
17D
  8
1
 62
     7
 10
-2.7000000000000002
 20
25.608055373260999
 30
0.0
 11
-2.7000000000000002
 21
22.840971958303349
 31
0.0
  0
LINE
  5
17E
  8
1
 62
     7
 10
-2.5
 20
23.5
 30
0.0
 11
-2.5
 21
22.853031974076149
 31
0.0
  0
LINE
  5
17F
  8
1
 62
     7
 10
2.5
 20
23.5
 30
0.0
 11
2.5
 21
22.855703691877121
 31
0.0
  0
LINE
  5
180
  8
1
 62
     7
 10
-2.5
 20
23.5
 30
0.0
 11
2.5
 21
23.5
 31
0.0
  0
LINE
  5
181
  8
1
 62
     7
 10
96.329999999999984
 20
25.75
 30
0.0
 11
96.329999999999984
 21
40.75
 31
0.0
  0
LINE
  5
182
  8
1
 62
     7
 10
98.170000000000002
 20
25.75
 30
0.0
 11
98.170000000000002
 21
40.75
 31
0.0
  0
LINE
  5
183
  8
1
 62
     7
 10
233.89999999999989
 20
-5.6799497484264796
 30
0.0
 11
233.89999999999989
 21
-4.8722775949271551
 31
0.0
  0
LINE
  5
184
  8
1
 62
     7
 10
234.90000000000001
 20
-6.6799497484264796
 30
0.0
 11
236.09999999999999
 21
-6.6799497484264796
 31
0.0
  0
LINE
  5
185
  8
1
 62
     7
 10
236.09999999999999
 20
-5.7799497484264819
 30
0.0
 11
236.09999999999999
 21
-6.6799497484264796
 31
0.0
  0
LINE
  5
186
  8
1
 62
     7
 10
235.25
 20
-5.7799497484264819
 30
0.0
 11
236.09999999999999
 21
-5.7799497484264819
 31
0.0
  0
LINE
  5
187
  8
1
 62
     7
 10
236.09999999999999
 20
-4.6799497484264796
 30
0.0
 11
235.25
 21
-4.6799497484264796
 31
0.0
  0
LINE
  5
188
  8
1
 62
     7
 10
236.09999999999999
 20
-3.9799497484264852
 30
0.0
 11
236.09999999999999
 21
-4.6799497484264796
 31
0.0
  0
LINE
  5
189
  8
1
 62
     7
 10
236.90000000000001
 20
-4.6799497484264796
 30
0.0
 11
236.90000000000001
 21
-3.9799497484264852
 31
0.0
  0
LINE
  5
18A
  8
1
 62
     7
 10
237.74999999999989
 20
-4.6799497484264796
 30
0.0
 11
236.90000000000001
 21
-4.6799497484264796
 31
0.0
  0
LINE
  5
18B
  8
1
 62
     7
 10
236.90000000000001
 20
-5.7799497484264819
 30
0.0
 11
237.74999999999989
 21
-5.7799497484264819
 31
0.0
  0
LINE
  5
18C
  8
1
 62
     7
 10
236.90000000000001
 20
-6.6799497484264796
 30
0.0
 11
236.90000000000001
 21
-5.7799497484264819
 31
0.0
  0
LINE
  5
18D
  8
1
 62
     7
 10
236.90000000000001
 20
-6.6799497484264796
 30
0.0
 11
238.09999999999991
 21
-6.6799497484264796
 31
0.0
  0
LINE
  5
18E
  8
1
 62
     7
 10
239.09999999999999
 20
-4.8722775949271551
 30
0.0
 11
239.09999999999999
 21
-5.6799497484264796
 31
0.0
  0
LINE
  5
18F
  8
1
 62
     7
 10
238.34
 20
40.75
 30
0.0
 11
238.34
 21
25.684176062315121
 31
0.0
  0
LINE
  5
190
  8
1
 62
     7
 10
234.66
 20
40.749999999999993
 30
0.0
 11
234.66
 21
25.68417606231511
 31
0.0
  0
LINE
  5
191
  8
1
 62
     7
 10
236.5
 20
40.75
 30
0.0
 11
236.5
 21
25.750000000000011
 31
0.0
  0
LINE
  5
192
  8
1
 62
     7
 10
212.56503823141529
 20
10.64343013959278
 30
0.0
 11
212.18474903345509
 21
10.86299021040503
 31
0.0
  0
LINE
  5
193
  8
1
 62
     7
 10
215.4248458525507
 20
14.99676223927189
 30
0.0
 11
212.97484585255069
 21
10.75323776072814
 31
0.0
  0
LINE
  5
194
  8
1
 62
     7
 10
214.93474903345501
 20
15.62612993121947
 30
0.0
 11
215.3150382314154
 21
15.40656986040722
 31
0.0
  0
LINE
  5
195
  8
1
 62
     7
 10
257.68496176858469
 20
15.40656986040721
 30
0.0
 11
258.06525096654491
 21
15.626129931219459
 31
0.0
  0
LINE
  5
196
  8
1
 62
     7
 10
260.02515414744931
 20
10.753237760728121
 30
0.0
 11
257.57515414744933
 21
14.99676223927187
 31
0.0
  0
LINE
  5
197
  8
1
 62
     7
 10
260.8152509665448
 20
10.86299021040503
 30
0.0
 11
260.43496176858463
 21
10.64343013959278
 31
0.0
  0
LINE
  5
198
  8
1
 62
     7
 10
239.25
 20
-26.050000000000001
 30
0.0
 11
239.25
 21
-26.4891201416245
 31
0.0
  0
LINE
  5
199
  8
1
 62
     7
 10
234.05000000000001
 20
-25.750000000000011
 30
0.0
 11
238.94999999999999
 21
-25.750000000000011
 31
0.0
  0
LINE
  5
19A
  8
1
 62
     7
 10
233.74999999999989
 20
-26.4891201416245
 30
0.0
 11
233.74999999999989
 21
-26.050000000000001
 31
0.0
  0
LINE
  5
19B
  8
1
  6
DASHDOT
 62
     3
 10
256.41858428704211
 20
-11.500000000000011
 30
0.0
 11
251.2224318643355
 21
-8.5000000000000213
 31
0.0
  0
LINE
  5
19C
  8
1
  6
DASHDOT
 62
     3
 10
216.58141571295789
 20
-11.499999999999989
 30
0.0
 11
221.77756813566441
 21
-8.4999999999999911
 31
0.0
  0
LINE
  5
19D
  8
1
 62
     7
 10
145.75
 20
4.0
 30
0.0
 11
145.75
 21
-13.0
 31
0.0
  0
LINE
  5
19E
  8
1
 62
     7
 10
138.0
 20
-26.050000000000001
 30
0.0
 11
138.0
 21
-26.4891201416245
 31
0.0
  0
LINE
  5
19F
  8
1
 62
     7
 10
132.80000000000001
 20
-25.750000000000011
 30
0.0
 11
137.69999999999999
 21
-25.750000000000011
 31
0.0
  0
LINE
  5
1A0
  8
1
 62
     7
 10
132.49999999999989
 20
-26.4891201416245
 30
0.0
 11
132.49999999999989
 21
-26.050000000000001
 31
0.0
  0
LINE
  5
1A1
  8
1
 62
     7
 10
145.75
 20
5.1999999999999948
 30
0.0
 11
146.55000000000001
 21
5.1999999999999948
 31
0.0
  0
LINE
  5
1A2
  8
1
 62
     7
 10
145.75
 20
-6.6799497484264796
 30
0.0
 11
146.55000000000001
 21
-6.6799497484264796
 31
0.0
  0
LINE
  5
1A3
  8
1
  6
DASHDOT
 62
     3
 10
67.750000000000028
 20
0.0
 30
0.0
 11
70.750000000000014
 21
0.0
 31
0.0
  0
LINE
  5
1A4
  8
1
 62
     7
 10
146.65000000000001
 20
4.0
 30
0.0
 11
165.74999999999989
 21
4.0
 31
0.0
  0
LINE
  5
1A5
  8
1
 62
     7
 10
146.55000000000001
 20
5.1999999999999948
 30
0.0
 11
146.55000000000001
 21
-6.6799497484264796
 31
0.0
  0
LINE
  5
1A6
  8
1
 62
     7
 10
146.65000000000001
 20
-3.9999999999999929
 30
0.0
 11
165.74999999999989
 21
-3.9999999999999929
 31
0.0
  0
LINE
  5
1A7
  8
1
 62
     7
 10
165.74999999999989
 20
-3.9999999999999929
 30
0.0
 11
165.74999999999989
 21
4.0
 31
0.0
  0
LINE
  5
1A8
  8
1
 62
     7
 10
145.75
 20
13.0
 30
0.0
 11
145.75
 21
4.0
 31
0.0
  0
LINE
  5
1A9
  8
1
 62
     7
 10
142.75
 20
-13.0
 30
0.0
 11
145.75
 21
-13.0
 31
0.0
  0
LINE
  5
1AA
  8
1
 62
     7
 10
142.75
 20
-25.750000000000011
 30
0.0
 11
142.75
 21
25.75
 31
0.0
  0
LINE
  5
1AB
  8
1
 62
     7
 10
142.75
 20
25.75
 30
0.0
 11
139.74999999999989
 21
25.75
 31
0.0
  0
LINE
  5
1AC
  8
1
 62
     7
 10
145.75
 20
13.0
 30
0.0
 11
142.75
 21
13.0
 31
0.0
  0
LINE
  5
1AD
  8
1
 62
     7
 10
139.74999999999989
 20
-25.750000000000011
 30
0.0
 11
142.75
 21
-25.750000000000011
 31
0.0
  0
LINE
  5
1AE
  8
1
 62
     7
 10
70.750000000000014
 20
4.0
 30
0.0
 11
70.750000000000014
 21
-4.0
 31
0.0
  0
LINE
  5
1AF
  8
1
 62
     7
 10
70.750000000000014
 20
-4.0
 30
0.0
 11
89.850000000000037
 21
-4.0
 31
0.0
  0
LINE
  5
1B0
  8
1
 62
     7
 10
89.850000000000037
 20
4.0
 30
0.0
 11
89.850000000000037
 21
-4.0
 31
0.0
  0
LINE
  5
1B1
  8
1
 62
     7
 10
89.850000000000037
 20
4.0
 30
0.0
 11
70.750000000000014
 21
4.0
 31
0.0
  0
LINE
  5
1B2
  8
1
 62
     7
 10
89.850000000000037
 20
3.7999999999999972
 30
0.0
 11
89.950000000000017
 21
3.7999999999999972
 31
0.0
  0
LINE
  5
1B3
  8
1
 62
     7
 10
90.750000000000043
 20
-25.750000000000011
 30
0.0
 11
139.74999999999989
 21
-25.750000000000011
 31
0.0
  0
LINE
  5
1B4
  8
1
 62
     7
 10
139.74999999999989
 20
-25.750000000000011
 30
0.0
 11
139.74999999999989
 21
25.75
 31
0.0
  0
LINE
  5
1B5
  8
1
 62
     7
 10
139.74999999999989
 20
25.75
 30
0.0
 11
90.750000000000043
 21
25.75
 31
0.0
  0
LINE
  5
1B6
  8
1
 62
     7
 10
89.950000000000017
 20
6.3999999999999977
 30
0.0
 11
90.750000000000043
 21
6.3999999999999977
 31
0.0
  0
LINE
  5
1B7
  8
1
 62
     7
 10
89.950000000000017
 20
-6.7000000000000011
 30
0.0
 11
90.750000000000043
 21
-6.7000000000000011
 31
0.0
  0
LINE
  5
1B8
  8
1
 62
     7
 10
90.750000000000043
 20
-25.750000000000011
 30
0.0
 11
90.750000000000043
 21
25.75
 31
0.0
  0
LINE
  5
1B9
  8
1
  6
DASHDOT
 62
     3
 10
236.5
 20
1.5
 30
0.0
 11
236.5
 21
-1.5
 31
0.0
  0
LINE
  5
1BA
  8
1
  6
DASHDOT
 62
     3
 10
235.0
 20
0.0
 30
0.0
 11
238.0
 21
0.0
 31
0.0
  0
LINE
  5
1BB
  8
1
  6
DASHDOT
 62
     3
 10
236.5
 20
23.0
 30
0.0
 11
236.5
 21
17.0
 31
0.0
  0
LINE
  5
1BC
  8
1
 62
     7
 10
238.0
 20
-25.706273553356599
 30
0.0
 11
238.0
 21
-25.750000000000011
 31
0.0
  0
LINE
  5
1BD
  8
1
 62
     7
 10
235.0
 20
-25.706273553356599
 30
0.0
 11
235.0
 21
-25.750000000000011
 31
0.0
  0
LINE
  5
1BE
  8
1
 62
     7
 10
258.01228593383888
 20
14.15217488235494
 30
0.0
 11
258.05015414744929
 21
14.174038105676649
 31
0.0
  0
LINE
  5
1BF
  8
1
 62
     7
 10
213.48771406616109
 20
11.554098671001659
 30
0.0
 11
213.44984585255071
 21
11.575961894323351
 31
0.0
  0
LINE
  5
1C0
  8
1
 62
     7
 10
259.51228593383888
 20
11.55409867100162
 30
0.0
 11
259.55015414744918
 21
11.57596189432333
 31
0.0
  0
LINE
  5
1C1
  8
1
 62
     7
 10
214.987714066161
 20
14.15217488235497
 30
0.0
 11
214.94984585255071
 21
14.174038105676679
 31
0.0
  0
LINE
  5
1C2
  8
1
 62
     7
 10
146.65000000000001
 20
4.0
 30
0.0
 11
146.65000000000001
 21
-3.9999999999999929
 31
0.0
  0
LINE
  5
1C3
  8
1
 62
     7
 10
146.65000000000001
 20
-3.8000000000000038
 30
0.0
 11
146.55000000000001
 21
-3.8000000000000038
 31
0.0
  0
LINE
  5
1C4
  8
1
 62
     7
 10
146.55000000000001
 20
3.8000000000000038
 30
0.0
 11
146.65000000000001
 21
3.8000000000000038
 31
0.0
  0
LINE
  5
1C5
  8
1
 62
     7
 10
89.950000000000017
 20
6.3999999999999977
 30
0.0
 11
89.950000000000017
 21
-6.7000000000000011
 31
0.0
  0
LINE
  5
1C6
  8
1
 62
     7
 10
89.950000000000017
 20
-3.7999999999999972
 30
0.0
 11
89.850000000000037
 21
-3.7999999999999972
 31
0.0
  0
LINE
  5
1C7
  8
1
 62
     7
 10
-2.599999999999993
 20
-5.6799497484264796
 30
0.0
 11
-2.599999999999993
 21
-4.8722775949271551
 31
0.0
  0
LINE
  5
1C8
  8
1
 62
     7
 10
-1.5999999999999941
 20
-6.6799497484264796
 30
0.0
 11
-0.4000000000000057
 21
-6.6799497484264796
 31
0.0
  0
LINE
  5
1C9
  8
1
 62
     7
 10
-0.4000000000000057
 20
-5.7799497484264819
 30
0.0
 11
-0.4000000000000057
 21
-6.6799497484264796
 31
0.0
  0
LINE
  5
1CA
  8
1
 62
     7
 10
-1.25
 20
-5.7799497484264819
 30
0.0
 11
-0.4000000000000057
 21
-5.7799497484264819
 31
0.0
  0
LINE
  5
1CB
  8
1
 62
     7
 10
-0.4000000000000057
 20
-4.6799497484264796
 30
0.0
 11
-1.25
 21
-4.6799497484264796
 31
0.0
  0
LINE
  5
1CC
  8
1
 62
     7
 10
-0.4000000000000057
 20
-3.9799497484264852
 30
0.0
 11
-0.4000000000000057
 21
-4.6799497484264796
 31
0.0
  0
LINE
  5
1CD
  8
1
 62
     7
 10
0.4000000000000057
 20
-4.6799497484264796
 30
0.0
 11
0.4000000000000057
 21
-3.9799497484264852
 31
0.0
  0
LINE
  5
1CE
  8
1
 62
     7
 10
1.25
 20
-4.6799497484264796
 30
0.0
 11
0.4000000000000057
 21
-4.6799497484264796
 31
0.0
  0
LINE
  5
1CF
  8
1
 62
     7
 10
0.4000000000000057
 20
-5.7799497484264819
 30
0.0
 11
1.25
 21
-5.7799497484264819
 31
0.0
  0
LINE
  5
1D0
  8
1
 62
     7
 10
0.4000000000000057
 20
-6.6799497484264796
 30
0.0
 11
0.4000000000000057
 21
-5.7799497484264819
 31
0.0
  0
LINE
  5
1D1
  8
1
 62
     7
 10
0.4000000000000057
 20
-6.6799497484264796
 30
0.0
 11
1.5999999999999941
 21
-6.6799497484264796
 31
0.0
  0
LINE
  5
1D2
  8
1
 62
     7
 10
2.599999999999993
 20
-4.8722775949271551
 30
0.0
 11
2.599999999999993
 21
-5.6799497484264796
 31
0.0
  0
LINE
  5
1D3
  8
1
 62
     7
 10
1.840000000000003
 20
40.75
 30
0.0
 11
1.840000000000003
 21
23.5
 31
0.0
  0
LINE
  5
1D4
  8
1
 62
     7
 10
-1.840000000000003
 20
40.749999999999993
 30
0.0
 11
-1.840000000000003
 21
23.5
 31
0.0
  0
LINE
  5
1D5
  8
1
 62
     7
 10
0.0
 20
40.75
 30
0.0
 11
0.0
 21
23.5
 31
0.0
  0
LINE
  5
1D6
  8
1
 62
     7
 10
-23.934961768584621
 20
10.64343013959278
 30
0.0
 11
-24.31525096654488
 21
10.86299021040503
 31
0.0
  0
LINE
  5
1D7
  8
1
 62
     7
 10
-21.0751541474493
 20
14.99676223927189
 30
0.0
 11
-23.5251541474493
 21
10.75323776072814
 31
0.0
  0
LINE
  5
1D8
  8
1
 62
     7
 10
-21.56525096654488
 20
15.62612993121947
 30
0.0
 11
-21.184961768584621
 21
15.40656986040722
 31
0.0
  0
LINE
  5
1D9
  8
1
 62
     7
 10
21.184961768584621
 20
15.40656986040721
 30
0.0
 11
21.56525096654488
 21
15.626129931219459
 31
0.0
  0
LINE
  5
1DA
  8
1
 62
     7
 10
23.5251541474493
 20
10.753237760728121
 30
0.0
 11
21.0751541474493
 21
14.99676223927187
 31
0.0
  0
LINE
  5
1DB
  8
1
 62
     7
 10
24.31525096654482
 20
10.86299021040503
 30
0.0
 11
23.9349617685846
 21
10.64343013959278
 31
0.0
  0
LINE
  5
1DC
  8
1
 62
     7
 10
2.75
 20
-26.050000000000001
 30
0.0
 11
2.75
 21
-26.4891201416245
 31
0.0
  0
LINE
  5
1DD
  8
1
 62
     7
 10
-2.4500000000000171
 20
-25.750000000000011
 30
0.0
 11
2.4500000000000171
 21
-25.750000000000011
 31
0.0
  0
LINE
  5
1DE
  8
1
 62
     7
 10
-2.75
 20
-26.4891201416245
 30
0.0
 11
-2.75
 21
-26.050000000000001
 31
0.0
  0
LINE
  5
1DF
  8
1
  6
DASHDOT
 62
     3
 10
0.0
 20
1.5
 30
0.0
 11
0.0
 21
-1.5
 31
0.0
  0
LINE
  5
1E0
  8
1
  6
DASHDOT
 62
     3
 10
-1.5
 20
0.0
 30
0.0
 11
1.5
 21
0.0
 31
0.0
  0
LINE
  5
1E1
  8
1
 62
     7
 10
1.5
 20
-25.706273553356599
 30
0.0
 11
1.5
 21
-25.750000000000011
 31
0.0
  0
LINE
  5
1E2
  8
1
 62
     7
 10
-1.5
 20
-25.706273553356599
 30
0.0
 11
-1.5
 21
-25.750000000000011
 31
0.0
  0
LINE
  5
1E3
  8
1
 62
     7
 10
21.512285933838911
 20
14.15217488235494
 30
0.0
 11
21.550154147449319
 21
14.174038105676649
 31
0.0
  0
LINE
  5
1E4
  8
1
 62
     7
 10
-23.012285933838871
 20
11.554098671001659
 30
0.0
 11
-23.05015414744928
 21
11.575961894323351
 31
0.0
  0
LINE
  5
1E5
  8
1
 62
     7
 10
23.0122859338389
 20
11.55409867100162
 30
0.0
 11
23.050154147449319
 21
11.57596189432333
 31
0.0
  0
LINE
  5
1E6
  8
1
 62
     7
 10
-21.512285933838871
 20
14.15217488235497
 30
0.0
 11
-21.55015414744928
 21
14.174038105676679
 31
0.0
  0
LINE
  5
1E7
  8
1
 62
     7
 10
132.49999999999989
 20
13.244560070812289
 30
0.0
 11
132.49999999999989
 21
13.025000000000009
 31
0.0
  0
LINE
  5
1E8
  8
1
 62
     7
 10
138.0
 20
13.2445600708123
 30
0.0
 11
138.0
 21
13.025000000000009
 31
0.0
  0
LINE
  5
1E9
  8
1
 62
     7
 10
137.0
 20
13.99119209642488
 30
0.0
 11
137.0
 21
13.53652875943806
 31
0.0
  0
LINE
  5
1EA
  8
1
 62
     7
 10
133.49999999999989
 20
13.99119209642488
 30
0.0
 11
133.49999999999989
 21
13.53652875943806
 31
0.0
  0
LINE
  5
1EB
  8
1
 62
     7
 10
134.98750000000001
 20
12.248315971308751
 30
0.0
 11
135.5124999999999
 21
12.248315971308751
 31
0.0
  0
LINE
  5
1EC
  8
1
 62
     7
 10
134.98750000000001
 20
15.27940488455425
 30
0.0
 11
135.5124999999999
 21
15.27940488455425
 31
0.0
  0
LINE
  5
1ED
  8
1
  6
DASHDOT
 62
     3
 10
165.74999999999989
 20
0.0
 30
0.0
 11
168.75
 21
0.0
 31
0.0
  0
ARC
  5
1EE
  8
1
 62
     7
 10
0.0
 20
0.0
 30
0.0
 40
25.750000000000011
 50
94.09763717177529
 51
85.902362828224696
  0
ARC
  5
1EF
  8
1
 62
     7
 10
235.25
 20
-5.2299497484264839
 30
0.0
 40
0.5500000000000052
 50
90.0
 51
270.0
  0
ARC
  5
1F0
  8
1
 62
     7
 10
237.74999999999989
 20
-5.2299497484264839
 30
0.0
 40
0.5499999999999972
 50
270.0
 51
90.0
  0
ARC
  5
1F1
  8
1
 62
     7
 10
236.5
 20
0.1999999999999957
 30
0.0
 40
5.0000000000000044
 50
309.35669892726139
 51
230.64330107274
  0
ARC
  5
1F2
  8
1
 62
     7
 10
218.52997287147289
 20
10.375
 30
0.0
 40
7.0000000000000231
 50
133.0422366999951
 51
166.9577633000041
  0
ARC
  5
1F3
  8
1
 62
     7
 10
254.47002712852711
 20
10.375
 30
0.0
 40
6.9999999999997762
 50
13.04223669999635
 51
46.957763300004899
  0
ARC
  5
1F4
  8
1
 62
     7
 10
236.5
 20
-20.750000000000011
 30
0.0
 40
6.9999999999999947
 50
253.04223669999541
 51
286.95776330000439
  0
ARC
  5
1F5
  8
1
 62
     7
 10
135.25
 20
-20.750000000000011
 30
0.0
 40
6.9999999999999947
 50
253.04223669999541
 51
286.95776330000439
  0
ARC
  5
1F6
  8
1
  6
DASHDOT
 62
     3
 10
236.5
 20
0.0
 30
0.0
 40
20.0
 50
81.397555390659164
 51
98.602444609340509
  0
ARC
  5
1F7
  8
1
  6
DASHDOT
 62
     3
 10
236.5
 20
0.0
 30
0.0
 40
20.000000000000039
 50
321.39755539065931
 51
338.60244460934058
  0
ARC
  5
1F8
  8
1
  6
DASHDOT
 62
     3
 10
236.5
 20
0.0
 30
0.0
 40
19.999999999999979
 50
201.39755539065919
 51
218.60244460934081
  0
ARC
  5
1F9
  8
1
 62
     7
 10
-1.25
 20
-5.2299497484264839
 30
0.0
 40
0.5500000000000052
 50
90.0
 51
270.0
  0
ARC
  5
1FA
  8
1
 62
     7
 10
1.25
 20
-5.2299497484264839
 30
0.0
 40
0.5499999999999972
 50
270.0
 51
90.0
  0
ARC
  5
1FB
  8
1
 62
     7
 10
0.0
 20
0.1999999999999957
 30
0.0
 40
4.9999999999999876
 50
309.35669892726099
 51
230.64330107273889
  0
ARC
  5
1FC
  8
1
 62
     7
 10
-17.970027128527111
 20
10.375
 30
0.0
 40
7.0000000000000133
 50
133.04223669999581
 51
166.95776330000419
  0
ARC
  5
1FD
  8
1
 62
     7
 10
17.970027128527111
 20
10.375
 30
0.0
 40
6.9999999999999591
 50
13.04223669999584
 51
46.957763300004252
  0
ARC
  5
1FE
  8
1
 62
     7
 10
0.0
 20
-20.750000000000011
 30
0.0
 40
6.9999999999999956
 50
253.0422366999959
 51
286.95776330000388
  0
ARC
  5
1FF
  8
1
 62
     7
 10
232.34
 20
-4.8722775949271551
 30
0.0
 40
1.5599999999999159
 50
0.0
 51
50.64330107273738
  0
ARC
  5
200
  8
1
 62
     7
 10
234.90000000000001
 20
-5.6799497484264796
 30
0.0
 40
1.0
 50
180.0
 51
270.0
  0
ARC
  5
201
  8
1
 62
     7
 10
238.09999999999991
 20
-5.6799497484264796
 30
0.0
 40
1.0
 50
270.0
 51
0.0
  0
ARC
  5
202
  8
1
 62
     7
 10
240.66
 20
-4.8722775949271551
 30
0.0
 40
1.5599999999999901
 50
129.3566989272606
 51
180.0
  0
ARC
  5
203
  8
1
 62
     7
 10
212.71503823141529
 20
10.903237760728111
 30
0.0
 40
0.3000000000000017
 50
239.99999999999889
 51
329.99999999999858
  0
ARC
  5
204
  8
1
 62
     7
 10
215.16503823141539
 20
15.14676223927189
 30
0.0
 40
0.2999999999999805
 50
329.99999999999778
 51
59.999999999998941
  0
ARC
  5
205
  8
1
 62
     7
 10
212.68474903345501
 20
11.7290156141895
 30
0.0
 40
0.999999999999926
 50
166.95776330000359
 51
240.0000000000006
  0
ARC
  5
206
  8
1
 62
     7
 10
214.43474903345501
 20
14.76010452743502
 30
0.0
 40
1.0000000000000011
 50
60.000000000000021
 51
133.04223669998899
  0
ARC
  5
207
  8
1
 62
     7
 10
257.83496176858461
 20
15.146762239271879
 30
0.0
 40
0.3000000000000158
 50
120.0000000000057
 51
209.99999999999551
  0
ARC
  5
208
  8
1
 62
     7
 10
260.28496176858448
 20
10.903237760728111
 30
0.0
 40
0.299999999999955
 50
210.00000000000449
 51
300.00000000001512
  0
ARC
  5
209
  8
1
 62
     7
 10
258.5652509665448
 20
14.760104527435001
 30
0.0
 40
1.0000000000000191
 50
46.957763300003521
 51
119.9999999999938
  0
ARC
  5
20A
  8
1
 62
     7
 10
260.3152509665448
 20
11.729015614189469
 30
0.0
 40
1.0000000000000011
 50
299.99999999999989
 51
13.042236699997339
  0
ARC
  5
20B
  8
1
 62
     7
 10
238.94999999999999
 20
-26.050000000000001
 30
0.0
 40
0.2999999999998977
 50
0.0
 51
90.0
  0
ARC
  5
20C
  8
1
 62
     7
 10
234.05000000000001
 20
-26.050000000000001
 30
0.0
 40
0.2999999999999901
 50
90.0
 51
180.0
  0
ARC
  5
20D
  8
1
 62
     7
 10
238.24999999999989
 20
-26.4891201416245
 30
0.0
 40
1.0000000000000191
 50
286.9577633000066
 51
0.0
  0
ARC
  5
20E
  8
1
 62
     7
 10
234.75
 20
-26.4891201416245
 30
0.0
 40
1.0
 50
180.0
 51
253.042236699993
  0
ARC
  5
20F
  8
1
 62
     7
 10
137.69999999999999
 20
-26.050000000000001
 30
0.0
 40
0.3000000000000114
 50
0.0
 51
90.0
  0
ARC
  5
210
  8
1
 62
     7
 10
132.80000000000001
 20
-26.050000000000001
 30
0.0
 40
0.2999999999999901
 50
90.0
 51
180.0
  0
ARC
  5
211
  8
1
 62
     7
 10
137.0
 20
-26.4891201416245
 30
0.0
 40
1.0000000000000191
 50
286.9577633000066
 51
0.0
  0
ARC
  5
212
  8
1
 62
     7
 10
133.49999999999989
 20
-26.4891201416245
 30
0.0
 40
1.0
 50
180.0
 51
253.042236699993
  0
ARC
  5
213
  8
1
 62
     7
 10
-4.1599999999999957
 20
-4.8722775949271551
 30
0.0
 40
1.5600000000000029
 50
0.0
 51
50.643301072738602
  0
ARC
  5
214
  8
1
 62
     7
 10
-1.5999999999999941
 20
-5.6799497484264796
 30
0.0
 40
0.9999999999999998
 50
180.0
 51
270.0
  0
ARC
  5
215
  8
1
 62
     7
 10
1.5999999999999941
 20
-5.6799497484264796
 30
0.0
 40
1.0
 50
270.0
 51
0.0
  0
ARC
  5
216
  8
1
 62
     7
 10
4.1599999999999957
 20
-4.8722775949271551
 30
0.0
 40
1.560000000000006
 50
129.3566989272615
 51
180.0
  0
ARC
  5
217
  8
1
 62
     7
 10
-23.784961768584619
 20
10.903237760728111
 30
0.0
 40
0.3000000000000034
 50
239.99999999999829
 51
330.00000000000131
  0
ARC
  5
218
  8
1
 62
     7
 10
-21.33496176858462
 20
15.14676223927189
 30
0.0
 40
0.2999999999999989
 50
329.99999999999977
 51
59.999999999999517
  0
ARC
  5
219
  8
1
 62
     7
 10
-23.81525096654488
 20
11.7290156141895
 30
0.0
 40
1.0000000000000051
 50
166.95776330000481
 51
240.0000000000006
  0
ARC
  5
21A
  8
1
 62
     7
 10
-22.06525096654488
 20
14.76010452743502
 30
0.0
 40
1.0000000000000011
 50
60.000000000000021
 51
133.04223669999541
  0
ARC
  5
21B
  8
1
 62
     7
 10
21.33496176858462
 20
15.146762239271879
 30
0.0
 40
0.2999999999999998
 50
120.0000000000005
 51
210.00000000000159
  0
ARC
  5
21C
  8
1
 62
     7
 10
23.784961768584619
 20
10.903237760728111
 30
0.0
 40
0.2999999999999796
 50
210.0000000000019
 51
299.99999999999682
  0
ARC
  5
21D
  8
1
 62
     7
 10
22.06525096654482
 20
14.760104527435001
 30
0.0
 40
1.0000000000000351
 50
46.9577633000033
 51
119.9999999999964
  0
ARC
  5
21E
  8
1
 62
     7
 10
23.81525096654482
 20
11.729015614189469
 30
0.0
 40
1.0000000000000011
 50
299.99999999999989
 51
13.042236699995151
  0
ARC
  5
21F
  8
1
 62
     7
 10
2.4500000000000171
 20
-26.050000000000001
 30
0.0
 40
0.299999999999983
 50
0.0
 51
90.0
  0
ARC
  5
220
  8
1
 62
     7
 10
-2.4500000000000171
 20
-26.050000000000001
 30
0.0
 40
0.2999999999999901
 50
90.0
 51
180.0
  0
ARC
  5
221
  8
1
 62
     7
 10
1.75
 20
-26.4891201416245
 30
0.0
 40
0.9999999999999985
 50
286.95776330000263
 51
0.0
  0
ARC
  5
222
  8
1
 62
     7
 10
-1.75
 20
-26.4891201416245
 30
0.0
 40
1.0
 50
180.0
 51
253.04223669999629
  0
CIRCLE
  5
223
  8
1
 62
     3
 10
253.82050807568879
 20
-10.000000000000011
 30
0.0
 40
2.0
  0
CIRCLE
  5
224
  8
1
 62
     3
 10
219.17949192431109
 20
-9.9999999999999911
 30
0.0
 40
2.0
  0
CIRCLE
  5
225
  8
1
 62
     3
 10
236.5
 20
20.0
 30
0.0
 40
2.0
  0
CIRCLE
  5
226
  8
1
 62
     7
 10
236.5
 20
0.0
 30
0.0
 40
4.0
  0
CIRCLE
  5
227
  8
1
 62
     7
 10
236.5
 20
0.0
 30
0.0
 40
11.0
  0
CIRCLE
  5
228
  8
1
 62
     7
 10
236.5
 20
0.0
 30
0.0
 40
13.0
  0
CIRCLE
  5
229
  8
1
 62
     7
 10
236.5
 20
0.0
 30
0.0
 40
25.75
  0
CIRCLE
  5
22A
  8
1
 62
     7
 10
236.5
 20
20.0
 30
0.0
 40
1.621000000000008
  0
CIRCLE
  5
22B
  8
1
 62
     7
 10
219.17949192431109
 20
-9.9999999999999911
 30
0.0
 40
1.62099999999998
  0
CIRCLE
  5
22C
  8
1
 62
     7
 10
253.82050807568879
 20
-10.000000000000011
 30
0.0
 40
1.621000000000008
  0
CIRCLE
  5
22D
  8
1
 62
     7
 10
0.0
 20
0.0
 30
0.0
 40
4.0
  0
CIRCLE
  5
22E
  8
1
 62
     7
 10
0.0
 20
0.0
 30
0.0
 40
11.0
  0
CIRCLE
  5
22F
  8
1
 62
     7
 10
0.0
 20
0.0
 30
0.0
 40
23.0
  0
TEXT
  5
230
  8
1
 62
     7
 10
-21.597729566094809
 20
70.040186680121096
 30
0.0
 40
4.0
  1
AMP 10
 41
0.9
  7
SIMPLEX
  0
ENDSEC
  0
EOF
