  0
SECTION
  2
HEADER
  9
$ACADVER
  1
AC1009
  9
$INSBASE
 10
0.0
 20
0.0
 30
0.0
  9
$EXTMIN
 10
-28.25
 20
-30.250000000000021
 30
0.0
  9
$EXTMAX
 10
293.75
 20
67.985846398070294
 30
0.0
  9
$LIMMIN
 10
-28.25
 20
-30.250000000000011
  9
$LIMMAX
 10
293.75
 20
67.985846398070294
  9
$ORTHOMODE
 70
     0
  9
$REGENMODE
 70
     1
  9
$FILLMODE
 70
     1
  9
$QTEXTMODE
 70
     0
  9
$MIRRTEXT
 70
     1
  9
$DRAGMODE
 70
     2
  9
$LTSCALE
 40
1.0
  9
$OSMODE
 70
    37
  9
$ATTMODE
 70
     1
  9
$TEXTSIZE
 40
3.5
  9
$TRACEWID
 40
0.5
  9
$TEXTSTYLE
  7
STANDARD
  9
$CLAYER
  8
0
  9
$CELTYPE
  6
BYLAYER
  9
$CECOLOR
 62
   256
  9
$DIMSCALE
 40
1.0
  9
$DIMASZ
 40
0.18
  9
$DIMEXO
 40
0.0625
  9
$DIMDLI
 40
0.38
  9
$DIMRND
 40
0.0
  9
$DIMDLE
 40
0.0
  9
$DIMEXE
 40
0.18
  9
$DIMTP
 40
0.0
  9
$DIMTM
 40
0.0
  9
$DIMTXT
 40
0.18
  9
$DIMCEN
 40
0.09
  9
$DIMTSZ
 40
0.0
  9
$DIMTOL
 70
     0
  9
$DIMLIM
 70
     0
  9
$DIMTIH
 70
     1
  9
$DIMTOH
 70
     1
  9
$DIMSE1
 70
     0
  9
$DIMSE2
 70
     0
  9
$DIMTAD
 70
     0
  9
$DIMZIN
 70
     0
  9
$DIMBLK
  1

  9
$DIMASO
 70
     1
  9
$DIMSHO
 70
     1
  9
$DIMPOST
  1

  9
$DIMAPOST
  1

  9
$DIMALT
 70
     0
  9
$DIMALTD
 70
     2
  9
$DIMALTF
 40
25.399999999999999
  9
$DIMLFAC
 40
1.0
  9
$DIMTOFL
 70
     0
  9
$DIMTVP
 40
0.0
  9
$DIMTIX
 70
     0
  9
$DIMSOXD
 70
     0
  9
$DIMSAH
 70
     0
  9
$DIMBLK1
  1

  9
$DIMBLK2
  1

  9
$DIMSTYLE
  2
STANDARD
  9
$DIMCLRD
 70
     0
  9
$DIMCLRE
 70
     0
  9
$DIMCLRT
 70
     0
  9
$DIMTFAC
 40
1.0
  9
$DIMGAP
 40
0.09
  9
$LUNITS
 70
     2
  9
$LUPREC
 70
     4
  9
$SKETCHINC
 40
0.1
  9
$FILLETRAD
 40
2.0
  9
$AUNITS
 70
     0
  9
$AUPREC
 70
     0
  9
$MENU
  1
ACAD
  9
$ELEVATION
 40
0.0
  9
$PELEVATION
 40
0.0
  9
$THICKNESS
 40
0.0
  9
$LIMCHECK
 70
     0
  9
$BLIPMODE
 70
     0
  9
$CHAMFERA
 40
0.0
  9
$CHAMFERB
 40
0.0
  9
$SKPOLY
 70
     0
  9
$TDCREATE
 40
2452093.904896759
  9
$TDUPDATE
 40
2452093.905304282
  9
$TDINDWG
 40
0.0004113426
  9
$TDUSRTIMER
 40
0.0004113426
  9
$USRTIMER
 70
     1
  9
$ANGBASE
 50
0.0
  9
$ANGDIR
 70
     0
  9
$PDMODE
 70
     0
  9
$PDSIZE
 40
0.0
  9
$PLINEWID
 40
0.0
  9
$COORDS
 70
     1
  9
$SPLFRAME
 70
     0
  9
$SPLINETYPE
 70
     6
  9
$SPLINESEGS
 70
     8
  9
$ATTDIA
 70
     0
  9
$ATTREQ
 70
     1
  9
$HANDLING
 70
 10241
  9
$HANDSEED
  5
36D
  9
$SURFTAB1
 70
     6
  9
$SURFTAB2
 70
     6
  9
$SURFTYPE
 70
     6
  9
$SURFU
 70
     6
  9
$SURFV
 70
     6
  9
$UCSNAME
  2

  9
$UCSORG
 10
0.0
 20
0.0
 30
0.0
  9
$UCSXDIR
 10
1.0
 20
0.0
 30
0.0
  9
$UCSYDIR
 10
0.0
 20
1.0
 30
0.0
  9
$PUCSNAME
  2

  9
$PUCSORG
 10
0.0
 20
0.0
 30
0.0
  9
$PUCSXDIR
 10
1.0
 20
0.0
 30
0.0
  9
$PUCSYDIR
 10
0.0
 20
1.0
 30
0.0
  9
$USERI1
 70
     0
  9
$USERI2
 70
     0
  9
$USERI3
 70
     0
  9
$USERI4
 70
     0
  9
$USERI5
 70
     0
  9
$USERR1
 40
0.0
  9
$USERR2
 40
0.0
  9
$USERR3
 40
0.0
  9
$USERR4
 40
0.0
  9
$USERR5
 40
0.0
  9
$WORLDVIEW
 70
     1
  9
$SHADEDGE
 70
     3
  9
$SHADEDIF
 70
    70
  9
$TILEMODE
 70
     1
  9
$MAXACTVP
 70
    64
  9
$PLIMCHECK
 70
     0
  9
$PEXTMIN
 10
1.0000000000000000E+020
 20
1.0000000000000000E+020
 30
1.0000000000000000E+020
  9
$PEXTMAX
 10
-1.0000000000000000E+020
 20
-1.0000000000000000E+020
 30
-1.0000000000000000E+020
  9
$PLIMMIN
 10
0.0
 20
0.0
  9
$PLIMMAX
 10
12.0
 20
9.0
  9
$UNITMODE
 70
     0
  9
$VISRETAIN
 70
     1
  9
$PLINEGEN
 70
     0
  9
$PSLTSCALE
 70
     1
  0
ENDSEC
  0
SECTION
  2
TABLES
  0
TABLE
  2
VPORT
 70
     2
  0
VPORT
  2
*ACTIVE
 70
     0
 10
0.0
 20
0.0
 11
1.0
 21
1.0
 12
-14.606624826655329
 22
58.883000316911819
 13
0.0
 23
0.0
 14
1.0
 24
1.0
 15
0.0
 25
0.0
 16
0.0
 26
0.0
 36
1.0
 17
0.0
 27
0.0
 37
0.0
 40
8.9999999576673417
 41
2.5693779904306222
 42
50.0
 43
0.0
 44
0.0
 50
0.0
 51
0.0
 71
     0
 72
   100
 73
     1
 74
     1
 75
     0
 76
     0
 77
     0
 78
     0
  0
ENDTAB
  0
TABLE
  2
LTYPE
 70
     9
  0
LTYPE
  2
CONTINUOUS
 70
     0
  3
Solid line
 72
    65
 73
     0
 40
0.0
  0
LTYPE
  2
BORDER
 70
     0
  3
__ __ . __ __ .
 72
    65
 73
     6
 40
14.82894736842105
 49
4.2368421052631584
 49
-2.1184210526315792
 49
4.2368421052631584
 49
-2.1184210526315792
 49
0.0
 49
-2.1184210526315792
  0
LTYPE
  2
CENTER
 70
     0
  3
____ _ ____ _
 72
    65
 73
     4
 40
16.94736842105263
 49
10.59210526315789
 49
-2.1184210526315792
 49
2.1184210526315792
 49
-2.1184210526315792
  0
LTYPE
  2
DASHDOT
 70
     0
  3
__ . __ . __ .
 72
    65
 73
     4
 40
8.473684210526315
 49
4.2368421052631584
 49
-2.1184210526315792
 49
0.0
 49
-2.1184210526315792
  0
LTYPE
  2
DASHED
 70
     0
  3
__ __ __ __ __
 72
    65
 73
     2
 40
6.3552631578947363
 49
4.2368421052631584
 49
-2.1184210526315792
  0
LTYPE
  2
DIVIDE
 70
     0
  3
__ . . __ . . 
 72
    65
 73
     6
 40
10.59210526315789
 49
4.2368421052631584
 49
-2.1184210526315792
 49
0.0
 49
-2.1184210526315792
 49
0.0
 49
-2.1184210526315792
  0
LTYPE
  2
DOT
 70
     0
  3
..............
 72
    65
 73
     4
 40
4.2368421052631584
 49
0.0
 49
-2.1184210526315792
 49
0.0
 49
-2.1184210526315792
  0
LTYPE
  2
HIDDEN
 70
     0
  3
_ _ _ _ _ _ _
 72
    65
 73
     2
 40
3.1776315789473681
 49
2.1184210526315792
 49
-1.0592105263157889
  0
LTYPE
  2
PHANTOM
 70
     0
  3
_____ _ _ _____ _ _ 
 72
    65
 73
     6
 40
21.18421052631578
 49
10.59210526315789
 49
-2.1184210526315792
 49
2.1184210526315792
 49
-2.1184210526315792
 49
2.1184210526315792
 49
-2.1184210526315792
  0
ENDTAB
  0
TABLE
  2
LAYER
 70
     2
  0
LAYER
  2
0
 70
     0
 62
     7
  6
CONTINUOUS
  0
LAYER
  2
1
 70
     0
 62
     7
  6
CONTINUOUS
  0
ENDTAB
  0
TABLE
  2
STYLE
 70
     4
  0
STYLE
  2
STANDARD
 70
     0
 40
0.0
 41
1.0
 50
0.0
 71
     0
 42
3.5
  3
txt
  4

  0
STYLE
  2
SIMPLEX
 70
     0
 40
0.0
 41
1.0
 50
0.0
 71
     0
 42
3.5
  3
simplex
  4

  0
STYLE
  2
COMPLEX
 70
     0
 40
0.0
 41
1.0
 50
0.0
 71
     0
 42
3.5
  3
complex
  4

  0
STYLE
  2
ITALIC
 70
     0
 40
0.0
 41
1.0
 50
0.0
 71
     0
 42
3.5
  3
italic
  4

  0
ENDTAB
  0
TABLE
  2
VIEW
 70
     0
  0
ENDTAB
  0
TABLE
  2
UCS
 70
     0
  0
ENDTAB
  0
TABLE
  2
APPID
 70
     1
  0
APPID
  2
ACAD
 70
     0
  0
ENDTAB
  0
TABLE
  2
DIMSTYLE
 70
     1
  0
DIMSTYLE
  2
STANDARD
 70
     0
  3

  4

  5

  6

  7

 40
1.0
 41
0.18
 42
0.0625
 43
0.38
 44
0.18
 45
0.0
 46
0.0
 47
0.0
 48
0.0
140
0.18
141
0.09
142
0.0
143
25.399999999999999
144
1.0
145
0.0
146
1.0
147
0.09
 71
     0
 72
     0
 73
     1
 74
     1
 75
     0
 76
     0
 77
     0
 78
     0
170
     0
171
     2
172
     0
173
     0
174
     0
175
     0
176
     0
177
     0
178
     0
  0
ENDTAB
  0
ENDSEC
  0
SECTION
  2
BLOCKS
  0
BLOCK
  8
0
  2
$MODEL_SPACE
 70
     0
 10
0.0
 20
0.0
 30
0.0
  3
$MODEL_SPACE
  1

  0
ENDBLK
  5
20
  8
0
  0
BLOCK
 67
     1
  8
0
  2
$PAPER_SPACE
 70
     0
 10
0.0
 20
0.0
 30
0.0
  3
$PAPER_SPACE
  1

  0
ENDBLK
  5
1C
 67
     1
  8
0
  0
ENDSEC
  0
SECTION
  2
ENTITIES
  0
POLYLINE
  5
33
  8
1
 62
     7
 66
     1
 10
0.0
 20
0.0
 30
0.0
  0
VERTEX
  5
230
  8
1
 62
     7
 10
152.0
 20
15.241192096424911
 30
0.0
 42
0.0002405884437086
  0
VERTEX
  5
231
  8
1
 62
     7
 10
152.0259280745066
 20
15.24232957592349
 30
0.0
 42
0.0007206204716902
  0
VERTEX
  5
232
  8
1
 62
     7
 10
152.05185021519031
 20
15.243516728463669
 30
0.0
 42
0.0012026032717888
  0
VERTEX
  5
233
  8
1
 62
     7
 10
152.07776048822799
 20
15.244803227087059
 30
0.0
 42
0.0016841419658103
  0
VERTEX
  5
234
  8
1
 62
     7
 10
152.1036529597971
 20
15.246238744835249
 30
0.0
 42
0.0021681207164194
  0
VERTEX
  5
235
  8
1
 62
     7
 10
152.12952169607411
 20
15.247872954749839
 30
0.0
 42
0.0026518248107894
  0
VERTEX
  5
236
  8
1
 62
     7
 10
152.1553607632365
 20
15.249755529872459
 30
0.0
 42
0.0031377079226329
  0
VERTEX
  5
237
  8
1
 62
     7
 10
152.1811642274613
 20
15.25193614324467
 30
0.0
 42
0.0036225124476913
  0
VERTEX
  5
238
  8
1
 62
     7
 10
152.2069261549253
 20
15.2544644679081
 30
0.0
 42
0.0041080369648896
  0
VERTEX
  5
239
  8
1
 62
     7
 10
152.23264061180569
 20
15.25739017690433
 30
0.0
 42
0.0045902600753762
  0
VERTEX
  5
23A
  8
1
 62
     7
 10
152.2583016642796
 20
15.260762943274999
 30
0.0
 42
0.0145705768163019
  0
VERTEX
  5
23B
  8
1
 62
     7
 10
152.30905848917851
 20
15.26889572082643
 30
0.0
 42
0.00363526531975
  0
VERTEX
  5
23C
  8
1
 62
     7
 10
152.35953186177591
 20
15.27887988056886
 30
0.0
 42
0.0136220772130496
  0
VERTEX
  5
23D
  8
1
 62
     7
 10
152.4096721518155
 20
15.2906094405628
 30
0.0
 42
0.002719237721419
  0
VERTEX
  5
23E
  8
1
 62
     7
 10
152.4594297290412
 20
15.303978418868709
 30
0.0
 42
0.0163965851251615
  0
VERTEX
  5
23F
  8
1
 62
     7
 10
152.53289076185931
 20
15.32675989445984
 30
0.0
 42
0.005769223247571
  0
VERTEX
  5
240
  8
1
 62
     7
 10
152.60452937413211
 20
15.352508118175381
 30
0.0
 42
0.0170951004183414
  0
VERTEX
  5
241
  8
1
 62
     7
 10
152.67487549404191
 20
15.381487218085169
 30
0.0
 42
0.00673819349125
  0
VERTEX
  5
242
  8
1
 62
     7
 10
152.74375000000001
 20
15.41377988455425
 30
0.0
 42
0.0382972036183939
  0
VERTEX
  5
243
  8
1
 62
     7
 10
152.91542632947531
 20
15.514013577777529
 30
0.0
 42
0.0200378319919473
  0
VERTEX
  5
244
  8
1
 62
     7
 10
153.03273762891581
 20
15.60228849208225
 30
0.0
 42
0.1123019269819146
  0
VERTEX
  5
245
  8
1
 62
     7
 10
153.37888979544039
 20
16.04649101281996
 30
0.0
 42
0.0136258334522914
  0
VERTEX
  5
246
  8
1
 62
     7
 10
153.4065105409189
 20
16.109858177650409
 30
0.0
 42
0.0048867075125592
  0
VERTEX
  5
247
  8
1
 62
     7
 10
153.41483631269131
 20
16.131069966144519
 30
0.0
 42
0.0047839444599387
  0
VERTEX
  5
248
  8
1
 62
     7
 10
153.4227498461689
 20
16.152437602444142
 30
0.0
 42
0.0052465136123244
  0
VERTEX
  5
249
  8
1
 62
     7
 10
153.43023089878429
 20
16.173953161386791
 30
0.0
 42
0.0051548794528487
  0
VERTEX
  5
24A
  8
1
 62
     7
 10
153.43725922797029
 20
16.195608717810021
 30
0.0
 42
0.0056281313911356
  0
VERTEX
  5
24B
  8
1
 62
     7
 10
153.44381459115959
 20
16.217396346551361
 30
0.0
 42
0.0055465531628936
  0
VERTEX
  5
24C
  8
1
 62
     7
 10
153.4498767457851
 20
16.239308122448332
 30
0.0
 42
0.0060290391249886
  0
VERTEX
  5
24D
  8
1
 62
     7
 10
153.4554254492794
 20
16.261336120338481
 30
0.0
 42
0.0059556446680675
  0
VERTEX
  5
24E
  8
1
 62
     7
 10
153.46044045907539
 20
16.283472415059311
 30
0.0
 42
0.0064450228029418
  0
VERTEX
  5
24F
  8
1
 62
     7
 10
153.46490153260561
 20
16.30570908144837
 30
0.0
 42
0.006034502644569
  0
VERTEX
  5
250
  8
1
 62
     7
 10
153.46876610049739
 20
16.327820291274449
 30
0.0
 42
0.0053995777158864
  0
VERTEX
  5
251
  8
1
 62
     7
 10
153.4721239143411
 20
16.35001309177985
 30
0.0
 42
0.0047602406399222
  0
VERTEX
  5
252
  8
1
 62
     7
 10
153.47503128014191
 20
16.37227841733354
 30
0.0
 42
0.0041197873305052
  0
VERTEX
  5
253
  8
1
 62
     7
 10
153.47754450390539
 20
16.394607202304471
 30
0.0
 42
0.0034799361522135
  0
VERTEX
  5
254
  8
1
 62
     7
 10
153.47971989163679
 20
16.416990381061598
 30
0.0
 42
0.0028422370727438
  0
VERTEX
  5
255
  8
1
 62
     7
 10
153.48161374934151
 20
16.439418887973929
 30
0.0
 42
0.0022069117431845
  0
VERTEX
  5
256
  8
1
 62
     7
 10
153.48328238302491
 20
16.461883657410379
 30
0.0
 42
0.0015742758577989
  0
VERTEX
  5
257
  8
1
 62
     7
 10
153.48478209869219
 20
16.48437562373994
 30
0.0
 42
0.0009435791790269
  0
VERTEX
  5
258
  8
1
 62
     7
 10
153.4861692023488
 20
16.506885721331589
 30
0.0
 42
0.0003144207010259
  0
VERTEX
  5
259
  8
1
 62
     7
 10
153.48750000000001
 20
16.52940488455426
 30
0.0
  0
SEQEND
  5
25A
  8
1
 62
     7
  0
POLYLINE
  5
5F
  8
1
 62
     7
 66
     1
 10
0.0
 20
0.0
 30
0.0
  0
VERTEX
  5
25B
  8
1
 62
     7
 10
153.48750000000001
 20
13.49831597130872
 30
0.0
 42
0.0003142229101827
  0
VERTEX
  5
25C
  8
1
 62
     7
 10
153.48616920234861
 20
13.520835134531399
 30
0.0
 42
0.0009437769693957
  0
VERTEX
  5
25D
  8
1
 62
     7
 10
153.48478209869199
 20
13.54334523212302
 30
0.0
 42
0.0015740780677477
  0
VERTEX
  5
25E
  8
1
 62
     7
 10
153.4832823830248
 20
13.56583719845259
 30
0.0
 42
0.0022071095330805
  0
VERTEX
  5
25F
  8
1
 62
     7
 10
153.48161374934151
 20
13.588301967889061
 30
0.0
 42
0.0028420392822139
  0
VERTEX
  5
260
  8
1
 62
     7
 10
153.47971989163679
 20
13.610730474801359
 30
0.0
 42
0.0034801339441671
  0
VERTEX
  5
261
  8
1
 62
     7
 10
153.47754450390539
 20
13.63311365355851
 30
0.0
 42
0.0084241990260126
  0
VERTEX
  5
262
  8
1
 62
     7
 10
153.47503128014191
 20
13.655442438529439
 30
0.0
 42
0.0004559689852426
  0
VERTEX
  5
263
  8
1
 62
     7
 10
153.47212391434101
 20
13.677707764083131
 30
0.0
 42
0.009704065562197
  0
VERTEX
  5
264
  8
1
 62
     7
 10
153.46876610049731
 20
13.69990056458853
 30
0.0
 42
0.0080023129244119
  0
VERTEX
  5
265
  8
1
 62
     7
 10
153.4604404590753
 20
13.74424844080368
 30
0.0
 42
0.0106061778911104
  0
VERTEX
  5
266
  8
1
 62
     7
 10
153.4554254492794
 20
13.766384735524509
 30
0.0
 42
0.0013787609856723
  0
VERTEX
  5
267
  8
1
 62
     7
 10
153.4498767457851
 20
13.788412733414649
 30
0.0
 42
0.0101970556578424
  0
VERTEX
  5
268
  8
1
 62
     7
 10
153.44381459115951
 20
13.810324509311631
 30
0.0
 42
0.0836960415703455
  0
VERTEX
  5
269
  8
1
 62
     7
 10
153.2612388761718
 20
14.181338649409581
 30
0.0
 42
0.0189396516438827
  0
VERTEX
  5
26A
  8
1
 62
     7
 10
153.20299723241689
 20
14.25604465724167
 30
0.0
 42
0.0262457329735155
  0
VERTEX
  5
26B
  8
1
 62
     7
 10
153.1050680461575
 20
14.3606307760747
 30
0.0
 42
0.0262056361913968
  0
VERTEX
  5
26C
  8
1
 62
     7
 10
152.99494579848749
 20
14.455932879538
 30
0.0
 42
0.0289802364342992
  0
VERTEX
  5
26D
  8
1
 62
     7
 10
152.8526058228808
 20
14.55394848963742
 30
0.0
 42
0.0248526178799756
  0
VERTEX
  5
26E
  8
1
 62
     7
 10
152.72096640089691
 20
14.62507847187077
 30
0.0
 42
0.0116894684351477
  0
VERTEX
  5
26F
  8
1
 62
     7
 10
152.65158145455609
 20
14.656257428335071
 30
0.0
 42
0.0118177341706027
  0
VERTEX
  5
270
  8
1
 62
     7
 10
152.5807846014599
 20
14.684150381695099
 30
0.0
 42
0.0107287698331922
  0
VERTEX
  5
271
  8
1
 62
     7
 10
152.50875496319691
 20
14.70884002231592
 30
0.0
 42
0.0076788788081231
  0
VERTEX
  5
272
  8
1
 62
     7
 10
152.45942972904101
 20
14.72374243699428
 30
0.0
 42
0.0077826771719036
  0
VERTEX
  5
273
  8
1
 62
     7
 10
152.40967215181541
 20
14.73711141530017
 30
0.0
 42
0.0085581546350596
  0
VERTEX
  5
274
  8
1
 62
     7
 10
152.35953186177591
 20
14.748840975294099
 30
0.0
 42
0.0086987577294647
  0
VERTEX
  5
275
  8
1
 62
     7
 10
152.30905848917851
 20
14.758825135036551
 30
0.0
 42
0.0095065431691575
  0
VERTEX
  5
276
  8
1
 62
     7
 10
152.2583016642794
 20
14.76695791258798
 30
0.0
 42
0.0045905807644867
  0
VERTEX
  5
277
  8
1
 62
     7
 10
152.23264061180549
 20
14.770330678958629
 30
0.0
 42
0.0041077162770931
  0
VERTEX
  5
278
  8
1
 62
     7
 10
152.2069261549251
 20
14.77325638795487
 30
0.0
 42
0.0036228331343483
  0
VERTEX
  5
279
  8
1
 62
     7
 10
152.1811642274611
 20
14.7757847126183
 30
0.0
 42
0.0031373872369543
  0
VERTEX
  5
27A
  8
1
 62
     7
 10
152.15536076323639
 20
14.77796532599052
 30
0.0
 42
0.0026521454955624
  0
VERTEX
  5
27B
  8
1
 62
     7
 10
152.12952169607399
 20
14.779847901113129
 30
0.0
 42
0.0021678000324389
  0
VERTEX
  5
27C
  8
1
 62
     7
 10
152.1036529597969
 20
14.781482111027721
 30
0.0
 42
0.0016844626490936
  0
VERTEX
  5
27D
  8
1
 62
     7
 10
152.07776048822799
 20
14.78291762877592
 30
0.0
 42
0.0012022825889938
  0
VERTEX
  5
27E
  8
1
 62
     7
 10
152.05185021519031
 20
14.78420412739931
 30
0.0
 42
0.0007209411542166
  0
VERTEX
  5
27F
  8
1
 62
     7
 10
152.02592807450651
 20
14.785391279939491
 30
0.0
 42
0.0002402677612725
  0
VERTEX
  5
280
  8
1
 62
     7
 10
152.0
 20
14.786528759438079
 30
0.0
  0
SEQEND
  5
281
  8
1
 62
     7
  0
POLYLINE
  5
87
  8
1
 62
     7
 66
     1
 10
0.0
 20
0.0
 30
0.0
  0
VERTEX
  5
282
  8
1
 62
     7
 10
154.0124999999999
 20
13.49831597130872
 30
0.0
 42
-0.0003142229101827
  0
VERTEX
  5
283
  8
1
 62
     7
 10
154.01383079765131
 20
13.520835134531399
 30
0.0
 42
-0.0009437769693955
  0
VERTEX
  5
284
  8
1
 62
     7
 10
154.01521790130789
 20
13.54334523212302
 30
0.0
 42
-0.0015740780677475
  0
VERTEX
  5
285
  8
1
 62
     7
 10
154.01671761697509
 20
13.56583719845259
 30
0.0
 42
-0.0022071095330804
  0
VERTEX
  5
286
  8
1
 62
     7
 10
154.01838625065841
 20
13.588301967889061
 30
0.0
 42
-0.002842039282214
  0
VERTEX
  5
287
  8
1
 62
     7
 10
154.0202801083631
 20
13.610730474801359
 30
0.0
 42
-0.0034801339441669
  0
VERTEX
  5
288
  8
1
 62
     7
 10
154.02245549609449
 20
13.63311365355851
 30
0.0
 42
-0.0084241990259924
  0
VERTEX
  5
289
  8
1
 62
     7
 10
154.02496871985801
 20
13.655442438529439
 30
0.0
 42
-0.000455968985263
  0
VERTEX
  5
28A
  8
1
 62
     7
 10
154.02787608565899
 20
13.677707764083131
 30
0.0
 42
-0.0097040655621748
  0
VERTEX
  5
28B
  8
1
 62
     7
 10
154.03123389950269
 20
13.69990056458853
 30
0.0
 42
-0.0080023129244326
  0
VERTEX
  5
28C
  8
1
 62
     7
 10
154.03955954092461
 20
13.74424844080368
 30
0.0
 42
-0.0106061778910901
  0
VERTEX
  5
28D
  8
1
 62
     7
 10
154.0445745507206
 20
13.766384735524509
 30
0.0
 42
-0.0013787609856919
  0
VERTEX
  5
28E
  8
1
 62
     7
 10
154.05012325421481
 20
13.788412733414649
 30
0.0
 42
-0.0101970556578175
  0
VERTEX
  5
28F
  8
1
 62
     7
 10
154.05618540884041
 20
13.810324509311631
 30
0.0
 42
-0.083696041570369
  0
VERTEX
  5
290
  8
1
 62
     7
 10
154.23876112382811
 20
14.181338649409581
 30
0.0
 42
-0.0189396516438635
  0
VERTEX
  5
291
  8
1
 62
     7
 10
154.29700276758311
 20
14.25604465724167
 30
0.0
 42
-0.0262457329735342
  0
VERTEX
  5
292
  8
1
 62
     7
 10
154.39493195384239
 20
14.3606307760747
 30
0.0
 42
-0.0262056361914373
  0
VERTEX
  5
293
  8
1
 62
     7
 10
154.50505420151239
 20
14.455932879538
 30
0.0
 42
-0.0289802364341466
  0
VERTEX
  5
294
  8
1
 62
     7
 10
154.64739417711911
 20
14.55394848963742
 30
0.0
 42
-0.0248526178801699
  0
VERTEX
  5
295
  8
1
 62
     7
 10
154.779033599103
 20
14.62507847187077
 30
0.0
 42
-0.0116894684349511
  0
VERTEX
  5
296
  8
1
 62
     7
 10
154.84841854544379
 20
14.656257428335071
 30
0.0
 42
-0.011817734170799
  0
VERTEX
  5
297
  8
1
 62
     7
 10
154.91921539853999
 20
14.684150381695099
 30
0.0
 42
-0.0107287698329988
  0
VERTEX
  5
298
  8
1
 62
     7
 10
154.99124503680309
 20
14.70884002231592
 30
0.0
 42
-0.0076788788083136
  0
VERTEX
  5
299
  8
1
 62
     7
 10
155.04057027095891
 20
14.72374243699428
 30
0.0
 42
-0.0077826771717079
  0
VERTEX
  5
29A
  8
1
 62
     7
 10
155.0903278481845
 20
14.73711141530017
 30
0.0
 42
-0.0085581546352512
  0
VERTEX
  5
29B
  8
1
 62
     7
 10
155.14046813822409
 20
14.748840975294099
 30
0.0
 42
-0.0086987577293225
  0
VERTEX
  5
29C
  8
1
 62
     7
 10
155.1909415108214
 20
14.758825135036551
 30
0.0
 42
-0.009506543169201
  0
VERTEX
  5
29D
  8
1
 62
     7
 10
155.24169833572051
 20
14.76695791258798
 30
0.0
 42
-0.0045905807644867
  0
VERTEX
  5
29E
  8
1
 62
     7
 10
155.26735938819439
 20
14.770330678958629
 30
0.0
 42
-0.0041077162770931
  0
VERTEX
  5
29F
  8
1
 62
     7
 10
155.29307384507479
 20
14.77325638795487
 30
0.0
 42
-0.0036228331343483
  0
VERTEX
  5
2A0
  8
1
 62
     7
 10
155.31883577253879
 20
14.7757847126183
 30
0.0
 42
-0.0031373872369543
  0
VERTEX
  5
2A1
  8
1
 62
     7
 10
155.34463923676341
 20
14.77796532599052
 30
0.0
 42
-0.0026521454955624
  0
VERTEX
  5
2A2
  8
1
 62
     7
 10
155.37047830392589
 20
14.779847901113129
 30
0.0
 42
-0.0021678000324389
  0
VERTEX
  5
2A3
  8
1
 62
     7
 10
155.39634704020301
 20
14.781482111027721
 30
0.0
 42
-0.0016844626490936
  0
VERTEX
  5
2A4
  8
1
 62
     7
 10
155.42223951177189
 20
14.78291762877592
 30
0.0
 42
-0.0012022825889938
  0
VERTEX
  5
2A5
  8
1
 62
     7
 10
155.4481497848096
 20
14.78420412739931
 30
0.0
 42
-0.0007209411542166
  0
VERTEX
  5
2A6
  8
1
 62
     7
 10
155.4740719254934
 20
14.785391279939491
 30
0.0
 42
-0.0002402677612725
  0
VERTEX
  5
2A7
  8
1
 62
     7
 10
155.49999999999989
 20
14.786528759438079
 30
0.0
  0
SEQEND
  5
2A8
  8
1
 62
     7
  0
POLYLINE
  5
AF
  8
1
 62
     7
 66
     1
 10
0.0
 20
0.0
 30
0.0
  0
VERTEX
  5
2A9
  8
1
 62
     7
 10
155.49999999999989
 20
15.241192096424911
 30
0.0
 42
-0.0002405884434155
  0
VERTEX
  5
2AA
  8
1
 62
     7
 10
155.47407192549329
 20
15.24232957592349
 30
0.0
 42
-0.0007206204719835
  0
VERTEX
  5
2AB
  8
1
 62
     7
 10
155.4481497848096
 20
15.243516728463669
 30
0.0
 42
-0.0012026032714977
  0
VERTEX
  5
2AC
  8
1
 62
     7
 10
155.42223951177189
 20
15.244803227087059
 30
0.0
 42
-0.0016841419661001
  0
VERTEX
  5
2AD
  8
1
 62
     7
 10
155.3963470402029
 20
15.246238744835249
 30
0.0
 42
-0.0021681207161283
  0
VERTEX
  5
2AE
  8
1
 62
     7
 10
155.37047830392581
 20
15.247872954749839
 30
0.0
 42
-0.0026518248110802
  0
VERTEX
  5
2AF
  8
1
 62
     7
 10
155.34463923676341
 20
15.249755529872459
 30
0.0
 42
-0.0031377079223422
  0
VERTEX
  5
2B0
  8
1
 62
     7
 10
155.31883577253859
 20
15.25193614324467
 30
0.0
 42
-0.0036225124479793
  0
VERTEX
  5
2B1
  8
1
 62
     7
 10
155.2930738450747
 20
15.2544644679081
 30
0.0
 42
-0.0041080369646011
  0
VERTEX
  5
2B2
  8
1
 62
     7
 10
155.26735938819431
 20
15.25739017690433
 30
0.0
 42
-0.0045902600756622
  0
VERTEX
  5
2B3
  8
1
 62
     7
 10
155.2416983357204
 20
15.260762943274999
 30
0.0
 42
-0.0145705768166784
  0
VERTEX
  5
2B4
  8
1
 62
     7
 10
155.19094151082129
 20
15.26889572082643
 30
0.0
 42
-0.0036352653193743
  0
VERTEX
  5
2B5
  8
1
 62
     7
 10
155.14046813822409
 20
15.27887988056886
 30
0.0
 42
-0.0136220772134183
  0
VERTEX
  5
2B6
  8
1
 62
     7
 10
155.0903278481845
 20
15.2906094405628
 30
0.0
 42
-0.0027192377211255
  0
VERTEX
  5
2B7
  8
1
 62
     7
 10
155.04057027095891
 20
15.303978418868709
 30
0.0
 42
-0.0163965851253274
  0
VERTEX
  5
2B8
  8
1
 62
     7
 10
154.96710923814061
 20
15.32675989445984
 30
0.0
 42
-0.0057692232474602
  0
VERTEX
  5
2B9
  8
1
 62
     7
 10
154.8954706258678
 20
15.352508118175381
 30
0.0
 42
-0.0170951004184491
  0
VERTEX
  5
2BA
  8
1
 62
     7
 10
154.825124505958
 20
15.381487218085169
 30
0.0
 42
-0.0067381934911452
  0
VERTEX
  5
2BB
  8
1
 62
     7
 10
154.75624999999991
 20
15.41377988455425
 30
0.0
 42
-0.0382972036185302
  0
VERTEX
  5
2BC
  8
1
 62
     7
 10
154.58457367052461
 20
15.514013577777529
 30
0.0
 42
-0.0200378319917205
  0
VERTEX
  5
2BD
  8
1
 62
     7
 10
154.4672623710841
 20
15.60228849208225
 30
0.0
 42
-0.1123019269822179
  0
VERTEX
  5
2BE
  8
1
 62
     7
 10
154.1211102045595
 20
16.04649101281996
 30
0.0
 42
-0.0136258334517746
  0
VERTEX
  5
2BF
  8
1
 62
     7
 10
154.09348945908101
 20
16.109858177650409
 30
0.0
 42
-0.0048867075132647
  0
VERTEX
  5
2C0
  8
1
 62
     7
 10
154.08516368730849
 20
16.131069966144519
 30
0.0
 42
-0.0047839444592294
  0
VERTEX
  5
2C1
  8
1
 62
     7
 10
154.07725015383099
 20
16.152437602444142
 30
0.0
 42
-0.0052465136130373
  0
VERTEX
  5
2C2
  8
1
 62
     7
 10
154.0697691012156
 20
16.173953161386791
 30
0.0
 42
-0.0051548794521353
  0
VERTEX
  5
2C3
  8
1
 62
     7
 10
154.0627407720296
 20
16.195608717810021
 30
0.0
 42
-0.005628131391848
  0
VERTEX
  5
2C4
  8
1
 62
     7
 10
154.05618540884029
 20
16.217396346551361
 30
0.0
 42
-0.005546553162184
  0
VERTEX
  5
2C5
  8
1
 62
     7
 10
154.05012325421481
 20
16.239308122448332
 30
0.0
 42
-0.0060290391263064
  0
VERTEX
  5
2C6
  8
1
 62
     7
 10
154.0445745507206
 20
16.261336120338481
 30
0.0
 42
-0.0059556446655305
  0
VERTEX
  5
2C7
  8
1
 62
     7
 10
154.0395595409245
 20
16.283472415059311
 30
0.0
 42
-0.0064450228060894
  0
VERTEX
  5
2C8
  8
1
 62
     7
 10
154.03509846739431
 20
16.30570908144837
 30
0.0
 42
-0.0060345026414236
  0
VERTEX
  5
2C9
  8
1
 62
     7
 10
154.03123389950261
 20
16.327820291274449
 30
0.0
 42
-0.0053995777190302
  0
VERTEX
  5
2CA
  8
1
 62
     7
 10
154.0278760856589
 20
16.35001309177985
 30
0.0
 42
-0.0047602406367783
  0
VERTEX
  5
2CB
  8
1
 62
     7
 10
154.02496871985801
 20
16.37227841733354
 30
0.0
 42
-0.00411978733365
  0
VERTEX
  5
2CC
  8
1
 62
     7
 10
154.02245549609449
 20
16.394607202304471
 30
0.0
 42
-0.0034799361490682
  0
VERTEX
  5
2CD
  8
1
 62
     7
 10
154.0202801083631
 20
16.416990381061598
 30
0.0
 42
-0.0028422370758888
  0
VERTEX
  5
2CE
  8
1
 62
     7
 10
154.01838625065841
 20
16.439418887973929
 30
0.0
 42
-0.0022069117400395
  0
VERTEX
  5
2CF
  8
1
 62
     7
 10
154.016717616975
 20
16.461883657410379
 30
0.0
 42
-0.0015742758609437
  0
VERTEX
  5
2D0
  8
1
 62
     7
 10
154.01521790130781
 20
16.48437562373994
 30
0.0
 42
-0.000943579176511
  0
VERTEX
  5
2D1
  8
1
 62
     7
 10
154.01383079765131
 20
16.506885721331589
 30
0.0
 42
-0.000314420702284
  0
VERTEX
  5
2D2
  8
1
 62
     7
 10
154.0124999999999
 20
16.52940488455426
 30
0.0
  0
SEQEND
  5
2D3
  8
1
 62
     7
  0
POLYLINE
  5
DB
  8
1
 62
     7
 66
     1
 10
0.0
 20
0.0
 30
0.0
  0
VERTEX
  5
2D4
  8
1
 62
     7
 10
151.0
 20
14.275
 30
0.0
 42
0.0003153291247756
  0
VERTEX
  5
2D5
  8
1
 62
     7
 10
151.0024553087876
 20
14.233366247134549
 30
0.0
 42
0.0012765726235523
  0
VERTEX
  5
2D6
  8
1
 62
     7
 10
151.00501501509859
 20
14.191749356465509
 30
0.0
 42
0.0012485797702065
  0
VERTEX
  5
2D7
  8
1
 62
     7
 10
151.0077835164563
 20
14.150166190189299
 30
0.0
 42
0.0025436099220054
  0
VERTEX
  5
2D8
  8
1
 62
     7
 10
151.0108652103836
 20
14.108633610502331
 30
0.0
 42
0.002520302356165
  0
VERTEX
  5
2D9
  8
1
 62
     7
 10
151.01436449440391
 20
14.06716847960101
 30
0.0
 42
0.0038204702503894
  0
VERTEX
  5
2DA
  8
1
 62
     7
 10
151.01838576604081
 20
14.025787659681781
 30
0.0
 42
0.0038017553633218
  0
VERTEX
  5
2DB
  8
1
 62
     7
 10
151.02303342281701
 20
13.98450801294103
 30
0.0
 42
0.005104746952836
  0
VERTEX
  5
2DC
  8
1
 62
     7
 10
151.02841186225629
 20
13.943346401575161
 30
0.0
 42
0.0050855504720096
  0
VERTEX
  5
2DD
  8
1
 62
     7
 10
151.0346254818817
 20
13.902319687780629
 30
0.0
 42
0.0126730439463545
  0
VERTEX
  5
2DE
  8
1
 62
     7
 10
151.05003750648541
 20
13.82033880530134
 30
0.0
 42
0.0059726165048512
  0
VERTEX
  5
2DF
  8
1
 62
     7
 10
151.05932196540039
 20
13.779418961067
 30
0.0
 42
0.0060124383076639
  0
VERTEX
  5
2E0
  8
1
 62
     7
 10
151.06959309693511
 20
13.738699333517131
 30
0.0
 42
0.0055441677555024
  0
VERTEX
  5
2E1
  8
1
 62
     7
 10
151.08081194206341
 20
13.698194055118019
 30
0.0
 42
0.0055921792055205
  0
VERTEX
  5
2E2
  8
1
 62
     7
 10
151.09293954175939
 20
13.65791725833601
 30
0.0
 42
0.0051331934360377
  0
VERTEX
  5
2E3
  8
1
 62
     7
 10
151.10593693699661
 20
13.61788307563741
 30
0.0
 42
0.005191336935369
  0
VERTEX
  5
2E4
  8
1
 62
     7
 10
151.1197651687495
 20
13.578105639488539
 30
0.0
 42
0.0047431174829866
  0
VERTEX
  5
2E5
  8
1
 62
     7
 10
151.1343852779915
 20
13.538599082355709
 30
0.0
 42
0.0048124651994613
  0
VERTEX
  5
2E6
  8
1
 62
     7
 10
151.14975830569651
 20
13.499377536705239
 30
0.0
 42
0.0095975330785947
  0
VERTEX
  5
2E7
  8
1
 62
     7
 10
151.1856695939496
 20
13.41499746427947
 30
0.0
 42
0.0152220695237714
  0
VERTEX
  5
2E8
  8
1
 62
     7
 10
151.25058171317801
 20
13.281304661518419
 30
0.0
 42
0.0144736965138273
  0
VERTEX
  5
2E9
  8
1
 62
     7
 10
151.3232689016813
 20
13.15178124534474
 30
0.0
 42
0.0141051960710092
  0
VERTEX
  5
2EA
  8
1
 62
     7
 10
151.40323776072799
 20
13.026618880364071
 30
0.0
 42
0.0119638095239651
  0
VERTEX
  5
2EB
  8
1
 62
     7
 10
151.47852241416231
 20
12.921316762116691
 30
0.0
 42
0.0129661725134505
  0
VERTEX
  5
2EC
  8
1
 62
     7
 10
151.55894983118759
 20
12.81991205735107
 30
0.0
 42
0.0130004393391681
  0
VERTEX
  5
2ED
  8
1
 62
     7
 10
151.644508838555
 20
12.72284556933527
 30
0.0
 42
0.0187925051968519
  0
VERTEX
  5
2EE
  8
1
 62
     7
 10
151.76888390934451
 20
12.598632537706481
 30
0.0
 42
0.0127544371194138
  0
VERTEX
  5
2EF
  8
1
 62
     7
 10
151.8685102021015
 20
12.510960799625069
 30
0.0
 42
0.0174188888966524
  0
VERTEX
  5
2F0
  8
1
 62
     7
 10
152.00816923650001
 20
12.402275827284351
 30
0.0
 42
0.0284395114743378
  0
VERTEX
  5
2F1
  8
1
 62
     7
 10
152.2750720864473
 20
12.23134309653647
 30
0.0
 42
0.0246581779465471
  0
VERTEX
  5
2F2
  8
1
 62
     7
 10
152.5205539520091
 20
12.108663257577881
 30
0.0
 42
0.0270995604157837
  0
VERTEX
  5
2F3
  8
1
 62
     7
 10
152.82319120903429
 20
11.99476484101722
 30
0.0
 42
0.0619593678271683
  0
VERTEX
  5
2F4
  8
1
 62
     7
 10
153.56117239420561
 20
11.858941819839551
 30
0.0
 42
0.0632100001053961
  0
VERTEX
  5
2F5
  8
1
 62
     7
 10
154.35906004590549
 20
11.91328410828336
 30
0.0
 42
0.0322232173286054
  0
VERTEX
  5
2F6
  8
1
 62
     7
 10
154.7207797573549
 20
12.00899781916517
 30
0.0
 42
0.0223394779402761
  0
VERTEX
  5
2F7
  8
1
 62
     7
 10
154.97944604799079
 20
12.108663257577881
 30
0.0
 42
0.0335737651189292
  0
VERTEX
  5
2F8
  8
1
 62
     7
 10
155.3031655939194
 20
12.27701760313505
 30
0.0
 42
0.0237940033138278
  0
VERTEX
  5
2F9
  8
1
 62
     7
 10
155.52742441546269
 20
12.42856212888783
 30
0.0
 42
0.0491260756046552
  0
VERTEX
  5
2FA
  8
1
 62
     7
 10
155.88458031756531
 20
12.75469183117894
 30
0.0
 42
0.0138412370799602
  0
VERTEX
  5
2FB
  8
1
 62
     7
 10
155.96843003629081
 20
12.85325336958558
 30
0.0
 42
0.0246815954213905
  0
VERTEX
  5
2FC
  8
1
 62
     7
 10
156.12419714341391
 20
13.067843276298801
 30
0.0
 42
0.0143984413862827
  0
VERTEX
  5
2FD
  8
1
 62
     7
 10
156.20179360102739
 20
13.19448062107775
 30
0.0
 42
0.0145479567349085
  0
VERTEX
  5
2FE
  8
1
 62
     7
 10
156.27194392185351
 20
13.325415128847849
 30
0.0
 42
0.0155275692885799
  0
VERTEX
  5
2FF
  8
1
 62
     7
 10
156.3341547071611
 20
13.46045513500345
 30
0.0
 42
0.0043618592570082
  0
VERTEX
  5
300
  8
1
 62
     7
 10
156.35024169430341
 20
13.499377536705239
 30
0.0
 42
0.0048263297877126
  0
VERTEX
  5
301
  8
1
 62
     7
 10
156.36561472200839
 20
13.538599082355709
 30
0.0
 42
0.0047292529057583
  0
VERTEX
  5
302
  8
1
 62
     7
 10
156.38023483125039
 20
13.578105639488539
 30
0.0
 42
0.005205201576243
  0
VERTEX
  5
303
  8
1
 62
     7
 10
156.3940630630033
 20
13.61788307563741
 30
0.0
 42
0.0051193288054726
  0
VERTEX
  5
304
  8
1
 62
     7
 10
156.40706045824049
 20
13.65791725833601
 30
0.0
 42
0.0056060439063979
  0
VERTEX
  5
305
  8
1
 62
     7
 10
156.41918805793651
 20
13.698194055118019
 30
0.0
 42
0.0055303030641784
  0
VERTEX
  5
306
  8
1
 62
     7
 10
156.43040690306481
 20
13.738699333517131
 30
0.0
 42
0.0060263030759161
  0
VERTEX
  5
307
  8
1
 62
     7
 10
156.4406780345995
 20
13.779418961067
 30
0.0
 42
0.0059587517461735
  0
VERTEX
  5
308
  8
1
 62
     7
 10
156.44996249351451
 20
13.82033880530134
 30
0.0
 42
0.0064615831474934
  0
VERTEX
  5
309
  8
1
 62
     7
 10
156.45822132078351
 20
13.861444733753819
 30
0.0
 42
0.0060527464119283
  0
VERTEX
  5
30A
  8
1
 62
     7
 10
156.46537451811841
 20
13.902319687780629
 30
0.0
 42
0.0054158235182668
  0
VERTEX
  5
30B
  8
1
 62
     7
 10
156.47158813774359
 20
13.943346401575161
 30
0.0
 42
0.0047744749531692
  0
VERTEX
  5
30C
  8
1
 62
     7
 10
156.47696657718291
 20
13.98450801294103
 30
0.0
 42
0.0041320245017305
  0
VERTEX
  5
30D
  8
1
 62
     7
 10
156.48161423395911
 20
14.025787659681781
 30
0.0
 42
0.0034902018962698
  0
VERTEX
  5
30E
  8
1
 62
     7
 10
156.48563550559601
 20
14.06716847960101
 30
0.0
 42
0.0028505686791886
  0
VERTEX
  5
30F
  8
1
 62
     7
 10
156.4891347896164
 20
14.108633610502331
 30
0.0
 42
0.0022133441123476
  0
VERTEX
  5
310
  8
1
 62
     7
 10
156.49221648354359
 20
14.150166190189299
 30
0.0
 42
0.0015788443715716
  0
VERTEX
  5
311
  8
1
 62
     7
 10
156.49498498490129
 20
14.191749356465509
 30
0.0
 42
0.0009463082742691
  0
VERTEX
  5
312
  8
1
 62
     7
 10
156.49754469121231
 20
14.233366247134549
 30
0.0
 42
0.0003153291247805
  0
VERTEX
  5
313
  8
1
 62
     7
 10
156.49999999999989
 20
14.275
 30
0.0
  0
SEQEND
  5
314
  8
1
 62
     7
  0
POLYLINE
  5
11D
  8
1
 62
     7
 66
     1
 10
0.0
 20
0.0
 30
0.0
  0
VERTEX
  5
315
  8
1
 62
     7
 10
156.49999999999989
 20
14.49456007081225
 30
0.0
 42
0.000318826832907
  0
VERTEX
  5
316
  8
1
 62
     7
 10
156.4975638844785
 20
14.53620181070829
 30
0.0
 42
0.0012833445366261
  0
VERTEX
  5
317
  8
1
 62
     7
 10
156.4950222082054
 20
14.57782620434546
 30
0.0
 42
0.0012699293683012
  0
VERTEX
  5
318
  8
1
 62
     7
 10
156.49226941042929
 20
14.61941590546486
 30
0.0
 42
0.0025646964050321
  0
VERTEX
  5
319
  8
1
 62
     7
 10
156.4891999303986
 20
14.66095356780767
 30
0.0
 42
0.0025562496975612
  0
VERTEX
  5
31A
  8
1
 62
     7
 10
156.48570820736191
 20
14.702421845114969
 30
0.0
 42
0.0038564954811489
  0
VERTEX
  5
31B
  8
1
 62
     7
 10
156.4816886805674
 20
14.7438033911279
 30
0.0
 42
0.0038530067266542
  0
VERTEX
  5
31C
  8
1
 62
     7
 10
156.47703578926399
 20
14.785080859587589
 30
0.0
 42
0.0051564222683016
  0
VERTEX
  5
31D
  8
1
 62
     7
 10
156.47164397269989
 20
14.826236904235159
 30
0.0
 42
0.0051527237804078
  0
VERTEX
  5
31E
  8
1
 62
     7
 10
156.4654076701236
 20
14.86725417881174
 30
0.0
 42
0.0128093674197431
  0
VERTEX
  5
31F
  8
1
 62
     7
 10
156.44991839193079
 20
14.949202913204729
 30
0.0
 42
0.0059822739703261
  0
VERTEX
  5
320
  8
1
 62
     7
 10
156.4405838773564
 20
14.99010192742098
 30
0.0
 42
0.0060052717077573
  0
VERTEX
  5
321
  8
1
 62
     7
 10
156.43026264399731
 20
15.030800705741701
 30
0.0
 42
0.005477826319492
  0
VERTEX
  5
322
  8
1
 62
     7
 10
156.41899955878941
 20
15.07128757420136
 30
0.0
 42
0.0055087113703517
  0
VERTEX
  5
323
  8
1
 62
     7
 10
156.40683948866931
 20
15.11155085883448
 30
0.0
 42
0.0049904502915648
  0
VERTEX
  5
324
  8
1
 62
     7
 10
156.39382730057341
 20
15.151578885675519
 30
0.0
 42
0.0050314805483593
  0
VERTEX
  5
325
  8
1
 62
     7
 10
156.38000786143829
 20
15.191359980758991
 30
0.0
 42
0.0045240351837046
  0
VERTEX
  5
326
  8
1
 62
     7
 10
156.36542603820041
 20
15.23088247011936
 30
0.0
 42
0.0045762839086645
  0
VERTEX
  5
327
  8
1
 62
     7
 10
156.35012669779579
 20
15.27013467979115
 30
0.0
 42
0.0104617279227266
  0
VERTEX
  5
328
  8
1
 62
     7
 10
156.3081206853827
 20
15.36901050048278
 30
0.0
 42
0.0060026145447364
  0
VERTEX
  5
329
  8
1
 62
     7
 10
156.28063372697881
 20
15.42821483424432
 30
0.0
 42
0.005928481873823
  0
VERTEX
  5
32A
  8
1
 62
     7
 10
156.25175309957791
 20
15.486723996323709
 30
0.0
 42
0.0055810298861396
  0
VERTEX
  5
32B
  8
1
 62
     7
 10
156.2215380708079
 20
15.544544045951239
 30
0.0
 42
0.0055058281779021
  0
VERTEX
  5
32C
  8
1
 62
     7
 10
156.1900479082974
 20
15.6016810423572
 30
0.0
 42
0.0051590437070006
  0
VERTEX
  5
32D
  8
1
 62
     7
 10
156.1573418796745
 20
15.658141044771879
 30
0.0
 42
0.0050859975351018
  0
VERTEX
  5
32E
  8
1
 62
     7
 10
156.12347925256731
 20
15.713930112425579
 30
0.0
 42
0.0047426217059332
  0
VERTEX
  5
32F
  8
1
 62
     7
 10
156.0885192946042
 20
15.769054304548581
 30
0.0
 42
0.0046740096508982
  0
VERTEX
  5
330
  8
1
 62
     7
 10
156.05252127341311
 20
15.82351968037117
 30
0.0
 42
0.0043358847061545
  0
VERTEX
  5
331
  8
1
 62
     7
 10
156.01554445662279
 20
15.877332299123641
 30
0.0
 42
0.0028534398798706
  0
VERTEX
  5
332
  8
1
 62
     7
 10
155.9914410736508
 20
15.91135161220337
 30
0.0
 42
0.0030643908492101
  0
VERTEX
  5
333
  8
1
 62
     7
 10
155.966940636554
 20
15.94507791829284
 30
0.0
 42
0.0032770747319285
  0
VERTEX
  5
334
  8
1
 62
     7
 10
155.9420210497685
 20
15.978481916236751
 30
0.0
 42
0.0034911023023714
  0
VERTEX
  5
335
  8
1
 62
     7
 10
155.91666021773051
 20
16.01153430487981
 30
0.0
 42
0.0037066184456342
  0
VERTEX
  5
336
  8
1
 62
     7
 10
155.89083604487629
 20
16.044205783066712
 30
0.0
 42
0.0039230848467402
  0
VERTEX
  5
337
  8
1
 62
     7
 10
155.86452643564181
 20
16.076467049642151
 30
0.0
 42
0.0041404846097855
  0
VERTEX
  5
338
  8
1
 62
     7
 10
155.83770929446359
 20
16.10828880345084
 30
0.0
 42
0.0043581053395537
  0
VERTEX
  5
339
  8
1
 62
     7
 10
155.81036252577761
 20
16.139641743337481
 30
0.0
 42
0.0211638495355332
  0
VERTEX
  5
33A
  8
1
 62
     7
 10
155.7241861045311
 20
16.231347867602299
 30
0.0
 42
0.0030690924904792
  0
VERTEX
  5
33B
  8
1
 62
     7
 10
155.6627875751505
 20
16.290648044437141
 30
0.0
 42
0.015754991166938
  0
VERTEX
  5
33C
  8
1
 62
     7
 10
155.5991598036349
 20
16.34763198618608
 30
0.0
 42
0.0022534922155852
  0
VERTEX
  5
33D
  8
1
 62
     7
 10
155.5334873653249
 20
16.402316378622739
 30
0.0
 42
0.0481021385887272
  0
VERTEX
  5
33E
  8
1
 62
     7
 10
155.17384211347641
 20
16.645060250813732
 30
0.0
 42
0.1513210439707155
  0
VERTEX
  5
33F
  8
1
 62
     7
 10
153.4313888694291
 20
16.99324055288665
 30
0.0
 42
0.043253212417115
  0
VERTEX
  5
340
  8
1
 62
     7
 10
152.94202041261141
 20
16.899332531976921
 30
0.0
 42
0.0222867745218317
  0
VERTEX
  5
341
  8
1
 62
     7
 10
152.6868062295824
 20
16.814584359560421
 30
0.0
 42
0.0492067577583829
  0
VERTEX
  5
342
  8
1
 62
     7
 10
152.2134396317756
 20
16.577982084164731
 30
0.0
 42
0.0200923447157949
  0
VERTEX
  5
343
  8
1
 62
     7
 10
152.03404516443891
 20
16.45471790752082
 30
0.0
 42
0.0088486099187524
  0
VERTEX
  5
344
  8
1
 62
     7
 10
151.96651263467501
 20
16.402316378622739
 30
0.0
 42
0.0083792078728109
  0
VERTEX
  5
345
  8
1
 62
     7
 10
151.90084019636501
 20
16.34763198618608
 30
0.0
 42
0.0285938625381432
  0
VERTEX
  5
346
  8
1
 62
     7
 10
151.71753596597981
 20
16.17049656814676
 30
0.0
 42
0.0051081400709214
  0
VERTEX
  5
347
  8
1
 62
     7
 10
151.68963747422231
 20
16.139641743337481
 30
0.0
 42
0.003825713533828
  0
VERTEX
  5
348
  8
1
 62
     7
 10
151.66229070553629
 20
16.10828880345084
 30
0.0
 42
0.0046728778396964
  0
VERTEX
  5
349
  8
1
 62
     7
 10
151.63547356435811
 20
16.076467049642151
 30
0.0
 42
0.0033906948356395
  0
VERTEX
  5
34A
  8
1
 62
     7
 10
151.60916395512371
 20
16.044205783066701
 30
0.0
 42
0.0042390097399662
  0
VERTEX
  5
34B
  8
1
 62
     7
 10
151.58333978226941
 20
16.01153430487981
 30
0.0
 42
0.0029587138739457
  0
VERTEX
  5
34C
  8
1
 62
     7
 10
151.5579789502315
 20
15.978481916236751
 30
0.0
 42
0.0038094643075175
  0
VERTEX
  5
34D
  8
1
 62
     7
 10
151.533059363446
 20
15.94507791829284
 30
0.0
 42
0.0099481954455284
  0
VERTEX
  5
34E
  8
1
 62
     7
 10
151.44747872658681
 20
15.82351968037117
 30
0.0
 42
0.0047532358172696
  0
VERTEX
  5
34F
  8
1
 62
     7
 10
151.41148070539589
 20
15.769054304548581
 30
0.0
 42
0.0046633955471148
  0
VERTEX
  5
350
  8
1
 62
     7
 10
151.37652074743261
 20
15.713930112425579
 30
0.0
 42
0.0051652240231722
  0
VERTEX
  5
351
  8
1
 62
     7
 10
151.3426581203255
 20
15.658141044771879
 30
0.0
 42
0.0050798172239485
  0
VERTEX
  5
352
  8
1
 62
     7
 10
151.30995209170251
 20
15.6016810423572
 30
0.0
 42
0.0055850550209001
  0
VERTEX
  5
353
  8
1
 62
     7
 10
151.27846192919199
 20
15.544544045951239
 30
0.0
 42
0.0055018030466695
  0
VERTEX
  5
354
  8
1
 62
     7
 10
151.248246900422
 20
15.486723996323709
 30
0.0
 42
0.0060077091023597
  0
VERTEX
  5
355
  8
1
 62
     7
 10
151.21936627302111
 20
15.42821483424432
 30
0.0
 42
0.0059233873212129
  0
VERTEX
  5
356
  8
1
 62
     7
 10
151.1918793146173
 20
15.36901050048278
 30
0.0
 42
0.006426241262042
  0
VERTEX
  5
357
  8
1
 62
     7
 10
151.16584529283881
 20
15.30910493580882
 30
0.0
 42
0.0040694225300492
  0
VERTEX
  5
358
  8
1
 62
     7
 10
151.1498733022041
 20
15.27013467979115
 30
0.0
 42
0.0045870953548703
  0
VERTEX
  5
359
  8
1
 62
     7
 10
151.1345739617995
 20
15.23088247011936
 30
0.0
 42
0.0045132237436962
  0
VERTEX
  5
35A
  8
1
 62
     7
 10
151.1199921385616
 20
15.191359980758991
 30
0.0
 42
0.0050422920419143
  0
VERTEX
  5
35B
  8
1
 62
     7
 10
151.10617269942651
 20
15.151578885675519
 30
0.0
 42
0.0049796388036195
  0
VERTEX
  5
35C
  8
1
 62
     7
 10
151.09316051133069
 20
15.11155085883447
 30
0.0
 42
0.0055195229183504
  0
VERTEX
  5
35D
  8
1
 62
     7
 10
151.08100044121059
 20
15.07128757420136
 30
0.0
 42
0.0054670147764549
  0
VERTEX
  5
35E
  8
1
 62
     7
 10
151.06973735600261
 20
15.030800705741679
 30
0.0
 42
0.0060160833175999
  0
VERTEX
  5
35F
  8
1
 62
     7
 10
151.05941612264351
 20
14.990101927420969
 30
0.0
 42
0.005971462364874
  0
VERTEX
  5
360
  8
1
 62
     7
 10
151.05008160806909
 20
14.94920291320472
 30
0.0
 42
0.0065267643345849
  0
VERTEX
  5
361
  8
1
 62
     7
 10
151.04177867921641
 20
14.90811533705844
 30
0.0
 42
0.0061242148873968
  0
VERTEX
  5
362
  8
1
 62
     7
 10
151.0345923298764
 20
14.86725417881174
 30
0.0
 42
0.0054792580660471
  0
VERTEX
  5
363
  8
1
 62
     7
 10
151.02835602729999
 20
14.826236904235159
 30
0.0
 42
0.004829889069725
  0
VERTEX
  5
364
  8
1
 62
     7
 10
151.02296421073589
 20
14.785080859587589
 30
0.0
 42
0.0041795370514338
  0
VERTEX
  5
365
  8
1
 62
     7
 10
151.01831131943251
 20
14.7438033911279
 30
0.0
 42
0.0035299659695738
  0
VERTEX
  5
366
  8
1
 62
     7
 10
151.01429179263809
 20
14.702421845114969
 30
0.0
 42
0.0028827771702508
  0
VERTEX
  5
367
  8
1
 62
     7
 10
151.0108000696014
 20
14.66095356780767
 30
0.0
 42
0.0022381694642091
  0
VERTEX
  5
368
  8
1
 62
     7
 10
151.0077305895706
 20
14.61941590546486
 30
0.0
 42
0.0015964550967888
  0
VERTEX
  5
369
  8
1
 62
     7
 10
151.00497779179449
 20
14.577826204345451
 30
0.0
 42
0.0009568190691811
  0
VERTEX
  5
36A
  8
1
 62
     7
 10
151.0024361155215
 20
14.53620181070829
 30
0.0
 42
0.000318826832902
  0
VERTEX
  5
36B
  8
1
 62
     7
 10
151.0
 20
14.49456007081225
 30
0.0
  0
SEQEND
  5
36C
  8
1
 62
     7
  0
LINE
  5
176
  8
1
  6
DASHDOT
 62
     3
 10
287.15063509461089
 20
-12.500000000000011
 30
0.0
 11
281.0884572681199
 21
-9.0000000000000178
 31
0.0
  0
LINE
  5
177
  8
1
  6
DASHDOT
 62
     3
 10
243.84936490538891
 20
-12.499999999999989
 30
0.0
 11
249.91154273187999
 21
-8.9999999999999911
 31
0.0
  0
LINE
  5
178
  8
1
 62
     7
 10
152.0
 20
15.241192096424911
 30
0.0
 11
152.0
 21
14.786528759438079
 31
0.0
  0
LINE
  5
179
  8
1
 62
     7
 10
155.49999999999989
 20
15.241192096424911
 30
0.0
 11
155.49999999999989
 21
14.786528759438079
 31
0.0
  0
LINE
  5
17A
  8
1
 62
     7
 10
153.48750000000001
 20
13.49831597130872
 30
0.0
 11
154.0124999999999
 21
13.49831597130872
 31
0.0
  0
LINE
  5
17B
  8
1
 62
     7
 10
153.48750000000001
 20
16.52940488455426
 30
0.0
 11
154.0124999999999
 21
16.52940488455426
 31
0.0
  0
LINE
  5
17C
  8
1
 62
     7
 10
151.0
 20
14.49456007081225
 30
0.0
 11
151.0
 21
14.275
 31
0.0
  0
LINE
  5
17D
  8
1
 62
     7
 10
156.49999999999989
 20
14.49456007081225
 30
0.0
 11
156.49999999999989
 21
14.275
 31
0.0
  0
LINE
  5
17E
  8
1
 62
     7
 10
23.680705577203469
 20
15.40411254716757
 30
0.0
 11
23.715217656910401
 21
15.42403810567667
 31
0.0
  0
LINE
  5
17F
  8
1
 62
     7
 10
25.215217656910401
 20
12.82596189432334
 30
0.0
 11
25.180705577203469
 21
12.80603633581425
 31
0.0
  0
LINE
  5
180
  8
1
 62
     7
 10
23.350025278045731
 20
16.65656986040722
 30
0.0
 11
23.730314476005951
 21
16.87612993121947
 31
0.0
  0
LINE
  5
181
  8
1
 62
     7
 10
25.69021765691042
 20
12.00323776072814
 30
0.0
 11
23.240217656910421
 21
16.24676223927187
 31
0.0
  0
LINE
  5
182
  8
1
 62
     7
 10
26.480314476005962
 20
12.11299021040505
 30
0.0
 11
26.100025278045731
 21
11.893430139592789
 31
0.0
  0
LINE
  5
183
  8
1
 62
     7
 10
-25.18070557720349
 20
12.80603633581425
 30
0.0
 11
-25.215217656910418
 21
12.82596189432334
 31
0.0
  0
LINE
  5
184
  8
1
 62
     7
 10
-23.715217656910429
 20
15.42403810567667
 30
0.0
 11
-23.68070557720349
 21
15.40411254716757
 31
0.0
  0
LINE
  5
185
  8
1
 62
     7
 10
-26.100025278045759
 20
11.893430139592789
 30
0.0
 11
-26.480314476005979
 21
12.11299021040505
 31
0.0
  0
LINE
  5
186
  8
1
 62
     7
 10
-23.240217656910421
 20
16.24676223927187
 30
0.0
 11
-25.69021765691042
 21
12.00323776072814
 31
0.0
  0
LINE
  5
187
  8
1
 62
     7
 10
-23.730314476005979
 20
16.876129931219459
 30
0.0
 11
-23.350025278045759
 21
16.65656986040721
 31
0.0
  0
LINE
  5
188
  8
1
 62
     7
 10
1.5
 20
-28.21014888298183
 30
0.0
 11
1.5
 21
-28.250000000000011
 31
0.0
  0
LINE
  5
189
  8
1
 62
     7
 10
-1.5
 20
-28.250000000000011
 30
0.0
 11
-1.5
 21
-28.21014888298183
 31
0.0
  0
LINE
  5
18A
  8
1
 62
     7
 10
2.75
 20
-28.550000000000001
 30
0.0
 11
2.75
 21
-28.989120141624511
 31
0.0
  0
LINE
  5
18B
  8
1
 62
     7
 10
-2.4499999999999891
 20
-28.250000000000011
 30
0.0
 11
2.4499999999999891
 21
-28.250000000000011
 31
0.0
  0
LINE
  5
18C
  8
1
 62
     7
 10
-2.75
 20
-28.989120141624511
 30
0.0
 11
-2.75
 21
-28.550000000000001
 31
0.0
  0
LINE
  5
18D
  8
1
 62
     7
 10
240.31929442279639
 20
12.80603633581425
 30
0.0
 11
240.28478234308949
 21
12.82596189432334
 31
0.0
  0
LINE
  5
18E
  8
1
 62
     7
 10
241.78478234308949
 20
15.42403810567667
 30
0.0
 11
241.8192944227965
 21
15.40411254716757
 31
0.0
  0
LINE
  5
18F
  8
1
 62
     7
 10
239.3999747219541
 20
11.893430139592789
 30
0.0
 11
239.0196855239939
 21
12.11299021040505
 31
0.0
  0
LINE
  5
190
  8
1
 62
     7
 10
242.2597823430896
 20
16.24676223927187
 30
0.0
 11
239.80978234308961
 21
12.00323776072814
 31
0.0
  0
LINE
  5
191
  8
1
 62
     7
 10
241.76968552399401
 20
16.876129931219459
 30
0.0
 11
242.1499747219541
 21
16.65656986040721
 31
0.0
  0
LINE
  5
192
  8
1
 62
     7
 10
289.18070557720341
 20
15.40411254716757
 30
0.0
 11
289.21521765691028
 21
15.42403810567667
 31
0.0
  0
LINE
  5
193
  8
1
 62
     7
 10
290.71521765691028
 20
12.82596189432334
 30
0.0
 11
290.68070557720341
 21
12.80603633581425
 31
0.0
  0
LINE
  5
194
  8
1
 62
     7
 10
288.85002527804562
 20
16.65656986040722
 30
0.0
 11
289.23031447600601
 21
16.87612993121947
 31
0.0
  0
LINE
  5
195
  8
1
 62
     7
 10
291.19021765691031
 20
12.00323776072814
 30
0.0
 11
288.74021765691032
 21
16.24676223927187
 31
0.0
  0
LINE
  5
196
  8
1
 62
     7
 10
291.98031447600601
 20
12.11299021040505
 30
0.0
 11
291.60002527804562
 21
11.893430139592789
 31
0.0
  0
LINE
  5
197
  8
1
 62
     7
 10
267.0
 20
-28.21014888298183
 30
0.0
 11
267.0
 21
-28.250000000000011
 31
0.0
  0
LINE
  5
198
  8
1
 62
     7
 10
264.0
 20
-28.250000000000011
 30
0.0
 11
264.0
 21
-28.21014888298183
 31
0.0
  0
LINE
  5
199
  8
1
 62
     7
 10
268.25
 20
-28.550000000000001
 30
0.0
 11
268.25
 21
-28.989120141624511
 31
0.0
  0
LINE
  5
19A
  8
1
 62
     7
 10
263.05000000000001
 20
-28.250000000000011
 30
0.0
 11
267.94999999999987
 21
-28.250000000000011
 31
0.0
  0
LINE
  5
19B
  8
1
 62
     7
 10
262.74999999999989
 20
-28.989120141624511
 30
0.0
 11
262.74999999999989
 21
-28.550000000000001
 31
0.0
  0
LINE
  5
19C
  8
1
  6
DASHDOT
 62
     3
 10
265.5
 20
25.000000000000011
 30
0.0
 11
265.5
 21
18.000000000000011
 31
0.0
  0
LINE
  5
19D
  8
1
  6
DASHDOT
 62
     3
 10
187.25
 20
0.0000000000000002
 30
0.0
 11
190.25
 21
0.0
 31
0.0
  0
LINE
  5
19E
  8
1
 62
     7
 10
106.83
 20
43.250000000000007
 30
0.0
 11
108.6699999999999
 21
43.250000000000007
 31
0.0
  0
LINE
  5
19F
  8
1
 62
     7
 10
108.6699999999999
 20
43.250000000000007
 30
0.0
 11
108.6699999999999
 21
28.250000000000011
 31
0.0
  0
LINE
  5
1A0
  8
1
 62
     7
 10
106.83
 20
43.250000000000007
 30
0.0
 11
106.83
 21
28.250000000000011
 31
0.0
  0
LINE
  5
1A1
  8
1
 62
     3
 10
107.37
 20
46.25
 30
0.0
 11
107.37
 21
43.250000000000007
 31
0.0
  0
LINE
  5
1A2
  8
1
 62
     3
 10
108.1299999999999
 20
46.25
 30
0.0
 11
108.1299999999999
 21
43.250000000000007
 31
0.0
  0
LINE
  5
1A3
  8
1
 62
     7
 10
269.10000000000002
 20
-5.128498911788121
 30
0.0
 11
269.10000000000002
 21
-6.3638694583963513
 31
0.0
  0
LINE
  5
1A4
  8
1
 62
     7
 10
266.10000000000002
 20
-7.6638694583963467
 30
0.0
 11
267.80000000000001
 21
-7.6638694583963467
 31
0.0
  0
LINE
  5
1A5
  8
1
 62
     7
 10
266.10000000000002
 20
-7.6638694583963467
 30
0.0
 11
266.10000000000002
 21
-4.9638694583963456
 31
0.0
  0
LINE
  5
1A6
  8
1
 62
     7
 10
264.89999999999998
 20
-4.9638694583963456
 30
0.0
 11
264.89999999999998
 21
-7.6638694583963467
 31
0.0
  0
LINE
  5
1A7
  8
1
 62
     7
 10
263.19999999999999
 20
-7.6638694583963467
 30
0.0
 11
264.89999999999998
 21
-7.6638694583963467
 31
0.0
  0
LINE
  5
1A8
  8
1
 62
     7
 10
261.89999999999992
 20
-6.3638694583963513
 30
0.0
 11
261.89999999999992
 21
-5.128498911788121
 31
0.0
  0
LINE
  5
1A9
  8
1
 62
     7
 10
156.49999999999989
 20
-28.549999999999979
 30
0.0
 11
156.49999999999989
 21
-28.989120141624479
 31
0.0
  0
LINE
  5
1AA
  8
1
 62
     7
 10
151.30000000000001
 20
-28.249999999999961
 30
0.0
 11
156.1999999999999
 21
-28.249999999999961
 31
0.0
  0
LINE
  5
1AB
  8
1
 62
     7
 10
151.0
 20
-28.989120141624479
 30
0.0
 11
151.0
 21
-28.549999999999979
 31
0.0
  0
LINE
  5
1AC
  8
1
 62
     7
 10
165.25
 20
-7.6638694583963467
 30
0.0
 11
164.25
 21
-7.6638694583963467
 31
0.0
  0
LINE
  5
1AD
  8
1
 62
     7
 10
165.25
 20
6.4999999999999858
 30
0.0
 11
164.25
 21
6.4999999999999858
 31
0.0
  0
LINE
  5
1AE
  8
1
 62
     7
 10
100.2499999999999
 20
-7.6638694583963467
 30
0.0
 11
101.2499999999999
 21
-7.6638694583963467
 31
0.0
  0
LINE
  5
1AF
  8
1
 62
     7
 10
100.2499999999999
 20
6.4999999999999858
 30
0.0
 11
101.2499999999999
 21
6.4999999999999858
 31
0.0
  0
LINE
  5
1B0
  8
1
 62
     7
 10
100.2499999999999
 20
6.4999999999999858
 30
0.0
 11
100.2499999999999
 21
-7.6638694583963467
 31
0.0
  0
LINE
  5
1B1
  8
1
 62
     7
 10
164.25
 20
-16.0
 30
0.0
 11
161.25
 21
-16.0
 31
0.0
  0
LINE
  5
1B2
  8
1
 62
     7
 10
165.25
 20
6.4999999999999858
 30
0.0
 11
165.25
 21
-7.6638694583963467
 31
0.0
  0
LINE
  5
1B3
  8
1
 62
     7
 10
165.25
 20
-5.0
 30
0.0
 11
187.25
 21
-5.0
 31
0.0
  0
LINE
  5
1B4
  8
1
 62
     7
 10
165.25
 20
5.0000000000000062
 30
0.0
 11
187.25
 21
5.0000000000000062
 31
0.0
  0
LINE
  5
1B5
  8
1
 62
     7
 10
158.25
 20
28.250000000000011
 30
0.0
 11
158.25
 21
-28.249999999999961
 31
0.0
  0
LINE
  5
1B6
  8
1
 62
     7
 10
164.25
 20
16.000000000000011
 30
0.0
 11
164.25
 21
-16.0
 31
0.0
  0
LINE
  5
1B7
  8
1
 62
     7
 10
161.25
 20
16.000000000000011
 30
0.0
 11
164.25
 21
16.000000000000011
 31
0.0
  0
LINE
  5
1B8
  8
1
 62
     7
 10
161.25
 20
28.250000000000011
 30
0.0
 11
161.25
 21
-28.25
 31
0.0
  0
LINE
  5
1B9
  8
1
 62
     7
 10
78.25
 20
-5.0
 30
0.0
 11
78.25
 21
5.0000000000000213
 31
0.0
  0
LINE
  5
1BA
  8
1
 62
     7
 10
78.25
 20
5.0000000000000213
 30
0.0
 11
100.2499999999999
 21
5.0000000000000062
 31
0.0
  0
LINE
  5
1BB
  8
1
 62
     7
 10
78.25
 20
-5.0
 30
0.0
 11
100.2499999999999
 21
-5.0
 31
0.0
  0
LINE
  5
1BC
  8
1
  6
DASHDOT
 62
     3
 10
75.25
 20
0.0
 30
0.0
 11
78.25
 21
0.0
 31
0.0
  0
LINE
  5
1BD
  8
1
 62
     7
 10
101.2499999999999
 20
-28.249999999999961
 30
0.0
 11
161.25
 21
-28.25
 31
0.0
  0
LINE
  5
1BE
  8
1
 62
     7
 10
101.2499999999999
 20
28.250000000000011
 30
0.0
 11
161.25
 21
28.250000000000011
 31
0.0
  0
LINE
  5
1BF
  8
1
 62
     7
 10
101.2499999999999
 20
28.250000000000011
 30
0.0
 11
101.2499999999999
 21
-28.249999999999961
 31
0.0
  0
LINE
  5
1C0
  8
1
 62
     7
 10
187.25
 20
5.0000000000000062
 30
0.0
 11
187.25
 21
-5.0
 31
0.0
  0
LINE
  5
1C1
  8
1
 62
     7
 10
1.840000000000003
 20
43.250000000000007
 30
0.0
 11
1.840000000000003
 21
26.322608828913211
 31
0.0
  0
LINE
  5
1C2
  8
1
 62
     7
 10
-1.840000000000003
 20
43.250000000000007
 30
0.0
 11
-1.840000000000003
 21
26.322608828913211
 31
0.0
  0
LINE
  5
1C3
  8
1
 62
     7
 10
0.0
 20
43.250000000000007
 30
0.0
 11
0.0
 21
26.322608828913211
 31
0.0
  0
LINE
  5
1C4
  8
1
 62
     7
 10
267.33999999999992
 20
43.250000000000007
 30
0.0
 11
267.33999999999992
 21
28.190014189425298
 31
0.0
  0
LINE
  5
1C5
  8
1
 62
     7
 10
263.66000000000003
 20
43.250000000000007
 30
0.0
 11
263.66000000000003
 21
28.19001418942532
 31
0.0
  0
LINE
  5
1C6
  8
1
 62
     7
 10
265.5
 20
43.250000000000007
 30
0.0
 11
265.5
 21
28.250000000000011
 31
0.0
  0
LINE
  5
1C7
  8
1
  6
DASHDOT
 62
     3
 10
-1.5
 20
0.0
 30
0.0
 11
1.5
 21
0.0
 31
0.0
  0
LINE
  5
1C8
  8
1
  6
DASHDOT
 62
     3
 10
0.0
 20
1.5
 30
0.0
 11
0.0
 21
-1.5
 31
0.0
  0
LINE
  5
1C9
  8
1
  6
DASHDOT
 62
     3
 10
264.0
 20
0.0
 30
0.0
 11
267.0
 21
0.0
 31
0.0
  0
LINE
  5
1CA
  8
1
  6
DASHDOT
 62
     3
 10
265.5
 20
1.5
 30
0.0
 11
265.5
 21
-1.5
 31
0.0
  0
LINE
  5
1CB
  8
1
 62
     7
 10
-3.0
 20
26.322608828913211
 30
0.0
 11
-3.0
 21
25.322914524201209
 31
0.0
  0
LINE
  5
1CC
  8
1
 62
     7
 10
3.0
 20
26.322608828913211
 30
0.0
 11
3.0
 21
25.322914524201209
 31
0.0
  0
LINE
  5
1CD
  8
1
 62
     7
 10
-3.0
 20
26.322608828913211
 30
0.0
 11
3.0
 21
26.322608828913211
 31
0.0
  0
LINE
  5
1CE
  8
1
 62
     7
 10
3.2000000000000002
 20
28.068175929333211
 30
0.0
 11
3.2000000000000002
 21
25.298418922928771
 31
0.0
  0
LINE
  5
1CF
  8
1
 62
     7
 10
-3.2000000000000002
 20
28.068175929333211
 30
0.0
 11
-3.2000000000000002
 21
25.298418922928771
 31
0.0
  0
LINE
  5
1D0
  8
1
 62
     7
 10
-3.5999999999999792
 20
-6.3638694583963513
 30
0.0
 11
-3.5999999999999792
 21
-5.128498911788121
 31
0.0
  0
LINE
  5
1D1
  8
1
 62
     7
 10
-2.2999999999999821
 20
-7.6638694583963467
 30
0.0
 11
-0.5999999999999801
 21
-7.6638694583963467
 31
0.0
  0
LINE
  5
1D2
  8
1
 62
     7
 10
-0.5999999999999801
 20
-4.9638694583963456
 30
0.0
 11
-0.5999999999999801
 21
-7.6638694583963467
 31
0.0
  0
LINE
  5
1D3
  8
1
 62
     7
 10
0.5999999999999944
 20
-7.6638694583963467
 30
0.0
 11
0.5999999999999944
 21
-4.9638694583963456
 31
0.0
  0
LINE
  5
1D4
  8
1
 62
     7
 10
0.5999999999999944
 20
-7.6638694583963467
 30
0.0
 11
2.2999999999999972
 21
-7.6638694583963467
 31
0.0
  0
LINE
  5
1D5
  8
1
 62
     7
 10
3.599999999999993
 20
-5.128498911788121
 30
0.0
 11
3.599999999999993
 21
-6.3638694583963513
 31
0.0
  0
LINE
  5
1D6
  8
1
 62
     3
 10
107.75
 20
46.25
 30
0.0
 11
107.75
 21
43.250000000000007
 31
0.0
  0
LINE
  5
1D7
  8
1
 62
     3
 10
-1.30000000000001
 20
46.25
 30
0.0
 11
-1.299999999999996
 21
43.250000000000007
 31
0.0
  0
LINE
  5
1D8
  8
1
 62
     3
 10
-0.5400000000000063
 20
46.25
 30
0.0
 11
-0.5400000000000063
 21
43.250000000000007
 31
0.0
  0
LINE
  5
1D9
  8
1
 62
     3
 10
-0.9200000000000015
 20
46.25
 30
0.0
 11
-0.9200000000000015
 21
43.250000000000007
 31
0.0
  0
LINE
  5
1DA
  8
1
 62
     7
 10
1.840000000000003
 20
43.250000000000007
 30
0.0
 11
-1.840000000000003
 21
43.250000000000007
 31
0.0
  0
LINE
  5
1DB
  8
1
 62
     3
 10
0.5399999999999922
 20
46.25
 30
0.0
 11
0.5400000000000058
 21
43.250000000000007
 31
0.0
  0
LINE
  5
1DC
  8
1
 62
     3
 10
1.299999999999996
 20
46.25
 30
0.0
 11
1.299999999999996
 21
43.250000000000007
 31
0.0
  0
LINE
  5
1DD
  8
1
 62
     3
 10
0.9200000000000012
 20
46.25
 30
0.0
 11
0.9200000000000012
 21
43.250000000000007
 31
0.0
  0
LINE
  5
1DE
  8
1
 62
     3
 10
264.19999999999987
 20
46.25
 30
0.0
 11
264.19999999999987
 21
43.250000000000007
 31
0.0
  0
LINE
  5
1DF
  8
1
 62
     3
 10
264.95999999999992
 20
46.25
 30
0.0
 11
264.95999999999992
 21
43.250000000000007
 31
0.0
  0
LINE
  5
1E0
  8
1
 62
     3
 10
264.57999999999993
 20
46.25
 30
0.0
 11
264.57999999999993
 21
43.250000000000007
 31
0.0
  0
LINE
  5
1E1
  8
1
 62
     7
 10
267.33999999999992
 20
43.250000000000007
 30
0.0
 11
263.66000000000003
 21
43.250000000000007
 31
0.0
  0
LINE
  5
1E2
  8
1
 62
     3
 10
266.04000000000002
 20
46.25
 30
0.0
 11
266.04000000000002
 21
43.250000000000007
 31
0.0
  0
LINE
  5
1E3
  8
1
 62
     3
 10
266.80000000000001
 20
46.25
 30
0.0
 11
266.80000000000001
 21
43.250000000000007
 31
0.0
  0
LINE
  5
1E4
  8
1
 62
     3
 10
266.42000000000002
 20
46.25
 30
0.0
 11
266.42000000000002
 21
43.250000000000007
 31
0.0
  0
ARC
  5
1E5
  8
1
 62
     7
 10
23.500025278045761
 20
16.396762239271862
 30
0.0
 40
0.3000000000000361
 50
120.00000000000431
 51
209.9999999999992
  0
ARC
  5
1E6
  8
1
 62
     7
 10
25.950025278045761
 20
12.15323776072813
 30
0.0
 40
0.3000000000000082
 50
209.9999999999992
 51
299.9999999999942
  0
ARC
  5
1E7
  8
1
 62
     7
 10
24.230314476005962
 20
16.010104527435018
 30
0.0
 40
1.0000000000000351
 50
46.957763300004153
 51
119.9999999999999
  0
ARC
  5
1E8
  8
1
 62
     7
 10
25.980314476005951
 20
12.979015614189491
 30
0.0
 40
1.0000000000000011
 50
299.99999999999989
 51
13.042236699994
  0
ARC
  5
1E9
  8
1
 62
     7
 10
-25.950025278045761
 20
12.15323776072813
 30
0.0
 40
0.3000000000000073
 50
240.00000000000111
 51
330.0000000000008
  0
ARC
  5
1EA
  8
1
 62
     7
 10
-23.500025278045761
 20
16.396762239271862
 30
0.0
 40
0.3000000000000042
 50
330.00000000000063
 51
59.999999999999361
  0
ARC
  5
1EB
  8
1
 62
     7
 10
-25.98031447600599
 20
12.979015614189491
 30
0.0
 40
1.0000000000000011
 50
166.9577633000043
 51
240.0
  0
ARC
  5
1EC
  8
1
 62
     7
 10
-24.230314476005979
 20
16.010104527435018
 30
0.0
 40
0.9999999999999927
 50
59.99999999999978
 51
133.0422366999949
  0
ARC
  5
1ED
  8
1
 62
     7
 10
2.4499999999999891
 20
-28.550000000000001
 30
0.0
 40
0.3000000000000109
 50
0.0
 51
90.0
  0
ARC
  5
1EE
  8
1
 62
     7
 10
-2.4499999999999891
 20
-28.550000000000001
 30
0.0
 40
0.3000000000000007
 50
90.0
 51
180.0
  0
ARC
  5
1EF
  8
1
 62
     7
 10
1.75
 20
-28.989120141624511
 30
0.0
 40
0.9999999999999994
 50
286.95776330000501
 51
0.0
  0
ARC
  5
1F0
  8
1
 62
     7
 10
-1.75
 20
-28.989120141624511
 30
0.0
 40
1.0
 50
180.0
 51
253.0422366999949
  0
ARC
  5
1F1
  8
1
 62
     7
 10
239.5499747219541
 20
12.15323776072813
 30
0.0
 40
0.2999999999999967
 50
240.00000000000469
 51
330.00000000000858
  0
ARC
  5
1F2
  8
1
 62
     7
 10
241.9999747219542
 20
16.396762239271862
 30
0.0
 40
0.3000000000000535
 50
330.00000000000608
 51
59.999999999999922
  0
ARC
  5
1F3
  8
1
 62
     7
 10
239.51968552399401
 20
12.979015614189491
 30
0.0
 40
1.000000000000034
 50
166.95776330000581
 51
240.0
  0
ARC
  5
1F4
  8
1
 62
     7
 10
241.2696855239939
 20
16.010104527435018
 30
0.0
 40
0.9999999999999927
 50
59.99999999999978
 51
133.04223669999749
  0
ARC
  5
1F5
  8
1
 62
     7
 10
289.00002527804583
 20
16.396762239271862
 30
0.0
 40
0.3000000000000911
 50
120.0000000000225
 51
209.9999999999884
  0
ARC
  5
1F6
  8
1
 62
     7
 10
291.45002527804581
 20
12.15323776072813
 30
0.0
 40
0.3000000000000544
 50
209.99999999999409
 51
299.99999999997652
  0
ARC
  5
1F7
  8
1
 62
     7
 10
289.73031447600601
 20
16.010104527435018
 30
0.0
 40
1.0000000000000171
 50
46.957763300007919
 51
119.9999999999999
  0
ARC
  5
1F8
  8
1
 62
     7
 10
291.48031447600601
 20
12.979015614189491
 30
0.0
 40
1.0000000000000011
 50
299.99999999999989
 51
13.04223669999309
  0
ARC
  5
1F9
  8
1
 62
     7
 10
267.94999999999987
 20
-28.550000000000001
 30
0.0
 40
0.3000000000000114
 50
0.0
 51
90.0
  0
ARC
  5
1FA
  8
1
 62
     7
 10
263.05000000000001
 20
-28.550000000000001
 30
0.0
 40
0.3000000000000007
 50
90.0
 51
180.0
  0
ARC
  5
1FB
  8
1
 62
     7
 10
267.24999999999989
 20
-28.989120141624511
 30
0.0
 40
1.0000000000000011
 50
286.95776330000518
 51
0.0
  0
ARC
  5
1FC
  8
1
 62
     7
 10
263.75
 20
-28.989120141624511
 30
0.0
 40
1.0
 50
180.0
 51
253.0422366999947
  0
ARC
  5
1FD
  8
1
 62
     7
 10
270.89999999999992
 20
-5.128498911788121
 30
0.0
 40
1.8000000000000389
 50
133.81306146040441
 51
180.0
  0
ARC
  5
1FE
  8
1
 62
     7
 10
267.80000000000001
 20
-6.3638694583963513
 30
0.0
 40
1.2999999999999949
 50
270.0
 51
0.0
  0
ARC
  5
1FF
  8
1
 62
     7
 10
263.19999999999999
 20
-6.3638694583963513
 30
0.0
 40
1.30000000000001
 50
180.0
 51
270.0
  0
ARC
  5
200
  8
1
 62
     7
 10
260.10000000000002
 20
-5.128498911788121
 30
0.0
 40
1.7999999999999541
 50
0.0
 51
46.186938539593619
  0
ARC
  5
201
  8
1
 62
     7
 10
156.1999999999999
 20
-28.549999999999979
 30
0.0
 40
0.3000000000000114
 50
0.0
 51
90.0
  0
ARC
  5
202
  8
1
 62
     7
 10
151.30000000000001
 20
-28.549999999999979
 30
0.0
 40
0.3000000000000185
 50
90.0
 51
180.0
  0
ARC
  5
203
  8
1
 62
     7
 10
155.49999999999989
 20
-28.989120141624479
 30
0.0
 40
1.000000000000012
 50
286.95776330000677
 51
0.0
  0
ARC
  5
204
  8
1
 62
     7
 10
152.0
 20
-28.989120141624479
 30
0.0
 40
1.0
 50
180.0
 51
253.042236699993
  0
ARC
  5
205
  8
1
 62
     7
 10
-5.3999999999999764
 20
-5.128498911788121
 30
0.0
 40
1.799999999999996
 50
0.0
 51
46.186938539597001
  0
ARC
  5
206
  8
1
 62
     7
 10
-2.2999999999999821
 20
-6.3638694583963513
 30
0.0
 40
1.299999999999996
 50
180.0
 51
270.0
  0
ARC
  5
207
  8
1
 62
     7
 10
2.2999999999999972
 20
-6.3638694583963513
 30
0.0
 40
1.2999999999999949
 50
270.0
 51
0.0
  0
ARC
  5
208
  8
1
 62
     7
 10
5.3999999999999906
 20
-5.128498911788121
 30
0.0
 40
1.8
 50
133.81306146040311
 51
180.0
  0
ARC
  5
209
  8
1
  6
DASHDOT
 62
     3
 10
265.5
 20
0.0
 30
0.0
 40
21.499999999999961
 50
320.66245013182697
 51
339.33754986817257
  0
ARC
  5
20A
  8
1
  6
DASHDOT
 62
     3
 10
265.5
 20
0.0
 30
0.0
 40
21.500000000000028
 50
200.66245013182709
 51
219.33754986817269
  0
ARC
  5
20B
  8
1
  6
DASHDOT
 62
     3
 10
265.5
 20
0.0
 30
0.0
 40
21.500000000000028
 50
80.662450131827214
 51
99.337549868172772
  0
ARC
  5
20C
  8
1
 62
     7
 10
20.135090637988171
 20
11.625
 30
0.0
 40
7.0000000000000178
 50
13.04223669999554
 51
46.957763300004032
  0
ARC
  5
20D
  8
1
 62
     7
 10
-20.135090637988231
 20
11.625
 30
0.0
 40
6.9999999999999876
 50
133.0422366999955
 51
166.95776330000419
  0
ARC
  5
20E
  8
1
 62
     7
 10
0.0
 20
-23.250000000000011
 30
0.0
 40
7.0000000000000018
 50
253.04223669999581
 51
286.95776330000427
  0
ARC
  5
20F
  8
1
 62
     7
 10
245.3649093620117
 20
11.625
 30
0.0
 40
7.0000000000000071
 50
133.04223669999621
 51
166.95776330000439
  0
ARC
  5
210
  8
1
 62
     7
 10
285.63509063798813
 20
11.625
 30
0.0
 40
7.0000000000000968
 50
13.042236699995319
 51
46.957763300004281
  0
ARC
  5
211
  8
1
 62
     7
 10
265.5
 20
-23.250000000000011
 30
0.0
 40
7.0000000000000027
 50
253.04223669999561
 51
286.95776330000427
  0
ARC
  5
212
  8
1
 62
     7
 10
265.5
 20
0.5
 30
0.0
 40
5.9999999999999476
 50
313.81306146040259
 51
226.18693853959789
  0
ARC
  5
213
  8
1
 62
     7
 10
153.75
 20
-23.249999999999961
 30
0.0
 40
7.0000000000000213
 50
253.04223669999541
 51
286.95776330000439
  0
ARC
  5
214
  8
1
 62
     7
 10
0.0
 20
0.0
 30
0.0
 40
28.25
 50
93.734474927969202
 51
86.265525072030783
  0
ARC
  5
215
  8
1
 62
     7
 10
0.0
 20
0.5
 30
0.0
 40
5.9999999999999973
 50
313.81306146040322
 51
226.18693853959701
  0
CIRCLE
  5
216
  8
1
 62
     7
 10
284.11954618136531
 20
-10.750000000000011
 30
0.0
 40
2.0669999999999491
  0
CIRCLE
  5
217
  8
1
 62
     3
 10
284.11954618136531
 20
-10.750000000000011
 30
0.0
 40
2.5
  0
CIRCLE
  5
218
  8
1
 62
     7
 10
246.88045381863441
 20
-10.749999999999989
 30
0.0
 40
2.0670000000000059
  0
CIRCLE
  5
219
  8
1
 62
     3
 10
246.88045381863441
 20
-10.749999999999989
 30
0.0
 40
2.5
  0
CIRCLE
  5
21A
  8
1
 62
     7
 10
265.5
 20
21.500000000000011
 30
0.0
 40
2.0670000000000059
  0
CIRCLE
  5
21B
  8
1
 62
     3
 10
265.5
 20
21.500000000000011
 30
0.0
 40
2.5
  0
CIRCLE
  5
21C
  8
1
 62
     7
 10
265.5
 20
0.0
 30
0.0
 40
16.0
  0
CIRCLE
  5
21D
  8
1
 62
     7
 10
267.40843727384942
 20
-6.3832591205142366
 30
0.0
 40
0.8000000000000113
  0
CIRCLE
  5
21E
  8
1
 62
     7
 10
263.59156272615053
 20
-6.3832591205142366
 30
0.0
 40
0.7999999999999546
  0
CIRCLE
  5
21F
  8
1
 62
     7
 10
0.0
 20
0.0
 30
0.0
 40
5.0000000000000178
  0
CIRCLE
  5
220
  8
1
 62
     7
 10
0.0
 20
0.0
 30
0.0
 40
13.0
  0
CIRCLE
  5
221
  8
1
 62
     7
 10
0.0
 20
0.0
 30
0.0
 40
25.500000000000011
  0
CIRCLE
  5
222
  8
1
 62
     7
 10
265.5
 20
0.0
 30
0.0
 40
5.0
  0
CIRCLE
  5
223
  8
1
 62
     7
 10
265.5
 20
0.0
 30
0.0
 40
13.0
  0
CIRCLE
  5
224
  8
1
 62
     7
 10
265.5
 20
0.0
 30
0.0
 40
28.25
  0
CIRCLE
  5
225
  8
1
 62
     7
 10
-1.908437273849543
 20
-6.3832591205142366
 30
0.0
 40
0.7999999999999971
  0
CIRCLE
  5
226
  8
1
 62
     7
 10
1.9084372738495561
 20
-6.3832591205142366
 30
0.0
 40
0.7999999999999981
  0
TEXT
  5
228
  8
1
 62
     7
 10
-24.031314759666252
 20
63.985846398070287
 30
0.0
 40
4.0
  1
AMP 20
 41
0.9
  7
SIMPLEX
  0
ENDSEC
  0
EOF
