  0
SECTION
  2
HEADER
  9
$ACADVER
  1
AC1009
  9
$INSBASE
 10
0.0
 20
0.0
 30
0.0
  9
$EXTMIN
 10
-19.25
 20
-20.550000000000001
 30
0.0
  9
$EXTMAX
 10
211.75
 20
62.37340933191939
 30
0.0
  9
$LIMMIN
 10
-19.249999999999979
 20
-20.550000000000011
  9
$LIMMAX
 10
211.75
 20
62.37340933191939
  9
$ORTHOMODE
 70
     0
  9
$REGENMODE
 70
     1
  9
$FILLMODE
 70
     1
  9
$QTEXTMODE
 70
     0
  9
$MIRRTEXT
 70
     1
  9
$DRAGMODE
 70
     2
  9
$LTSCALE
 40
1.0
  9
$OSMODE
 70
    37
  9
$ATTMODE
 70
     1
  9
$TEXTSIZE
 40
3.5
  9
$TRACEWID
 40
0.5
  9
$TEXTSTYLE
  7
STANDARD
  9
$CLAYER
  8
0
  9
$CELTYPE
  6
BYLAYER
  9
$CECOLOR
 62
   256
  9
$DIMSCALE
 40
1.0
  9
$DIMASZ
 40
0.18
  9
$DIMEXO
 40
0.0625
  9
$DIMDLI
 40
0.38
  9
$DIMRND
 40
0.0
  9
$DIMDLE
 40
0.0
  9
$DIMEXE
 40
0.18
  9
$DIMTP
 40
0.0
  9
$DIMTM
 40
0.0
  9
$DIMTXT
 40
0.18
  9
$DIMCEN
 40
0.09
  9
$DIMTSZ
 40
0.0
  9
$DIMTOL
 70
     0
  9
$DIMLIM
 70
     0
  9
$DIMTIH
 70
     1
  9
$DIMTOH
 70
     1
  9
$DIMSE1
 70
     0
  9
$DIMSE2
 70
     0
  9
$DIMTAD
 70
     0
  9
$DIMZIN
 70
     0
  9
$DIMBLK
  1

  9
$DIMASO
 70
     1
  9
$DIMSHO
 70
     1
  9
$DIMPOST
  1

  9
$DIMAPOST
  1

  9
$DIMALT
 70
     0
  9
$DIMALTD
 70
     2
  9
$DIMALTF
 40
25.399999999999999
  9
$DIMLFAC
 40
1.0
  9
$DIMTOFL
 70
     0
  9
$DIMTVP
 40
0.0
  9
$DIMTIX
 70
     0
  9
$DIMSOXD
 70
     0
  9
$DIMSAH
 70
     0
  9
$DIMBLK1
  1

  9
$DIMBLK2
  1

  9
$DIMSTYLE
  2
STANDARD
  9
$DIMCLRD
 70
     0
  9
$DIMCLRE
 70
     0
  9
$DIMCLRT
 70
     0
  9
$DIMTFAC
 40
1.0
  9
$DIMGAP
 40
0.09
  9
$LUNITS
 70
     2
  9
$LUPREC
 70
     4
  9
$SKETCHINC
 40
0.1
  9
$FILLETRAD
 40
2.0
  9
$AUNITS
 70
     0
  9
$AUPREC
 70
     0
  9
$MENU
  1
ACAD
  9
$ELEVATION
 40
0.0
  9
$PELEVATION
 40
0.0
  9
$THICKNESS
 40
0.0
  9
$LIMCHECK
 70
     0
  9
$BLIPMODE
 70
     0
  9
$CHAMFERA
 40
0.0
  9
$CHAMFERB
 40
0.0
  9
$SKPOLY
 70
     0
  9
$TDCREATE
 40
2452093.9012204851
  9
$TDUPDATE
 40
2452093.90169919
  9
$TDINDWG
 40
0.0004831019
  9
$TDUSRTIMER
 40
0.0004831019
  9
$USRTIMER
 70
     1
  9
$ANGBASE
 50
0.0
  9
$ANGDIR
 70
     0
  9
$PDMODE
 70
     0
  9
$PDSIZE
 40
0.0
  9
$PLINEWID
 40
0.0
  9
$COORDS
 70
     1
  9
$SPLFRAME
 70
     0
  9
$SPLINETYPE
 70
     6
  9
$SPLINESEGS
 70
     8
  9
$ATTDIA
 70
     0
  9
$ATTREQ
 70
     1
  9
$HANDLING
 70
 10241
  9
$HANDSEED
  5
36D
  9
$SURFTAB1
 70
     6
  9
$SURFTAB2
 70
     6
  9
$SURFTYPE
 70
     6
  9
$SURFU
 70
     6
  9
$SURFV
 70
     6
  9
$UCSNAME
  2

  9
$UCSORG
 10
0.0
 20
0.0
 30
0.0
  9
$UCSXDIR
 10
1.0
 20
0.0
 30
0.0
  9
$UCSYDIR
 10
0.0
 20
1.0
 30
0.0
  9
$PUCSNAME
  2

  9
$PUCSORG
 10
0.0
 20
0.0
 30
0.0
  9
$PUCSXDIR
 10
1.0
 20
0.0
 30
0.0
  9
$PUCSYDIR
 10
0.0
 20
1.0
 30
0.0
  9
$USERI1
 70
     0
  9
$USERI2
 70
     0
  9
$USERI3
 70
     0
  9
$USERI4
 70
     0
  9
$USERI5
 70
     0
  9
$USERR1
 40
0.0
  9
$USERR2
 40
0.0
  9
$USERR3
 40
0.0
  9
$USERR4
 40
0.0
  9
$USERR5
 40
0.0
  9
$WORLDVIEW
 70
     1
  9
$SHADEDGE
 70
     3
  9
$SHADEDIF
 70
    70
  9
$TILEMODE
 70
     1
  9
$MAXACTVP
 70
    64
  9
$PLIMCHECK
 70
     0
  9
$PEXTMIN
 10
1.0000000000000000E+020
 20
1.0000000000000000E+020
 30
1.0000000000000000E+020
  9
$PEXTMAX
 10
-1.0000000000000000E+020
 20
-1.0000000000000000E+020
 30
-1.0000000000000000E+020
  9
$PLIMMIN
 10
0.0
 20
0.0
  9
$PLIMMAX
 10
12.0
 20
9.0
  9
$UNITMODE
 70
     0
  9
$VISRETAIN
 70
     1
  9
$PLINEGEN
 70
     0
  9
$PSLTSCALE
 70
     1
  0
ENDSEC
  0
SECTION
  2
TABLES
  0
TABLE
  2
VPORT
 70
     2
  0
VPORT
  2
*ACTIVE
 70
     0
 10
0.0
 20
0.0
 11
1.0
 21
1.0
 12
-1.1562073695531589
 22
56.690553583034479
 13
0.0
 23
0.0
 14
1.0
 24
1.0
 15
0.0
 25
0.0
 16
0.0
 26
0.0
 36
1.0
 17
0.0
 27
0.0
 37
0.0
 40
8.9999999513240816
 41
2.5693779904306222
 42
50.0
 43
0.0
 44
0.0
 50
0.0
 51
0.0
 71
     0
 72
   100
 73
     1
 74
     1
 75
     0
 76
     0
 77
     0
 78
     0
  0
ENDTAB
  0
TABLE
  2
LTYPE
 70
     9
  0
LTYPE
  2
CONTINUOUS
 70
     0
  3
Solid line
 72
    65
 73
     0
 40
0.0
  0
LTYPE
  2
BORDER
 70
     0
  3
__ __ . __ __ .
 72
    65
 73
     6
 40
10.63815789473683
 49
3.0394736842105261
 49
-1.5197368421052631
 49
3.0394736842105261
 49
-1.5197368421052631
 49
0.0
 49
-1.5197368421052631
  0
LTYPE
  2
CENTER
 70
     0
  3
____ _ ____ _
 72
    65
 73
     4
 40
12.157894736842101
 49
7.598684210526315
 49
-1.5197368421052631
 49
1.5197368421052631
 49
-1.5197368421052631
  0
LTYPE
  2
DASHDOT
 70
     0
  3
__ . __ . __ .
 72
    65
 73
     4
 40
6.0789473684210531
 49
3.0394736842105261
 49
-1.5197368421052631
 49
0.0
 49
-1.5197368421052631
  0
LTYPE
  2
DASHED
 70
     0
  3
__ __ __ __ __
 72
    65
 73
     2
 40
4.5592105263157894
 49
3.0394736842105261
 49
-1.5197368421052631
  0
LTYPE
  2
DIVIDE
 70
     0
  3
__ . . __ . . 
 72
    65
 73
     6
 40
7.598684210526315
 49
3.0394736842105261
 49
-1.5197368421052631
 49
0.0
 49
-1.5197368421052631
 49
0.0
 49
-1.5197368421052631
  0
LTYPE
  2
DOT
 70
     0
  3
..............
 72
    65
 73
     4
 40
3.0394736842105261
 49
0.0
 49
-1.5197368421052631
 49
0.0
 49
-1.5197368421052631
  0
LTYPE
  2
HIDDEN
 70
     0
  3
_ _ _ _ _ _ _
 72
    65
 73
     2
 40
2.2796052631578938
 49
1.5197368421052631
 49
-0.7598684210526315
  0
LTYPE
  2
PHANTOM
 70
     0
  3
_____ _ _ _____ _ _ 
 72
    65
 73
     6
 40
15.19736842105263
 49
7.598684210526315
 49
-1.5197368421052631
 49
1.5197368421052631
 49
-1.5197368421052631
 49
1.5197368421052631
 49
-1.5197368421052631
  0
ENDTAB
  0
TABLE
  2
LAYER
 70
     2
  0
LAYER
  2
0
 70
     0
 62
     7
  6
CONTINUOUS
  0
LAYER
  2
1
 70
     0
 62
     7
  6
CONTINUOUS
  0
ENDTAB
  0
TABLE
  2
STYLE
 70
     4
  0
STYLE
  2
STANDARD
 70
     0
 40
0.0
 41
1.0
 50
0.0
 71
     0
 42
3.5
  3
txt
  4

  0
STYLE
  2
SIMPLEX
 70
     0
 40
0.0
 41
1.0
 50
0.0
 71
     0
 42
3.5
  3
simplex
  4

  0
STYLE
  2
COMPLEX
 70
     0
 40
0.0
 41
1.0
 50
0.0
 71
     0
 42
3.5
  3
complex
  4

  0
STYLE
  2
ITALIC
 70
     0
 40
0.0
 41
1.0
 50
0.0
 71
     0
 42
3.5
  3
italic
  4

  0
ENDTAB
  0
TABLE
  2
VIEW
 70
     0
  0
ENDTAB
  0
TABLE
  2
UCS
 70
     0
  0
ENDTAB
  0
TABLE
  2
APPID
 70
     1
  0
APPID
  2
ACAD
 70
     0
  0
ENDTAB
  0
TABLE
  2
DIMSTYLE
 70
     1
  0
DIMSTYLE
  2
STANDARD
 70
     0
  3

  4

  5

  6

  7

 40
1.0
 41
0.18
 42
0.0625
 43
0.38
 44
0.18
 45
0.0
 46
0.0
 47
0.0
 48
0.0
140
0.18
141
0.09
142
0.0
143
25.399999999999999
144
1.0
145
0.0
146
1.0
147
0.09
 71
     0
 72
     0
 73
     1
 74
     1
 75
     0
 76
     0
 77
     0
 78
     0
170
     0
171
     2
172
     0
173
     0
174
     0
175
     0
176
     0
177
     0
178
     0
  0
ENDTAB
  0
ENDSEC
  0
SECTION
  2
BLOCKS
  0
BLOCK
  8
0
  2
$MODEL_SPACE
 70
     0
 10
0.0
 20
0.0
 30
0.0
  3
$MODEL_SPACE
  1

  0
ENDBLK
  5
20
  8
0
  0
BLOCK
 67
     1
  8
0
  2
$PAPER_SPACE
 70
     0
 10
0.0
 20
0.0
 30
0.0
  3
$PAPER_SPACE
  1

  0
ENDBLK
  5
1C
 67
     1
  8
0
  0
ENDSEC
  0
SECTION
  2
ENTITIES
  0
POLYLINE
  5
33
  8
1
 62
     7
 66
     1
 10
0.0
 20
0.0
 30
0.0
  0
VERTEX
  5
238
  8
1
 62
     7
 10
111.4999999999999
 20
9.8882968094214103
 30
0.0
 42
0.0003844088609576
  0
VERTEX
  5
239
  8
1
 62
     7
 10
111.4984486580109
 20
9.9147956272098128
 30
0.0
 42
0.0008899906482772
  0
VERTEX
  5
23A
  8
1
 62
     7
 10
111.4968302068561
 20
9.9412834350296233
 30
0.0
 42
0.0016607812351413
  0
VERTEX
  5
23B
  8
1
 62
     7
 10
111.4950775373698
 20
9.9677492229122393
 30
0.0
 42
0.0021700659710078
  0
VERTEX
  5
23C
  8
1
 62
     7
 10
111.49312354038661
 20
9.9941819808890688
 30
0.0
 42
0.0029458024632607
  0
VERTEX
  5
23D
  8
1
 62
     7
 10
111.49090110674079
 20
10.0205706989915
 30
0.0
 42
0.0034605288212546
  0
VERTEX
  5
23E
  8
1
 62
     7
 10
111.4883431272664
 20
10.046904367250971
 30
0.0
 42
0.0042411953135938
  0
VERTEX
  5
23F
  8
1
 62
     7
 10
111.485382492798
 20
10.07317197569888
 30
0.0
 42
0.0047590505217207
  0
VERTEX
  5
240
  8
1
 62
     7
 10
111.4819520941699
 20
10.0993625143666
 30
0.0
 42
0.0055394897692869
  0
VERTEX
  5
241
  8
1
 62
     7
 10
111.4779848222162
 20
10.12546497328557
 30
0.0
 42
0.012404370464183
  0
VERTEX
  5
242
  8
1
 62
     7
 10
111.4681323826552
 20
10.177616064642599
 30
0.0
 42
0.0063741598849762
  0
VERTEX
  5
243
  8
1
 62
     7
 10
111.46219507099769
 20
10.20364393902803
 30
0.0
 42
0.0056131457695632
  0
VERTEX
  5
244
  8
1
 62
     7
 10
111.4556298499997
 20
10.229544391704311
 30
0.0
 42
0.0058765036287477
  0
VERTEX
  5
245
  8
1
 62
     7
 10
111.44846493686251
 20
10.255309848732271
 30
0.0
 42
0.005123413467899
  0
VERTEX
  5
246
  8
1
 62
     7
 10
111.44072854878711
 20
10.280932736172741
 30
0.0
 42
0.005395965056303
  0
VERTEX
  5
247
  8
1
 62
     7
 10
111.4324489029744
 20
10.306405480086561
 30
0.0
 42
0.0046530275199258
  0
VERTEX
  5
248
  8
1
 62
     7
 10
111.42365421662591
 20
10.331720506534539
 30
0.0
 42
0.0049363919098928
  0
VERTEX
  5
249
  8
1
 62
     7
 10
111.4143727069424
 20
10.35687024157756
 30
0.0
 42
0.0042046811037594
  0
VERTEX
  5
24A
  8
1
 62
     7
 10
111.40463259112521
 20
10.38184711127642
 30
0.0
 42
0.0044994525011932
  0
VERTEX
  5
24B
  8
1
 62
     7
 10
111.3944620863753
 20
10.40664354169194
 30
0.0
 42
0.0120413864232288
  0
VERTEX
  5
24C
  8
1
 62
     7
 10
111.3610719572124
 20
10.48095087843639
 30
0.0
 42
0.0058675415765844
  0
VERTEX
  5
24D
  8
1
 62
     7
 10
111.34306877532789
 20
10.517459348051579
 30
0.0
 42
0.005537710857271
  0
VERTEX
  5
24E
  8
1
 62
     7
 10
111.32424067098221
 20
10.553541777895971
 30
0.0
 42
0.0054666197879303
  0
VERTEX
  5
24F
  8
1
 62
     7
 10
111.3046230109816
 20
10.58920123751993
 30
0.0
 42
0.0051374675811376
  0
VERTEX
  5
250
  8
1
 62
     7
 10
111.2842511621314
 20
10.624440796473881
 30
0.0
 42
0.0050684476259572
  0
VERTEX
  5
251
  8
1
 62
     7
 10
111.2631604912376
 20
10.65926352430821
 30
0.0
 42
0.0047425482585584
  0
VERTEX
  5
252
  8
1
 62
     7
 10
111.2413863651059
 20
10.69367249057332
 30
0.0
 42
0.0046777580822916
  0
VERTEX
  5
253
  8
1
 62
     7
 10
111.21896415054211
 20
10.727670764819591
 30
0.0
 42
0.0043568772120237
  0
VERTEX
  5
254
  8
1
 62
     7
 10
111.19592921435201
 20
10.76126141659747
 30
0.0
 42
0.0029266825361115
  0
VERTEX
  5
255
  8
1
 62
     7
 10
111.18056293992331
 20
10.78298392960923
 30
0.0
 42
0.0031276930733312
  0
VERTEX
  5
256
  8
1
 62
     7
 10
111.164937055157
 20
10.804515635517649
 30
0.0
 42
0.00333042341238
  0
VERTEX
  5
257
  8
1
 62
     7
 10
111.1490383556666
 20
10.825838384037979
 30
0.0
 42
0.0035345213921238
  0
VERTEX
  5
258
  8
1
 62
     7
 10
111.13285363706559
 20
10.84693402488538
 30
0.0
 42
0.0037400881653389
  0
VERTEX
  5
259
  8
1
 62
     7
 10
111.1163696949674
 20
10.867784407775099
 30
0.0
 42
0.0039466338766253
  0
VERTEX
  5
25A
  8
1
 62
     7
 10
111.0995733249854
 20
10.888371382422349
 30
0.0
 42
0.0041541106692345
  0
VERTEX
  5
25B
  8
1
 62
     7
 10
111.08245132273299
 20
10.908676798542309
 30
0.0
 42
0.0043618687344487
  0
VERTEX
  5
25C
  8
1
 62
     7
 10
111.06499048382371
 20
10.928682505850229
 30
0.0
 42
0.0215925336458293
  0
VERTEX
  5
25D
  8
1
 62
     7
 10
111.00997199476279
 20
10.987200409308089
 30
0.0
 42
0.0025565807496837
  0
VERTEX
  5
25E
  8
1
 62
     7
 10
110.9707812564389
 20
11.02504449563415
 30
0.0
 42
0.0162165575045103
  0
VERTEX
  5
25F
  8
1
 62
     7
 10
110.9301726593344
 20
11.06141330660167
 30
0.0
 42
0.0017625019750565
  0
VERTEX
  5
260
  8
1
 62
     7
 10
110.88826200630891
 20
11.09631626619424
 30
0.0
 42
0.0486124486907861
  0
VERTEX
  5
261
  8
1
 62
     7
 10
110.65873458461731
 20
11.251246300565519
 30
0.0
 42
0.1508156928739773
  0
VERTEX
  5
262
  8
1
 62
     7
 10
109.5466541774386
 20
11.473462970792241
 30
0.0
 42
0.0437473792515202
  0
VERTEX
  5
263
  8
1
 62
     7
 10
109.2343263124646
 20
11.41352856355798
 30
0.0
 42
0.0217955337824624
  0
VERTEX
  5
264
  8
1
 62
     7
 10
109.0714427599749
 20
11.359439621737231
 30
0.0
 42
0.0496921334444981
  0
VERTEX
  5
265
  8
1
 62
     7
 10
108.76932463718521
 20
11.208435928830641
 30
0.0
 42
0.0196300289111658
  0
VERTEX
  5
266
  8
1
 62
     7
 10
108.6548348997772
 20
11.129762798395481
 30
0.0
 42
0.0093348663649569
  0
VERTEX
  5
267
  8
1
 62
     7
 10
108.61173799369099
 20
11.09631626619424
 30
0.0
 42
0.0078842561535809
  0
VERTEX
  5
268
  8
1
 62
     7
 10
108.5698273406655
 20
11.06141330660167
 30
0.0
 42
0.0290026514336473
  0
VERTEX
  5
269
  8
1
 62
     7
 10
108.45282239612889
 20
10.9483703540613
 30
0.0
 42
0.004594181717703
  0
VERTEX
  5
26A
  8
1
 62
     7
 10
108.43500951617629
 20
10.928682505850229
 30
0.0
 42
0.0043373772509138
  0
VERTEX
  5
26B
  8
1
 62
     7
 10
108.41754867726701
 20
10.908676798542309
 30
0.0
 42
0.0041786021147484
  0
VERTEX
  5
26C
  8
1
 62
     7
 10
108.4004266750145
 20
10.888371382422349
 30
0.0
 42
0.0039221424771324
  0
VERTEX
  5
26D
  8
1
 62
     7
 10
108.3836303050325
 20
10.867784407775099
 30
0.0
 42
0.0037645795305594
  0
VERTEX
  5
26E
  8
1
 62
     7
 10
108.36714636293431
 20
10.84693402488538
 30
0.0
 42
0.0035100300678919
  0
VERTEX
  5
26F
  8
1
 62
     7
 10
108.3509616443333
 20
10.825838384037979
 30
0.0
 42
0.0033549147066284
  0
VERTEX
  5
270
  8
1
 62
     7
 10
108.3350629448429
 20
10.804515635517649
 30
0.0
 42
0.0106012722473167
  0
VERTEX
  5
271
  8
1
 62
     7
 10
108.28103584945779
 20
10.727670764819591
 30
0.0
 42
0.004273922112337
  0
VERTEX
  5
272
  8
1
 62
     7
 10
108.2586136348939
 20
10.693672490573309
 30
0.0
 42
0.0051463860112332
  0
VERTEX
  5
273
  8
1
 62
     7
 10
108.2368395087623
 20
10.65926352430821
 30
0.0
 42
0.0046646101820815
  0
VERTEX
  5
274
  8
1
 62
     7
 10
108.2157488378685
 20
10.624440796473881
 30
0.0
 42
0.005541306973867
  0
VERTEX
  5
275
  8
1
 62
     7
 10
108.1953769890183
 20
10.58920123751993
 30
0.0
 42
0.0050627807150287
  0
VERTEX
  5
276
  8
1
 62
     7
 10
108.17575932901769
 20
10.553541777895971
 30
0.0
 42
0.0059415520406984
  0
VERTEX
  5
277
  8
1
 62
     7
 10
108.15693122467199
 20
10.517459348051579
 30
0.0
 42
0.0054637007340198
  0
VERTEX
  5
278
  8
1
 62
     7
 10
108.1389280427875
 20
10.480950878436399
 30
0.0
 42
0.0124452748366822
  0
VERTEX
  5
279
  8
1
 62
     7
 10
108.1055379136246
 20
10.40664354169194
 30
0.0
 42
0.0040956171629694
  0
VERTEX
  5
27A
  8
1
 62
     7
 10
108.09536740887469
 20
10.38184711127642
 30
0.0
 42
0.0046085168253515
  0
VERTEX
  5
27B
  8
1
 62
     7
 10
108.0856272930575
 20
10.35687024157756
 30
0.0
 42
0.0045325549779545
  0
VERTEX
  5
27C
  8
1
 62
     7
 10
108.07634578337399
 20
10.331720506534539
 30
0.0
 42
0.0050568649184033
  0
VERTEX
  5
27D
  8
1
 62
     7
 10
108.0675510970255
 20
10.306405480086561
 30
0.0
 42
0.0049921262817387
  0
VERTEX
  5
27E
  8
1
 62
     7
 10
108.05927145121289
 20
10.280932736172741
 30
0.0
 42
0.0055272528001758
  0
VERTEX
  5
27F
  8
1
 62
     7
 10
108.05153506313739
 20
10.255309848732271
 30
0.0
 42
0.0054726627450769
  0
VERTEX
  5
280
  8
1
 62
     7
 10
108.0443701500002
 20
10.229544391704311
 30
0.0
 42
0.0060169873050551
  0
VERTEX
  5
281
  8
1
 62
     7
 10
108.03780492900231
 20
10.20364393902803
 30
0.0
 42
0.0059703166204857
  0
VERTEX
  5
282
  8
1
 62
     7
 10
108.0318676173447
 20
10.177616064642599
 30
0.0
 42
0.0065209343488175
  0
VERTEX
  5
283
  8
1
 62
     7
 10
108.0265864322285
 20
10.15146834248716
 30
0.0
 42
0.0061178292469039
  0
VERTEX
  5
284
  8
1
 62
     7
 10
108.0220151777838
 20
10.12546497328557
 30
0.0
 42
0.0054735945745677
  0
VERTEX
  5
285
  8
1
 62
     7
 10
108.0180479058302
 20
10.0993625143666
 30
0.0
 42
0.0048249452310049
  0
VERTEX
  5
286
  8
1
 62
     7
 10
108.0146175072019
 20
10.07317197569888
 30
0.0
 42
0.0041753009507768
  0
VERTEX
  5
287
  8
1
 62
     7
 10
108.0116568727335
 20
10.046904367250971
 30
0.0
 42
0.0035264228213275
  0
VERTEX
  5
288
  8
1
 62
     7
 10
108.00909889325921
 20
10.0205706989915
 30
0.0
 42
0.0028799087082932
  0
VERTEX
  5
289
  8
1
 62
     7
 10
108.0068764596133
 20
9.9941819808890688
 30
0.0
 42
0.0022359594866837
  0
VERTEX
  5
28A
  8
1
 62
     7
 10
108.00492246263011
 20
9.9677492229122393
 30
0.0
 42
0.0015948878646556
  0
VERTEX
  5
28B
  8
1
 62
     7
 10
108.0031697931439
 20
9.9412834350296233
 30
0.0
 42
0.0009558839002848
  0
VERTEX
  5
28C
  8
1
 62
     7
 10
108.001551341989
 20
9.9147956272098128
 30
0.0
 42
0.0003185156569392
  0
VERTEX
  5
28D
  8
1
 62
     7
 10
108.0
 20
9.8882968094214103
 30
0.0
  0
SEQEND
  5
28E
  8
1
 62
     7
  0
POLYLINE
  5
8B
  8
1
 62
     7
 66
     1
 10
0.0
 20
0.0
 30
0.0
  0
VERTEX
  5
28F
  8
1
 62
     7
 10
108.0
 20
9.7750000000000021
 30
0.0
 42
0.0002453620931962
  0
VERTEX
  5
290
  8
1
 62
     7
 10
108.00155984588559
 20
9.7485047621755161
 30
0.0
 42
0.0010192836295109
  0
VERTEX
  5
291
  8
1
 62
     7
 10
108.0031862855493
 20
9.7220203173521167
 30
0.0
 42
0.0015119066744161
  0
VERTEX
  5
292
  8
1
 62
     7
 10
108.0049459127689
 20
9.6955574585308835
 30
0.0
 42
0.0022893901275719
  0
VERTEX
  5
293
  8
1
 62
     7
 10
108.00690532132271
 20
9.6691269787129084
 30
0.0
 42
0.0027867581789966
  0
VERTEX
  5
294
  8
1
 62
     7
 10
108.0091311049885
 20
9.6427396708992763
 30
0.0
 42
0.0035694444905615
  0
VERTEX
  5
295
  8
1
 62
     7
 10
108.0116898575443
 20
9.6164063280910721
 30
0.0
 42
0.0040714820312843
  0
VERTEX
  5
296
  8
1
 62
     7
 10
108.0146481727682
 20
9.5901377432893824
 30
0.0
 42
0.0048570544260945
  0
VERTEX
  5
297
  8
1
 62
     7
 10
108.01807264443831
 20
9.5639447094952885
 30
0.0
 42
0.0053586670422949
  0
VERTEX
  5
298
  8
1
 62
     7
 10
108.0220298663324
 20
9.5378380197098824
 30
0.0
 42
0.0124433706685628
  0
VERTEX
  5
299
  8
1
 62
     7
 10
108.0318480774028
 20
9.4856725188689204
 30
0.0
 42
0.0062333771182636
  0
VERTEX
  5
29A
  8
1
 62
     7
 10
108.03776321106599
 20
9.4596353080082682
 30
0.0
 42
0.0057521479787828
  0
VERTEX
  5
29B
  8
1
 62
     7
 10
108.0443062336154
 20
9.4337255102459388
 30
0.0
 42
0.0057887029518585
  0
VERTEX
  5
29C
  8
1
 62
     7
 10
108.0514515454479
 20
9.4079518014755887
 30
0.0
 42
0.0053156197651786
  0
VERTEX
  5
29D
  8
1
 62
     7
 10
108.05917354696059
 20
9.3823228575908661
 30
0.0
 42
0.0053614522489216
  0
VERTEX
  5
29E
  8
1
 62
     7
 10
108.06744663855071
 20
9.3568473544854243
 30
0.0
 42
0.0048985225390106
  0
VERTEX
  5
29F
  8
1
 62
     7
 10
108.07624522061499
 20
9.3315339680529075
 30
0.0
 42
0.0049551466589853
  0
VERTEX
  5
2A0
  8
1
 62
     7
 10
108.0855436935507
 20
9.3063913741869762
 30
0.0
 42
0.0045034448339944
  0
VERTEX
  5
2A1
  8
1
 62
     7
 10
108.0953164577549
 20
9.2814282487812765
 30
0.0
 42
0.0045715484750082
  0
VERTEX
  5
2A2
  8
1
 62
     7
 10
108.1055379136246
 20
9.2566532677294617
 30
0.0
 42
0.0107532032649623
  0
VERTEX
  5
2A3
  8
1
 62
     7
 10
108.133383928046
 20
9.1946227097028217
 30
0.0
 42
0.0105286502811553
  0
VERTEX
  5
2A4
  8
1
 62
     7
 10
108.1638189318744
 20
9.1338833398936519
 30
0.0
 42
0.0099305100185488
  0
VERTEX
  5
2A5
  8
1
 62
     7
 10
108.1967034535807
 20
9.0744570805504843
 30
0.0
 42
0.0097128244882991
  0
VERTEX
  5
2A6
  8
1
 62
     7
 10
108.2318980216364
 20
9.0163658539218527
 30
0.0
 42
0.0091310998258367
  0
VERTEX
  5
2A7
  8
1
 62
     7
 10
108.26926316451249
 20
8.9596315822562875
 30
0.0
 42
0.0074034654321565
  0
VERTEX
  5
2A8
  8
1
 62
     7
 10
108.30070884868471
 20
8.9151592754085076
 30
0.0
 42
0.0078807811842594
  0
VERTEX
  5
2A9
  8
1
 62
     7
 10
108.3334931988459
 20
8.8716765912828741
 30
0.0
 42
0.0499837397646634
  0
VERTEX
  5
2AA
  8
1
 62
     7
 10
108.4796564499897
 20
8.7087357820382731
 30
0.0
 42
0.0001122490530251
  0
VERTEX
  5
2AB
  8
1
 62
     7
 10
108.5415118324505
 20
8.6523113657068311
 30
0.0
 42
0.0264159739354835
  0
VERTEX
  5
2AC
  8
1
 62
     7
 10
108.60629925446359
 20
8.5992233404488534
 30
0.0
 42
0.2017166979237069
  0
VERTEX
  5
2AD
  8
1
 62
     7
 10
110.0761127587699
 20
8.2464464092582794
 30
0.0
 42
0.036584536572654
  0
VERTEX
  5
2AE
  8
1
 62
     7
 10
110.3347886476399
 20
8.3085625223665804
 30
0.0
 42
0.0216253044012843
  0
VERTEX
  5
2AF
  8
1
 62
     7
 10
110.4989723172129
 20
8.3688758039449969
 30
0.0
 42
0.0381261398110202
  0
VERTEX
  5
2B0
  8
1
 62
     7
 10
110.7299886545749
 20
8.4866629548377812
 30
0.0
 42
0.0232120264207592
  0
VERTEX
  5
2B1
  8
1
 62
     7
 10
110.87151040068881
 20
8.5822704677044186
 30
0.0
 42
0.0143928917256924
  0
VERTEX
  5
2B2
  8
1
 62
     7
 10
110.9372018490027
 20
8.6342441570435575
 30
0.0
 42
0.0117142137447412
  0
VERTEX
  5
2B3
  8
1
 62
     7
 10
111.0000712380894
 20
8.689557545797685
 30
0.0
 42
0.0156737749899234
  0
VERTEX
  5
2B4
  8
1
 62
     7
 10
111.0597886269732
 20
8.7482007089422247
 30
0.0
 42
0.0076679175251546
  0
VERTEX
  5
2B5
  8
1
 62
     7
 10
111.096788851759
 20
8.7880938646794053
 30
0.0
 42
0.0101494794289879
  0
VERTEX
  5
2B6
  8
1
 62
     7
 10
111.1323504722272
 20
8.8292869732497383
 30
0.0
 42
0.0320785440838938
  0
VERTEX
  5
2B7
  8
1
 62
     7
 10
111.2681019783634
 20
9.0163658539218599
 30
0.0
 42
0.0094408668577436
  0
VERTEX
  5
2B8
  8
1
 62
     7
 10
111.3032965464192
 20
9.0744570805504914
 30
0.0
 42
0.0102024702647023
  0
VERTEX
  5
2B9
  8
1
 62
     7
 10
111.3361810681255
 20
9.1338833398936554
 30
0.0
 42
0.0102566882201043
  0
VERTEX
  5
2BA
  8
1
 62
     7
 10
111.3666160719539
 20
9.1946227097028235
 30
0.0
 42
0.0110251681996679
  0
VERTEX
  5
2BB
  8
1
 62
     7
 10
111.3944620863753
 20
9.2566532677294617
 30
0.0
 42
0.0042996104342699
  0
VERTEX
  5
2BC
  8
1
 62
     7
 10
111.404683542245
 20
9.2814282487812765
 30
0.0
 42
0.0047753833780102
  0
VERTEX
  5
2BD
  8
1
 62
     7
 10
111.4144563064492
 20
9.3063913741869744
 30
0.0
 42
0.004683207652603
  0
VERTEX
  5
2BE
  8
1
 62
     7
 10
111.42375477938489
 20
9.3315339680529021
 30
0.0
 42
0.0051704621226013
  0
VERTEX
  5
2BF
  8
1
 62
     7
 10
111.43255336144929
 20
9.3568473544854172
 30
0.0
 42
0.005089512132215
  0
VERTEX
  5
2C0
  8
1
 62
     7
 10
111.44082645303919
 20
9.382322857590859
 30
0.0
 42
0.0055875605383763
  0
VERTEX
  5
2C1
  8
1
 62
     7
 10
111.448548454552
 20
9.4079518014755852
 30
0.0
 42
0.0055167615712945
  0
VERTEX
  5
2C2
  8
1
 62
     7
 10
111.4556937663846
 20
9.4337255102459352
 30
0.0
 42
0.0060240900978043
  0
VERTEX
  5
2C3
  8
1
 62
     7
 10
111.46223678893401
 20
9.4596353080082611
 30
0.0
 42
0.0059614343178995
  0
VERTEX
  5
2C4
  8
1
 62
     7
 10
111.4681519225972
 20
9.4856725188689168
 30
0.0
 42
0.0064754876228097
  0
VERTEX
  5
2C5
  8
1
 62
     7
 10
111.4734135677714
 20
9.5118284669342419
 30
0.0
 42
0.0060680131027568
  0
VERTEX
  5
2C6
  8
1
 62
     7
 10
111.4779701336676
 20
9.5378380197098807
 30
0.0
 42
0.0054293872913124
  0
VERTEX
  5
2C7
  8
1
 62
     7
 10
111.48192735556169
 20
9.5639447094952867
 30
0.0
 42
0.0047863345908233
  0
VERTEX
  5
2C8
  8
1
 62
     7
 10
111.4853518272317
 20
9.5901377432893824
 30
0.0
 42
0.0041422014149228
  0
VERTEX
  5
2C9
  8
1
 62
     7
 10
111.4883101424556
 20
9.6164063280910739
 30
0.0
 42
0.0034987254164102
  0
VERTEX
  5
2CA
  8
1
 62
     7
 10
111.4908688950114
 20
9.6427396708992781
 30
0.0
 42
0.0028574769331193
  0
VERTEX
  5
2CB
  8
1
 62
     7
 10
111.4930946786772
 20
9.6691269787129102
 30
0.0
 42
0.002218671577376
  0
VERTEX
  5
2CC
  8
1
 62
     7
 10
111.495054087231
 20
9.6955574585308835
 30
0.0
 42
0.001582625034621
  0
VERTEX
  5
2CD
  8
1
 62
     7
 10
111.4968137144507
 20
9.7220203173521167
 30
0.0
 42
0.0009485653698774
  0
VERTEX
  5
2CE
  8
1
 62
     7
 10
111.49844015411421
 20
9.7485047621755161
 30
0.0
 42
0.0003160802904744
  0
VERTEX
  5
2CF
  8
1
 62
     7
 10
111.4999999999999
 20
9.7750000000000021
 30
0.0
  0
SEQEND
  5
2D0
  8
1
 62
     7
  0
POLYLINE
  5
CE
  8
1
 62
     7
 66
     1
 10
0.0
 20
0.0
 30
0.0
  0
VERTEX
  5
2D1
  8
1
 62
     7
 10
109.91500000000001
 20
11.159370367090039
 30
0.0
 42
0.0003142229136752
  0
VERTEX
  5
2D2
  8
1
 62
     7
 10
109.9158365013808
 20
11.14521546449293
 30
0.0
 42
0.0009437769659419
  0
VERTEX
  5
2D3
  8
1
 62
     7
 10
109.9167083951078
 20
11.131066260292471
 30
0.0
 42
0.001574078070788
  0
VERTEX
  5
2D4
  8
1
 62
     7
 10
109.9176510735271
 20
11.116928452885309
 30
0.0
 42
0.0022071095307991
  0
VERTEX
  5
2D5
  8
1
 62
     7
 10
109.91869992898521
 20
11.10280774066811
 30
0.0
 42
0.0028420392836695
  0
VERTEX
  5
2D6
  8
1
 62
     7
 10
109.91989035382819
 20
11.08870982203752
 30
0.0
 42
0.0034801339435463
  0
VERTEX
  5
2D7
  8
1
 62
     7
 10
109.9212577404022
 20
11.07464039539016
 30
0.0
 42
0.0084241990276549
  0
VERTEX
  5
2D8
  8
1
 62
     7
 10
109.92283748105361
 20
11.060605159122719
 30
0.0
 42
0.0004559689845358
  0
VERTEX
  5
2D9
  8
1
 62
     7
 10
109.9246649681285
 20
11.046609811631839
 30
0.0
 42
0.0097040655618519
  0
VERTEX
  5
2DA
  8
1
 62
     7
 10
109.9267755939731
 20
11.03266005131416
 30
0.0
 42
0.0080023129251368
  0
VERTEX
  5
2DB
  8
1
 62
     7
 10
109.9320088542955
 20
11.004784243407491
 30
0.0
 42
0.0106061778906497
  0
VERTEX
  5
2DC
  8
1
 62
     7
 10
109.9351611461672
 20
10.990870001011549
 30
0.0
 42
0.0013787609864821
  0
VERTEX
  5
2DD
  8
1
 62
     7
 10
109.9386489026494
 20
10.977023830909181
 30
0.0
 42
0.01019705565659
  0
VERTEX
  5
2DE
  8
1
 62
     7
 10
109.94245939984241
 20
10.96325071463108
 30
0.0
 42
0.0836960415716118
  0
VERTEX
  5
2DF
  8
1
 62
     7
 10
110.0572212778349
 20
10.73004182656951
 30
0.0
 42
0.0189396516428127
  0
VERTEX
  5
2E0
  8
1
 62
     7
 10
110.0938303110521
 20
10.683083764503641
 30
0.0
 42
0.0262457329744605
  0
VERTEX
  5
2E1
  8
1
 62
     7
 10
110.1553857995581
 20
10.61734391838003
 30
0.0
 42
0.0262056361902013
  0
VERTEX
  5
2E2
  8
1
 62
     7
 10
110.2246054980934
 20
10.55743973906023
 30
0.0
 42
0.0289802364355136
  0
VERTEX
  5
2E3
  8
1
 62
     7
 10
110.31407633990349
 20
10.495829926997731
 30
0.0
 42
0.0248526178789581
  0
VERTEX
  5
2E4
  8
1
 62
     7
 10
110.3968211194362
 20
10.451119652451069
 30
0.0
 42
0.0116894684360815
  0
VERTEX
  5
2E5
  8
1
 62
     7
 10
110.440434514279
 20
10.43152145124494
 30
0.0
 42
0.0118177341696967
  0
VERTEX
  5
2E6
  8
1
 62
     7
 10
110.484935393368
 20
10.41398873770436
 30
0.0
 42
0.0107287698339803
  0
VERTEX
  5
2E7
  8
1
 62
     7
 10
110.53021116599049
 20
10.398469535028401
 30
0.0
 42
0.007678878807383
  0
VERTEX
  5
2E8
  8
1
 62
     7
 10
110.5612155988884
 20
10.38910230294486
 30
0.0
 42
0.007782677172619
  0
VERTEX
  5
2E9
  8
1
 62
     7
 10
110.5924917902874
 20
10.38069894515259
 30
0.0
 42
0.0085581546343383
  0
VERTEX
  5
2EA
  8
1
 62
     7
 10
110.62400854402649
 20
10.37332607887069
 30
0.0
 42
0.008698757730266
  0
VERTEX
  5
2EB
  8
1
 62
     7
 10
110.6557346639449
 20
10.367050321318301
 30
0.0
 42
0.0095065431682939
  0
VERTEX
  5
2EC
  8
1
 62
     7
 10
110.6876389538814
 20
10.36193828971453
 30
0.0
 42
0.0045905807653727
  0
VERTEX
  5
2ED
  8
1
 62
     7
 10
110.70376875829341
 20
10.359818265138699
 30
0.0
 42
0.0041077162763166
  0
VERTEX
  5
2EE
  8
1
 62
     7
 10
110.71993213118979
 20
10.35797924805534
 30
0.0
 42
0.0036228331349682
  0
VERTEX
  5
2EF
  8
1
 62
     7
 10
110.7361253427386
 20
10.356390015409771
 30
0.0
 42
0.0031373872364681
  0
VERTEX
  5
2F0
  8
1
 62
     7
 10
110.7523446631084
 20
10.35501934414723
 30
0.0
 42
0.002652145495988
  0
VERTEX
  5
2F1
  8
1
 62
     7
 10
110.7685863624675
 20
10.353836011213019
 30
0.0
 42
0.0021678000320987
  0
VERTEX
  5
2F2
  8
1
 62
     7
 10
110.7848467109847
 20
10.352808793552409
 30
0.0
 42
0.0016844626493641
  0
VERTEX
  5
2F3
  8
1
 62
     7
 10
110.80112197882789
 20
10.3519064681107
 30
0.0
 42
0.0012022825888237
  0
VERTEX
  5
2F4
  8
1
 62
     7
 10
110.81740843616601
 20
10.35109781183314
 30
0.0
 42
0.0007209411542312
  0
VERTEX
  5
2F5
  8
1
 62
     7
 10
110.8337023531673
 20
10.350351601665009
 30
0.0
 42
0.000240267761356
  0
VERTEX
  5
2F6
  8
1
 62
     7
 10
110.84999999999999
 20
10.349636614551629
 30
0.0
  0
SEQEND
  5
2F7
  8
1
 62
     7
  0
POLYLINE
  5
F6
  8
1
 62
     7
 66
     1
 10
0.0
 20
0.0
 30
0.0
  0
VERTEX
  5
2F8
  8
1
 62
     7
 10
109.91500000000001
 20
9.2541144787642757
 30
0.0
 42
-0.0003142229141648
  0
VERTEX
  5
2F9
  8
1
 62
     7
 10
109.9158365013808
 20
9.2682693813613835
 30
0.0
 42
-0.0009437769654562
  0
VERTEX
  5
2FA
  8
1
 62
     7
 10
109.9167083951078
 20
9.2824185855618389
 30
0.0
 42
-0.001574078071269
  0
VERTEX
  5
2FB
  8
1
 62
     7
 10
109.9176510735271
 20
9.2965563929689932
 30
0.0
 42
-0.0022071095303174
  0
VERTEX
  5
2FC
  8
1
 62
     7
 10
109.91869992898521
 20
9.3106771051861994
 30
0.0
 42
-0.0028420392841506
  0
VERTEX
  5
2FD
  8
1
 62
     7
 10
109.91989035382819
 20
9.3247750238168017
 30
0.0
 42
-0.0034801339425708
  0
VERTEX
  5
2FE
  8
1
 62
     7
 10
109.9212577404022
 20
9.3388444504641512
 30
0.0
 42
-0.0084241990271253
  0
VERTEX
  5
2FF
  8
1
 62
     7
 10
109.92283748105361
 20
9.3528796867315922
 30
0.0
 42
-0.0004559689840733
  0
VERTEX
  5
300
  8
1
 62
     7
 10
109.9246649681285
 20
9.3668750342224794
 30
0.0
 42
-0.0097040655628217
  0
VERTEX
  5
301
  8
1
 62
     7
 10
109.9267755939731
 20
9.3808247945401622
 30
0.0
 42
-0.0080023129244074
  0
VERTEX
  5
302
  8
1
 62
     7
 10
109.9320088542955
 20
9.408700602446828
 30
0.0
 42
-0.0106061778911248
  0
VERTEX
  5
303
  8
1
 62
     7
 10
109.9351611461672
 20
9.4226148448427836
 30
0.0
 42
-0.0013787609860215
  0
VERTEX
  5
304
  8
1
 62
     7
 10
109.9386489026494
 20
9.4364610149451522
 30
0.0
 42
-0.0101970556570203
  0
VERTEX
  5
305
  8
1
 62
     7
 10
109.94245939984241
 20
9.4502341312232492
 30
0.0
 42
-0.083696041571192
  0
VERTEX
  5
306
  8
1
 62
     7
 10
110.0572212778349
 20
9.6834430192848355
 30
0.0
 42
-0.0189396516432296
  0
VERTEX
  5
307
  8
1
 62
     7
 10
110.0938303110521
 20
9.7304010813507205
 30
0.0
 42
-0.0262457329740323
  0
VERTEX
  5
308
  8
1
 62
     7
 10
110.1553857995581
 20
9.7961409274743403
 30
0.0
 42
-0.0262056361906206
  0
VERTEX
  5
309
  8
1
 62
     7
 10
110.2246054980934
 20
9.8560451067941326
 30
0.0
 42
-0.0289802364351148
  0
VERTEX
  5
30A
  8
1
 62
     7
 10
110.31407633990349
 20
9.9176549188566323
 30
0.0
 42
-0.0248526178793347
  0
VERTEX
  5
30B
  8
1
 62
     7
 10
110.3968211194362
 20
9.9623651934033024
 30
0.0
 42
-0.0116894684356771
  0
VERTEX
  5
30C
  8
1
 62
     7
 10
110.440434514279
 20
9.9819633946094424
 30
0.0
 42
-0.0118177341701355
  0
VERTEX
  5
30D
  8
1
 62
     7
 10
110.484935393368
 20
9.9994961081500264
 30
0.0
 42
-0.0107287698335241
  0
VERTEX
  5
30E
  8
1
 62
     7
 10
110.53021116599049
 20
10.01501531082598
 30
0.0
 42
-0.0076788788078769
  0
VERTEX
  5
30F
  8
1
 62
     7
 10
110.5612155988884
 20
10.024382542909519
 30
0.0
 42
-0.007782677172098
  0
VERTEX
  5
310
  8
1
 62
     7
 10
110.5924917902874
 20
10.032785900701789
 30
0.0
 42
-0.0085581546348848
  0
VERTEX
  5
311
  8
1
 62
     7
 10
110.62400854402649
 20
10.0401587669837
 30
0.0
 42
-0.0086987577297176
  0
VERTEX
  5
312
  8
1
 62
     7
 10
110.6557346639449
 20
10.046434524536091
 30
0.0
 42
-0.0095065431688443
  0
VERTEX
  5
313
  8
1
 62
     7
 10
110.6876389538814
 20
10.05154655613984
 30
0.0
 42
-0.0045905807648256
  0
VERTEX
  5
314
  8
1
 62
     7
 10
110.70376875829341
 20
10.05366658071568
 30
0.0
 42
-0.0041077162768608
  0
VERTEX
  5
315
  8
1
 62
     7
 10
110.71993213118979
 20
10.05550559779903
 30
0.0
 42
-0.003622833134428
  0
VERTEX
  5
316
  8
1
 62
     7
 10
110.7361253427386
 20
10.05709483044461
 30
0.0
 42
-0.0031373872370114
  0
VERTEX
  5
317
  8
1
 62
     7
 10
110.7523446631084
 20
10.058465501707159
 30
0.0
 42
-0.0026521454954989
  0
VERTEX
  5
318
  8
1
 62
     7
 10
110.7685863624675
 20
10.05964883464137
 30
0.0
 42
-0.0021678000324787
  0
VERTEX
  5
319
  8
1
 62
     7
 10
110.7848467109847
 20
10.06067605230197
 30
0.0
 42
-0.0016844626490925
  0
VERTEX
  5
31A
  8
1
 62
     7
 10
110.80112197882789
 20
10.061578377743681
 30
0.0
 42
-0.0012022825889858
  0
VERTEX
  5
31B
  8
1
 62
     7
 10
110.81740843616601
 20
10.06238703402124
 30
0.0
 42
-0.0007209411541777
  0
VERTEX
  5
31C
  8
1
 62
     7
 10
110.8337023531673
 20
10.06313324418937
 30
0.0
 42
-0.0002402677613551
  0
VERTEX
  5
31D
  8
1
 62
     7
 10
110.84999999999999
 20
10.06384823130276
 30
0.0
  0
SEQEND
  5
31E
  8
1
 62
     7
  0
POLYLINE
  5
11E
  8
1
 62
     7
 66
     1
 10
0.0
 20
0.0
 30
0.0
  0
VERTEX
  5
31F
  8
1
 62
     7
 10
109.58499999999989
 20
9.2541144787642757
 30
0.0
 42
0.0003142229121621
  0
VERTEX
  5
320
  8
1
 62
     7
 10
109.58416349861911
 20
9.2682693813613835
 30
0.0
 42
0.0009437769674587
  0
VERTEX
  5
321
  8
1
 62
     7
 10
109.5832916048921
 20
9.2824185855618389
 30
0.0
 42
0.0015740780692667
  0
VERTEX
  5
322
  8
1
 62
     7
 10
109.5823489264728
 20
9.2965563929689932
 30
0.0
 42
0.0022071095323199
  0
VERTEX
  5
323
  8
1
 62
     7
 10
109.5813000710147
 20
9.3106771051861994
 30
0.0
 42
0.0028420392821481
  0
VERTEX
  5
324
  8
1
 62
     7
 10
109.58010964617171
 20
9.3247750238168017
 30
0.0
 42
0.003480133944574
  0
VERTEX
  5
325
  8
1
 62
     7
 10
109.5787422595977
 20
9.3388444504641512
 30
0.0
 42
0.0084241990250523
  0
VERTEX
  5
326
  8
1
 62
     7
 10
109.57716251894639
 20
9.3528796867315922
 30
0.0
 42
0.0004559689856476
  0
VERTEX
  5
327
  8
1
 62
     7
 10
109.5753350318714
 20
9.3668750342224794
 30
0.0
 42
0.0097040655622465
  0
VERTEX
  5
328
  8
1
 62
     7
 10
109.5732244060269
 20
9.3808247945401622
 30
0.0
 42
0.0080023129244855
  0
VERTEX
  5
329
  8
1
 62
     7
 10
109.5679911457045
 20
9.408700602446828
 30
0.0
 42
0.010606177891044
  0
VERTEX
  5
32A
  8
1
 62
     7
 10
109.5648388538327
 20
9.4226148448427836
 30
0.0
 42
0.0013787609861017
  0
VERTEX
  5
32B
  8
1
 62
     7
 10
109.5613510973505
 20
9.4364610149451522
 30
0.0
 42
0.0101970556569388
  0
VERTEX
  5
32C
  8
1
 62
     7
 10
109.55754060015749
 20
9.4502341312232492
 30
0.0
 42
0.083696041571275
  0
VERTEX
  5
32D
  8
1
 62
     7
 10
109.442778722165
 20
9.6834430192848355
 30
0.0
 42
0.0189396516431469
  0
VERTEX
  5
32E
  8
1
 62
     7
 10
109.4061696889478
 20
9.7304010813507205
 30
0.0
 42
0.02624573297412
  0
VERTEX
  5
32F
  8
1
 62
     7
 10
109.3446142004419
 20
9.7961409274743403
 30
0.0
 42
0.0262056361904876
  0
VERTEX
  5
330
  8
1
 62
     7
 10
109.2753945019065
 20
9.8560451067941326
 30
0.0
 42
0.0289802364353382
  0
VERTEX
  5
331
  8
1
 62
     7
 10
109.18592366009641
 20
9.9176549188566323
 30
0.0
 42
0.02485261787908
  0
VERTEX
  5
332
  8
1
 62
     7
 10
109.1031788805637
 20
9.9623651934033024
 30
0.0
 42
0.0116894684359336
  0
VERTEX
  5
333
  8
1
 62
     7
 10
109.0595654857209
 20
9.9819633946094424
 30
0.0
 42
0.0118177341698784
  0
VERTEX
  5
334
  8
1
 62
     7
 10
109.0150646066319
 20
9.9994961081500264
 30
0.0
 42
0.0107287698337816
  0
VERTEX
  5
335
  8
1
 62
     7
 10
108.96978883400941
 20
10.01501531082598
 30
0.0
 42
0.0076788788076216
  0
VERTEX
  5
336
  8
1
 62
     7
 10
108.9387844011115
 20
10.024382542909519
 30
0.0
 42
0.0077826771723494
  0
VERTEX
  5
337
  8
1
 62
     7
 10
108.9075082097125
 20
10.032785900701789
 30
0.0
 42
0.0085581546346373
  0
VERTEX
  5
338
  8
1
 62
     7
 10
108.87599145597341
 20
10.0401587669837
 30
0.0
 42
0.00869875772992
  0
VERTEX
  5
339
  8
1
 62
     7
 10
108.844265336055
 20
10.046434524536091
 30
0.0
 42
0.0095065431687141
  0
VERTEX
  5
33A
  8
1
 62
     7
 10
108.8123610461185
 20
10.05154655613984
 30
0.0
 42
0.0045905807649219
  0
VERTEX
  5
33B
  8
1
 62
     7
 10
108.79623124170649
 20
10.05366658071568
 30
0.0
 42
0.0041077162767649
  0
VERTEX
  5
33C
  8
1
 62
     7
 10
108.78006786881021
 20
10.05550559779903
 30
0.0
 42
0.0036228331345203
  0
VERTEX
  5
33D
  8
1
 62
     7
 10
108.7638746572614
 20
10.05709483044461
 30
0.0
 42
0.0031373872369184
  0
VERTEX
  5
33E
  8
1
 62
     7
 10
108.7476553368915
 20
10.058465501707159
 30
0.0
 42
0.0026521454955926
  0
VERTEX
  5
33F
  8
1
 62
     7
 10
108.7314136375324
 20
10.05964883464137
 30
0.0
 42
0.0021678000323867
  0
VERTEX
  5
340
  8
1
 62
     7
 10
108.71515328901521
 20
10.06067605230197
 30
0.0
 42
0.0016844626491835
  0
VERTEX
  5
341
  8
1
 62
     7
 10
108.69887802117201
 20
10.061578377743681
 30
0.0
 42
0.0012022825888739
  0
VERTEX
  5
342
  8
1
 62
     7
 10
108.6825915638339
 20
10.06238703402124
 30
0.0
 42
0.0007209411543109
  0
VERTEX
  5
343
  8
1
 62
     7
 10
108.6662976468327
 20
10.06313324418937
 30
0.0
 42
0.0002402677612408
  0
VERTEX
  5
344
  8
1
 62
     7
 10
108.65000000000001
 20
10.06384823130276
 30
0.0
  0
SEQEND
  5
345
  8
1
 62
     7
  0
POLYLINE
  5
146
  8
1
 62
     7
 66
     1
 10
0.0
 20
0.0
 30
0.0
  0
VERTEX
  5
346
  8
1
 62
     7
 10
109.58499999999989
 20
11.159370367090039
 30
0.0
 42
-0.0003142229116708
  0
VERTEX
  5
347
  8
1
 62
     7
 10
109.58416349861911
 20
11.14521546449293
 30
0.0
 42
-0.0009437769679462
  0
VERTEX
  5
348
  8
1
 62
     7
 10
109.5832916048921
 20
11.131066260292471
 30
0.0
 42
-0.0015740780687832
  0
VERTEX
  5
349
  8
1
 62
     7
 10
109.5823489264728
 20
11.116928452885309
 30
0.0
 42
-0.0022071095328038
  0
VERTEX
  5
34A
  8
1
 62
     7
 10
109.5813000710147
 20
11.10280774066811
 30
0.0
 42
-0.0028420392816649
  0
VERTEX
  5
34B
  8
1
 62
     7
 10
109.58010964617171
 20
11.08870982203752
 30
0.0
 42
-0.0034801339455505
  0
VERTEX
  5
34C
  8
1
 62
     7
 10
109.5787422595977
 20
11.07464039539016
 30
0.0
 42
-0.0084241990255901
  0
VERTEX
  5
34D
  8
1
 62
     7
 10
109.57716251894639
 20
11.060605159122719
 30
0.0
 42
-0.0004559689861032
  0
VERTEX
  5
34E
  8
1
 62
     7
 10
109.5753350318714
 20
11.046609811631839
 30
0.0
 42
-0.0097040655612849
  0
VERTEX
  5
34F
  8
1
 62
     7
 10
109.5732244060269
 20
11.03266005131416
 30
0.0
 42
-0.0080023129252068
  0
VERTEX
  5
350
  8
1
 62
     7
 10
109.5679911457045
 20
11.004784243407491
 30
0.0
 42
-0.0106061778905819
  0
VERTEX
  5
351
  8
1
 62
     7
 10
109.5648388538327
 20
10.990870001011549
 30
0.0
 42
-0.0013787609865509
  0
VERTEX
  5
352
  8
1
 62
     7
 10
109.5613510973505
 20
10.977023830909181
 30
0.0
 42
-0.0101970556565236
  0
VERTEX
  5
353
  8
1
 62
     7
 10
109.55754060015749
 20
10.96325071463108
 30
0.0
 42
-0.0836960415716713
  0
VERTEX
  5
354
  8
1
 62
     7
 10
109.442778722165
 20
10.73004182656951
 30
0.0
 42
-0.0189396516427514
  0
VERTEX
  5
355
  8
1
 62
     7
 10
109.4061696889478
 20
10.683083764503641
 30
0.0
 42
-0.0262457329745236
  0
VERTEX
  5
356
  8
1
 62
     7
 10
109.3446142004419
 20
10.61734391838003
 30
0.0
 42
-0.0262056361900825
  0
VERTEX
  5
357
  8
1
 62
     7
 10
109.2753945019065
 20
10.55743973906023
 30
0.0
 42
-0.0289802364357198
  0
VERTEX
  5
358
  8
1
 62
     7
 10
109.18592366009641
 20
10.495829926997731
 30
0.0
 42
-0.0248526178787103
  0
VERTEX
  5
359
  8
1
 62
     7
 10
109.1031788805637
 20
10.451119652451069
 30
0.0
 42
-0.0116894684363256
  0
VERTEX
  5
35A
  8
1
 62
     7
 10
109.0595654857209
 20
10.43152145124494
 30
0.0
 42
-0.0118177341694588
  0
VERTEX
  5
35B
  8
1
 62
     7
 10
109.0150646066319
 20
10.41398873770436
 30
0.0
 42
-0.0107287698342214
  0
VERTEX
  5
35C
  8
1
 62
     7
 10
108.96978883400941
 20
10.398469535028401
 30
0.0
 42
-0.0076788788071407
  0
VERTEX
  5
35D
  8
1
 62
     7
 10
108.9387844011115
 20
10.38910230294486
 30
0.0
 42
-0.0077826771728577
  0
VERTEX
  5
35E
  8
1
 62
     7
 10
108.9075082097125
 20
10.38069894515259
 30
0.0
 42
-0.0085581546341005
  0
VERTEX
  5
35F
  8
1
 62
     7
 10
108.87599145597341
 20
10.37332607887069
 30
0.0
 42
-0.0086987577304621
  0
VERTEX
  5
360
  8
1
 62
     7
 10
108.844265336055
 20
10.367050321318301
 30
0.0
 42
-0.0095065431681739
  0
VERTEX
  5
361
  8
1
 62
     7
 10
108.8123610461185
 20
10.36193828971453
 30
0.0
 42
-0.0045905807654629
  0
VERTEX
  5
362
  8
1
 62
     7
 10
108.79623124170649
 20
10.359818265138699
 30
0.0
 42
-0.0041077162762269
  0
VERTEX
  5
363
  8
1
 62
     7
 10
108.78006786881021
 20
10.35797924805534
 30
0.0
 42
-0.0036228331350579
  0
VERTEX
  5
364
  8
1
 62
     7
 10
108.7638746572614
 20
10.356390015409771
 30
0.0
 42
-0.0031373872363788
  0
VERTEX
  5
365
  8
1
 62
     7
 10
108.7476553368915
 20
10.35501934414723
 30
0.0
 42
-0.0026521454960784
  0
VERTEX
  5
366
  8
1
 62
     7
 10
108.7314136375324
 20
10.353836011213019
 30
0.0
 42
-0.0021678000320075
  0
VERTEX
  5
367
  8
1
 62
     7
 10
108.71515328901521
 20
10.352808793552409
 30
0.0
 42
-0.0016844626494551
  0
VERTEX
  5
368
  8
1
 62
     7
 10
108.69887802117201
 20
10.3519064681107
 30
0.0
 42
-0.0012022825887109
  0
VERTEX
  5
369
  8
1
 62
     7
 10
108.6825915638339
 20
10.35109781183314
 30
0.0
 42
-0.0007209411543656
  0
VERTEX
  5
36A
  8
1
 62
     7
 10
108.6662976468327
 20
10.350351601665009
 30
0.0
 42
-0.0002402677612408
  0
VERTEX
  5
36B
  8
1
 62
     7
 10
108.65000000000001
 20
10.349636614551629
 30
0.0
  0
SEQEND
  5
36C
  8
1
 62
     7
  0
LINE
  5
16E
  8
1
 62
     7
 10
0.0
 20
34.25
 30
0.0
 11
0.0
 21
18.049999999999969
 31
0.0
  0
LINE
  5
16F
  8
1
 62
     7
 10
1.8400000000000001
 20
34.25
 30
0.0
 11
1.8400000000000001
 21
18.049999999999969
 31
0.0
  0
LINE
  5
170
  8
1
 62
     7
 10
-2.5
 20
17.320508075688771
 30
0.0
 11
-2.5
 21
17.549999999999979
 31
0.0
  0
LINE
  5
171
  8
1
 62
     7
 10
2.5
 20
17.549999999999979
 30
0.0
 11
2.5
 21
17.315629895120221
 31
0.0
  0
LINE
  5
172
  8
1
 62
     7
 10
-2.5
 20
17.549999999999979
 30
0.0
 11
2.5
 21
17.549999999999979
 31
0.0
  0
LINE
  5
173
  8
1
 62
     7
 10
-2.0
 20
18.049999999999969
 30
0.0
 11
-2.5
 21
17.549999999999979
 31
0.0
  0
LINE
  5
174
  8
1
 62
     7
 10
2.5
 20
17.549999999999979
 30
0.0
 11
2.0
 21
18.049999999999969
 31
0.0
  0
LINE
  5
175
  8
1
 62
     7
 10
-2.0
 20
18.049999999999969
 30
0.0
 11
2.0
 21
18.049999999999969
 31
0.0
  0
LINE
  5
176
  8
1
 62
     7
 10
2.7000000000000002
 20
19.05970881204642
 30
0.0
 11
2.7000000000000002
 21
17.290459797240779
 31
0.0
  0
LINE
  5
177
  8
1
 62
     7
 10
-2.7000000000000002
 20
19.05970881204642
 30
0.0
 11
-2.7000000000000002
 21
17.290459797240779
 31
0.0
  0
LINE
  5
178
  8
1
 62
     7
 10
-17.148479660317332
 20
8.7459788096977906
 30
0.0
 11
-17.170989022850431
 21
8.7589745962155661
 31
0.0
  0
LINE
  5
179
  8
1
 62
     7
 10
-16.170989022850431
 20
10.49102540378443
 30
0.0
 11
-16.148479660317321
 21
10.47802961726665
 31
0.0
  0
LINE
  5
17A
  8
1
 62
     7
 10
-17.805796643985762
 20
8.2594555433772392
 30
0.0
 11
-18.00203247423909
 21
8.3727523527986474
 31
0.0
  0
LINE
  5
17B
  8
1
 62
     7
 10
-15.94598902285043
 20
10.88073683548744
 30
0.0
 11
-17.395989022850429
 21
8.369263164512569
 31
0.0
  0
LINE
  5
17C
  8
1
 62
     7
 10
-16.25203247423909
 20
11.40384126604418
 30
0.0
 11
-16.055796643985762
 21
11.29054445662277
 31
0.0
  0
LINE
  5
17D
  8
1
 62
     7
 10
16.148479660317332
 20
10.47802961726665
 30
0.0
 11
16.170989022850431
 21
10.49102540378443
 31
0.0
  0
LINE
  5
17E
  8
1
 62
     7
 10
17.170989022850438
 20
8.7589745962155536
 30
0.0
 11
17.148479660317332
 21
8.7459788096977764
 31
0.0
  0
LINE
  5
17F
  8
1
 62
     7
 10
16.055796643985779
 20
11.290544456622751
 30
0.0
 11
16.25203247423909
 21
11.40384126604417
 31
0.0
  0
LINE
  5
180
  8
1
 62
     7
 10
17.395989022850429
 20
8.3692631645125584
 30
0.0
 11
15.94598902285043
 21
10.880736835487429
 31
0.0
  0
LINE
  5
181
  8
1
 62
     7
 10
18.002032474239101
 20
8.3727523527986332
 30
0.0
 11
17.805796643985762
 21
8.2594555433772285
 31
0.0
  0
LINE
  5
182
  8
1
 62
     7
 10
1.0
 20
-19.224008426964438
 30
0.0
 11
1.0
 21
-19.25
 31
0.0
  0
LINE
  5
183
  8
1
 62
     7
 10
-1.0
 20
-19.25
 30
0.0
 11
-1.0
 21
-19.224008426964438
 31
0.0
  0
LINE
  5
184
  8
1
 62
     7
 10
1.75
 20
-19.550000000000001
 30
0.0
 11
1.75
 21
-19.776593618842799
 31
0.0
  0
LINE
  5
185
  8
1
 62
     7
 10
-1.45
 20
-19.25
 30
0.0
 11
1.45
 21
-19.25
 31
0.0
  0
LINE
  5
186
  8
1
 62
     7
 10
-1.75
 20
-19.776593618842799
 30
0.0
 11
-1.75
 21
-19.550000000000001
 31
0.0
  0
LINE
  5
187
  8
1
 62
     7
 10
2.399999999999999
 20
-3.594590640382231
 30
0.0
 11
2.399999999999999
 21
-4.6849623113198602
 31
0.0
  0
LINE
  5
188
  8
1
 62
     7
 10
0.2999999999999972
 20
-5.5849623113198597
 30
0.0
 11
1.5
 21
-5.5849623113198597
 31
0.0
  0
LINE
  5
189
  8
1
 62
     7
 10
0.2999999999999972
 20
-5.5849623113198597
 30
0.0
 11
0.2999999999999972
 21
-4.7849623113198589
 31
0.0
  0
LINE
  5
18A
  8
1
 62
     7
 10
0.2999999999999972
 20
-4.7849623113198589
 30
0.0
 11
1.049999999999996
 21
-4.7849623113198607
 31
0.0
  0
LINE
  5
18B
  8
1
 62
     7
 10
1.049999999999996
 20
-3.6849623113198611
 30
0.0
 11
0.2999999999999972
 21
-3.6849623113198589
 31
0.0
  0
LINE
  5
18C
  8
1
 62
     7
 10
0.2999999999999972
 20
-3.6849623113198589
 30
0.0
 11
0.2999999999999972
 21
-2.9849623113198591
 31
0.0
  0
LINE
  5
18D
  8
1
 62
     7
 10
-0.2999999999999901
 20
-2.9849623113198591
 30
0.0
 11
-0.2999999999999901
 21
-3.6849623113198589
 31
0.0
  0
LINE
  5
18E
  8
1
 62
     7
 10
-0.2999999999999901
 20
-3.6849623113198589
 30
0.0
 11
-1.0499999999999901
 21
-3.6849623113198611
 31
0.0
  0
LINE
  5
18F
  8
1
 62
     7
 10
-1.0499999999999901
 20
-4.7849623113198607
 30
0.0
 11
-0.2999999999999901
 21
-4.7849623113198589
 31
0.0
  0
LINE
  5
190
  8
1
 62
     7
 10
-0.2999999999999901
 20
-4.7849623113198589
 30
0.0
 11
-0.2999999999999901
 21
-5.5849623113198597
 31
0.0
  0
LINE
  5
191
  8
1
 62
     7
 10
-1.4999999999999929
 20
-5.5849623113198597
 30
0.0
 11
-0.2999999999999901
 21
-5.5849623113198597
 31
0.0
  0
LINE
  5
192
  8
1
 62
     7
 10
-2.3999999999999901
 20
-4.6849623113198602
 30
0.0
 11
-2.3999999999999901
 21
-3.594590640382231
 31
0.0
  0
LINE
  5
193
  8
1
  6
DASHDOT
 62
     3
 10
0.0
 20
1.5
 30
0.0
 11
0.0
 21
-1.5
 31
0.0
  0
LINE
  5
194
  8
1
  6
DASHDOT
 62
     3
 10
-1.5
 20
0.0
 30
0.0
 11
1.5
 21
0.0
 31
0.0
  0
LINE
  5
195
  8
1
 62
     7
 10
115.25
 20
19.25
 30
0.0
 11
75.25
 21
19.25
 31
0.0
  0
LINE
  5
196
  8
1
 62
     7
 10
117.9499999999999
 20
-2.9999999999999978
 30
0.0
 11
133.25
 21
-2.9999999999999978
 31
0.0
  0
LINE
  5
197
  8
1
 62
     7
 10
133.25
 20
3.0000000000000031
 30
0.0
 11
117.9499999999999
 21
3.0000000000000031
 31
0.0
  0
LINE
  5
198
  8
1
 62
     7
 10
133.25
 20
-2.9999999999999978
 30
0.0
 11
133.25
 21
3.0000000000000031
 31
0.0
  0
LINE
  5
199
  8
1
 62
     7
 10
75.25
 20
-19.25
 30
0.0
 11
75.25
 21
19.25
 31
0.0
  0
LINE
  5
19A
  8
1
 62
     7
 10
117.9499999999999
 20
-5.584962311319857
 30
0.0
 11
117.9499999999999
 21
3.999999999999996
 31
0.0
  0
LINE
  5
19B
  8
1
 62
     7
 10
113.25
 20
19.25
 30
0.0
 11
113.25
 21
-19.25
 31
0.0
  0
LINE
  5
19C
  8
1
 62
     7
 10
115.25
 20
19.25
 30
0.0
 11
115.25
 21
-19.25
 31
0.0
  0
LINE
  5
19D
  8
1
 62
     7
 10
59.25
 20
3.0
 30
0.0
 11
59.25
 21
-2.9999999999999911
 31
0.0
  0
LINE
  5
19E
  8
1
 62
     7
 10
74.550000000000026
 20
3.0
 30
0.0
 11
59.25
 21
3.0
 31
0.0
  0
LINE
  5
19F
  8
1
 62
     7
 10
59.25
 20
-2.9999999999999911
 30
0.0
 11
74.550000000000026
 21
-2.9999999999999911
 31
0.0
  0
LINE
  5
1A0
  8
1
 62
     7
 10
111.4999999999999
 20
-19.550000000000001
 30
0.0
 11
111.4999999999999
 21
-19.776593618842821
 31
0.0
  0
LINE
  5
1A1
  8
1
 62
     7
 10
108.2999999999999
 20
-19.25
 30
0.0
 11
111.2
 21
-19.25
 31
0.0
  0
LINE
  5
1A2
  8
1
 62
     7
 10
108.0
 20
-19.776593618842821
 30
0.0
 11
108.0
 21
-19.550000000000001
 31
0.0
  0
LINE
  5
1A3
  8
1
 62
     7
 10
108.2999999999999
 20
-19.25
 30
0.0
 11
111.2
 21
-19.25
 31
0.0
  0
LINE
  5
1A4
  8
1
 62
     7
 10
115.25
 20
9.0
 30
0.0
 11
117.25
 21
9.0
 31
0.0
  0
LINE
  5
1A5
  8
1
 62
     7
 10
117.25
 20
-9.0
 30
0.0
 11
117.25
 21
9.0
 31
0.0
  0
LINE
  5
1A6
  8
1
 62
     7
 10
117.25
 20
3.9999999999999978
 30
0.0
 11
117.9499999999999
 21
3.999999999999996
 31
0.0
  0
LINE
  5
1A7
  8
1
 62
     7
 10
75.25
 20
3.9999999999999911
 30
0.0
 11
74.549999999999997
 21
3.999999999999996
 31
0.0
  0
LINE
  5
1A8
  8
1
  6
DASHDOT
 62
     3
 10
56.25
 20
0.0
 30
0.0
 11
59.25
 21
0.0
 31
0.0
  0
LINE
  5
1A9
  8
1
 62
     7
 10
115.25
 20
-19.25
 30
0.0
 11
75.25
 21
-19.25
 31
0.0
  0
LINE
  5
1AA
  8
1
 62
     7
 10
117.25
 20
-9.0
 30
0.0
 11
115.25
 21
-9.0
 31
0.0
  0
LINE
  5
1AB
  8
1
 62
     7
 10
117.9499999999999
 20
-5.584962311319857
 30
0.0
 11
117.25
 21
-5.584962311319857
 31
0.0
  0
LINE
  5
1AC
  8
1
 62
     7
 10
74.549999999999997
 20
-5.584962311319857
 30
0.0
 11
75.25
 21
-5.5849623113198597
 31
0.0
  0
LINE
  5
1AD
  8
1
 62
     7
 10
80.329999999999984
 20
19.25
 30
0.0
 11
80.329999999999984
 21
34.25
 31
0.0
  0
LINE
  5
1AE
  8
1
 62
     7
 10
82.170000000000002
 20
19.25
 30
0.0
 11
82.170000000000002
 21
34.25
 31
0.0
  0
LINE
  5
1AF
  8
1
 62
     7
 10
80.329999999999984
 20
34.25
 30
0.0
 11
82.170000000000002
 21
34.25
 31
0.0
  0
LINE
  5
1B0
  8
1
 62
     3
 10
80.859999999999999
 20
34.25
 30
0.0
 11
80.859999999999999
 21
37.25
 31
0.0
  0
LINE
  5
1B1
  8
1
 62
     3
 10
81.639999999999986
 20
37.25
 30
0.0
 11
81.639999999999986
 21
34.25
 31
0.0
  0
LINE
  5
1B2
  8
1
 62
     7
 10
74.549999999999997
 20
-5.584962311319857
 30
0.0
 11
74.549999999999997
 21
3.999999999999996
 31
0.0
  0
LINE
  5
1B3
  8
1
 62
     7
 10
190.66
 20
34.25
 30
0.0
 11
190.66
 21
19.161860556845721
 31
0.0
  0
LINE
  5
1B4
  8
1
 62
     7
 10
192.5
 20
34.25
 30
0.0
 11
192.5
 21
19.25
 31
0.0
  0
LINE
  5
1B5
  8
1
 62
     7
 10
175.35152033968271
 20
8.7459788096977906
 30
0.0
 11
175.32901097714949
 21
8.7589745962155661
 31
0.0
  0
LINE
  5
1B6
  8
1
 62
     7
 10
176.32901097714949
 20
10.49102540378443
 30
0.0
 11
176.35152033968271
 21
10.47802961726665
 31
0.0
  0
LINE
  5
1B7
  8
1
 62
     7
 10
174.6942033560141
 20
8.2594555433772392
 30
0.0
 11
174.49796752576091
 21
8.3727523527986474
 31
0.0
  0
LINE
  5
1B8
  8
1
 62
     7
 10
176.55401097714949
 20
10.88073683548744
 30
0.0
 11
175.1040109771495
 21
8.369263164512569
 31
0.0
  0
LINE
  5
1B9
  8
1
 62
     7
 10
176.24796752576091
 20
11.40384126604418
 30
0.0
 11
176.4442033560141
 21
11.29054445662277
 31
0.0
  0
LINE
  5
1BA
  8
1
 62
     7
 10
208.64847966031721
 20
10.47802961726665
 30
0.0
 11
208.67098902285039
 21
10.49102540378443
 31
0.0
  0
LINE
  5
1BB
  8
1
 62
     7
 10
209.67098902285039
 20
8.7589745962155536
 30
0.0
 11
209.64847966031721
 21
8.7459788096977764
 31
0.0
  0
LINE
  5
1BC
  8
1
 62
     7
 10
208.55579664398579
 20
11.290544456622751
 30
0.0
 11
208.752032474239
 21
11.40384126604417
 31
0.0
  0
LINE
  5
1BD
  8
1
 62
     7
 10
209.89598902285039
 20
8.3692631645125584
 30
0.0
 11
208.4459890228504
 21
10.880736835487429
 31
0.0
  0
LINE
  5
1BE
  8
1
 62
     7
 10
210.502032474239
 20
8.3727523527986332
 30
0.0
 11
210.30579664398579
 21
8.2594555433772285
 31
0.0
  0
LINE
  5
1BF
  8
1
 62
     7
 10
193.5
 20
-19.224008426964438
 30
0.0
 11
193.5
 21
-19.25
 31
0.0
  0
LINE
  5
1C0
  8
1
 62
     7
 10
191.5
 20
-19.25
 30
0.0
 11
191.5
 21
-19.224008426964438
 31
0.0
  0
LINE
  5
1C1
  8
1
 62
     7
 10
194.25
 20
-19.550000000000001
 30
0.0
 11
194.25
 21
-19.776593618842799
 31
0.0
  0
LINE
  5
1C2
  8
1
 62
     7
 10
191.05000000000001
 20
-19.25
 30
0.0
 11
193.9499999999999
 21
-19.25
 31
0.0
  0
LINE
  5
1C3
  8
1
 62
     7
 10
190.74999999999989
 20
-19.776593618842799
 30
0.0
 11
190.74999999999989
 21
-19.550000000000001
 31
0.0
  0
LINE
  5
1C4
  8
1
 62
     7
 10
194.90000000000001
 20
-3.594590640382231
 30
0.0
 11
194.90000000000001
 21
-4.6849623113198602
 31
0.0
  0
LINE
  5
1C5
  8
1
 62
     7
 10
192.80000000000001
 20
-5.5849623113198597
 30
0.0
 11
194.0
 21
-5.5849623113198597
 31
0.0
  0
LINE
  5
1C6
  8
1
 62
     7
 10
192.80000000000001
 20
-5.5849623113198597
 30
0.0
 11
192.80000000000001
 21
-4.7849623113198589
 31
0.0
  0
LINE
  5
1C7
  8
1
 62
     7
 10
192.80000000000001
 20
-4.7849623113198589
 30
0.0
 11
193.55000000000001
 21
-4.7849623113198607
 31
0.0
  0
LINE
  5
1C8
  8
1
 62
     7
 10
193.55000000000001
 20
-3.6849623113198611
 30
0.0
 11
192.80000000000001
 21
-3.6849623113198589
 31
0.0
  0
LINE
  5
1C9
  8
1
 62
     7
 10
192.80000000000001
 20
-3.6849623113198589
 30
0.0
 11
192.80000000000001
 21
-2.9849623113198591
 31
0.0
  0
LINE
  5
1CA
  8
1
 62
     7
 10
192.1999999999999
 20
-2.9849623113198591
 30
0.0
 11
192.1999999999999
 21
-3.6849623113198589
 31
0.0
  0
LINE
  5
1CB
  8
1
 62
     7
 10
192.1999999999999
 20
-3.6849623113198589
 30
0.0
 11
191.4499999999999
 21
-3.6849623113198611
 31
0.0
  0
LINE
  5
1CC
  8
1
 62
     7
 10
191.4499999999999
 20
-4.7849623113198607
 30
0.0
 11
192.1999999999999
 21
-4.7849623113198589
 31
0.0
  0
LINE
  5
1CD
  8
1
 62
     7
 10
192.1999999999999
 20
-4.7849623113198589
 30
0.0
 11
192.1999999999999
 21
-5.5849623113198597
 31
0.0
  0
LINE
  5
1CE
  8
1
 62
     7
 10
191.0
 20
-5.5849623113198597
 30
0.0
 11
192.1999999999999
 21
-5.5849623113198597
 31
0.0
  0
LINE
  5
1CF
  8
1
 62
     7
 10
190.09999999999991
 20
-4.6849623113198602
 30
0.0
 11
190.09999999999991
 21
-3.594590640382231
 31
0.0
  0
LINE
  5
1D0
  8
1
  6
DASHDOT
 62
     3
 10
192.5
 20
1.5
 30
0.0
 11
192.5
 21
-1.5
 31
0.0
  0
LINE
  5
1D1
  8
1
  6
DASHDOT
 62
     3
 10
191.0
 20
0.0
 30
0.0
 11
194.0
 21
0.0
 31
0.0
  0
LINE
  5
1D2
  8
1
  6
DASHDOT
 62
     3
 10
192.5
 20
17.0
 30
0.0
 11
192.5
 21
11.0
 31
0.0
  0
LINE
  5
1D3
  8
1
  6
DASHDOT
 62
     3
 10
177.77756813566441
 20
-8.4999999999999876
 30
0.0
 11
182.97372055837121
 21
-5.4999999999999876
 31
0.0
  0
LINE
  5
1D4
  8
1
  6
DASHDOT
 62
     3
 10
207.22243186433531
 20
-8.5000000000000409
 30
0.0
 11
202.02627944162879
 21
-5.5000000000000346
 31
0.0
  0
LINE
  5
1D5
  8
1
  6
DASHDOT
 62
     3
 10
133.25
 20
0.0000000000000001
 30
0.0
 11
136.25
 21
0.0
 31
0.0
  0
LINE
  5
1D6
  8
1
 62
     7
 10
111.4999999999999
 20
9.8882968094214103
 30
0.0
 11
111.4999999999999
 21
9.7750000000000021
 31
0.0
  0
LINE
  5
1D7
  8
1
 62
     7
 10
108.0
 20
9.8882968094214103
 30
0.0
 11
108.0
 21
9.7750000000000021
 31
0.0
  0
LINE
  5
1D8
  8
1
 62
     7
 10
109.58499999999989
 20
11.159370367090039
 30
0.0
 11
109.91500000000001
 21
11.159370367090039
 31
0.0
  0
LINE
  5
1D9
  8
1
 62
     7
 10
109.58499999999989
 20
9.2541144787642757
 30
0.0
 11
109.91500000000001
 21
9.2541144787642757
 31
0.0
  0
LINE
  5
1DA
  8
1
 62
     7
 10
110.84999999999999
 20
10.349636614551629
 30
0.0
 11
110.84999999999999
 21
10.06384823130276
 31
0.0
  0
LINE
  5
1DB
  8
1
 62
     7
 10
108.65000000000001
 20
10.349636614551629
 30
0.0
 11
108.65000000000001
 21
10.06384823130276
 31
0.0
  0
LINE
  5
1DC
  8
1
 62
     7
 10
-1.8400000000000001
 20
18.049999999999969
 30
0.0
 11
-1.8400000000000001
 21
34.25
 31
0.0
  0
LINE
  5
1DD
  8
1
 62
     7
 10
194.34
 20
19.161860556845721
 30
0.0
 11
194.34
 21
34.25
 31
0.0
  0
LINE
  5
1DE
  8
1
 62
     3
 10
81.25
 20
34.25
 30
0.0
 11
81.25
 21
37.25
 31
0.0
  0
LINE
  5
1DF
  8
1
 62
     3
 10
-1.3100000000000009
 20
34.25
 30
0.0
 11
-1.3100000000000009
 21
37.25
 31
0.0
  0
LINE
  5
1E0
  8
1
 62
     3
 10
-0.5300000000000013
 20
37.25
 30
0.0
 11
-0.5300000000000013
 21
34.25
 31
0.0
  0
LINE
  5
1E1
  8
1
 62
     3
 10
-0.9200000000000015
 20
34.25
 30
0.0
 11
-0.9200000000000015
 21
37.25
 31
0.0
  0
LINE
  5
1E2
  8
1
 62
     7
 10
1.8400000000000001
 20
34.25
 30
0.0
 11
-1.8400000000000001
 21
34.25
 31
0.0
  0
LINE
  5
1E3
  8
1
 62
     3
 10
0.5299999999999978
 20
34.25
 30
0.0
 11
0.5299999999999978
 21
37.25
 31
0.0
  0
LINE
  5
1E4
  8
1
 62
     3
 10
1.3099999999999981
 20
37.25
 30
0.0
 11
1.3099999999999981
 21
34.25
 31
0.0
  0
LINE
  5
1E5
  8
1
 62
     3
 10
0.9199999999999983
 20
34.25
 30
0.0
 11
0.9199999999999983
 21
37.25
 31
0.0
  0
LINE
  5
1E6
  8
1
 62
     3
 10
191.18999999999991
 20
34.25
 30
0.0
 11
191.18999999999991
 21
37.25
 31
0.0
  0
LINE
  5
1E7
  8
1
 62
     3
 10
191.96999999999991
 20
37.25
 30
0.0
 11
191.96999999999991
 21
34.25
 31
0.0
  0
LINE
  5
1E8
  8
1
 62
     3
 10
191.58000000000001
 20
34.25
 30
0.0
 11
191.58000000000001
 21
37.25
 31
0.0
  0
LINE
  5
1E9
  8
1
 62
     7
 10
194.34
 20
34.25
 30
0.0
 11
190.66
 21
34.25
 31
0.0
  0
LINE
  5
1EA
  8
1
 62
     3
 10
193.03
 20
34.25
 30
0.0
 11
193.03
 21
37.25
 31
0.0
  0
LINE
  5
1EB
  8
1
 62
     3
 10
193.81
 20
37.25
 30
0.0
 11
193.81
 21
34.25
 31
0.0
  0
LINE
  5
1EC
  8
1
 62
     3
 10
193.4199999999999
 20
34.25
 30
0.0
 11
193.4199999999999
 21
37.25
 31
0.0
  0
ARC
  5
1ED
  8
1
 62
     7
 10
-17.65579664398577
 20
8.5192631645125694
 30
0.0
 40
0.2999999999999981
 50
240.0
 51
329.99999999999977
  0
ARC
  5
1EE
  8
1
 62
     7
 10
-16.205796643985771
 20
11.03073683548744
 30
0.0
 40
0.2999999999999989
 50
329.99999999999977
 51
59.999999999999517
  0
ARC
  5
1EF
  8
1
 62
     7
 10
-17.70203247423909
 20
8.8923675950693113
 30
0.0
 40
0.6000000000000079
 50
167.14984979267331
 51
239.99999999999989
  0
ARC
  5
1F0
  8
1
 62
     7
 10
-16.552032474239091
 20
10.884226023773509
 30
0.0
 40
0.5999999999999979
 50
59.999999999999808
 51
132.850150207327
  0
ARC
  5
1F1
  8
1
 62
     7
 10
16.205796643985771
 20
11.030736835487421
 30
0.0
 40
0.2999999999999945
 50
119.99999999999871
 51
210.0000000000002
  0
ARC
  5
1F2
  8
1
 62
     7
 10
17.65579664398577
 20
8.5192631645125587
 30
0.0
 40
0.2999999999999989
 50
210.0000000000002
 51
299.99999999999972
  0
ARC
  5
1F3
  8
1
 62
     7
 10
16.552032474239098
 20
10.884226023773509
 30
0.0
 40
0.6000000000000147
 50
47.14984979267264
 51
119.9999999999999
  0
ARC
  5
1F4
  8
1
 62
     7
 10
17.7020324742391
 20
8.8923675950692971
 30
0.0
 40
0.5999999999999995
 50
300.00000000000011
 51
12.85015020732642
  0
ARC
  5
1F5
  8
1
 62
     7
 10
1.45
 20
-19.550000000000001
 30
0.0
 40
0.3
 50
0.0
 51
90.0
  0
ARC
  5
1F6
  8
1
 62
     7
 10
-1.45
 20
-19.550000000000001
 30
0.0
 40
0.3000000000000007
 50
90.0
 51
180.0
  0
ARC
  5
1F7
  8
1
 62
     7
 10
1.149999999999999
 20
-19.776593618842799
 30
0.0
 40
0.5999999999999996
 50
287.14984979267302
 51
0.0
  0
ARC
  5
1F8
  8
1
 62
     7
 10
-1.149999999999999
 20
-19.776593618842799
 30
0.0
 40
0.6000000000000001
 50
180.0
 51
252.8501502073261
  0
ARC
  5
1F9
  8
1
 62
     7
 10
3.7999999999999972
 20
-3.594590640382231
 30
0.0
 40
1.399999999999999
 50
135.80579627707141
 51
180.0
  0
ARC
  5
1FA
  8
1
 62
     7
 10
1.5
 20
-4.6849623113198602
 30
0.0
 40
0.8999999999999994
 50
270.0
 51
0.0
  0
ARC
  5
1FB
  8
1
 62
     7
 10
-1.4999999999999929
 20
-4.6849623113198602
 30
0.0
 40
0.8999999999999983
 50
180.0
 51
270.0
  0
ARC
  5
1FC
  8
1
 62
     7
 10
-3.7999999999999901
 20
-3.594590640382231
 30
0.0
 40
1.399999999999999
 50
0.0
 51
44.194203722928783
  0
ARC
  5
1FD
  8
1
 62
     7
 10
111.2
 20
-19.550000000000001
 30
0.0
 40
0.2999999999999972
 50
0.0
 51
90.0
  0
ARC
  5
1FE
  8
1
 62
     7
 10
108.2999999999999
 20
-19.550000000000001
 30
0.0
 40
0.3000000000000007
 50
90.0
 51
180.0
  0
ARC
  5
1FF
  8
1
 62
     7
 10
110.89999999999991
 20
-19.776593618842821
 30
0.0
 40
0.6000000000000048
 50
287.14984979267462
 51
0.0
  0
ARC
  5
200
  8
1
 62
     7
 10
108.59999999999999
 20
-19.776593618842821
 30
0.0
 40
0.5999999999999944
 50
180.0
 51
252.8501502073251
  0
ARC
  5
201
  8
1
 62
     7
 10
174.84420335601411
 20
8.5192631645125694
 30
0.0
 40
0.2999999999999874
 50
240.0000000000035
 51
330.00000000000858
  0
ARC
  5
202
  8
1
 62
     7
 10
176.29420335601409
 20
11.03073683548744
 30
0.0
 40
0.3000000000000544
 50
330.00000000000591
 51
59.999999999998941
  0
ARC
  5
203
  8
1
 62
     7
 10
174.7979675257609
 20
8.8923675950693113
 30
0.0
 40
0.6000000000000297
 50
167.14984979267479
 51
240.00000000000139
  0
ARC
  5
204
  8
1
 62
     7
 10
175.9479675257609
 20
10.884226023773509
 30
0.0
 40
0.6000000000000033
 50
59.999999999998941
 51
132.85015020732831
  0
ARC
  5
205
  8
1
 62
     7
 10
208.70579664398579
 20
11.030736835487421
 30
0.0
 40
0.3000000000000017
 50
120.00000000000099
 51
209.99999999999409
  0
ARC
  5
206
  8
1
 62
     7
 10
210.15579664398581
 20
8.5192631645125587
 30
0.0
 40
0.3000000000000789
 50
209.99999999999139
 51
299.99999999999608
  0
ARC
  5
207
  8
1
 62
     7
 10
209.05203247423901
 20
10.884226023773509
 30
0.0
 40
0.6000000000000315
 50
47.14984979267367
 51
120.00000000000099
  0
ARC
  5
208
  8
1
 62
     7
 10
210.20203247423899
 20
8.8923675950692971
 30
0.0
 40
0.5999999999999907
 50
299.99999999999858
 51
12.85015020732418
  0
ARC
  5
209
  8
1
 62
     7
 10
193.9499999999999
 20
-19.550000000000001
 30
0.0
 40
0.3000000000000114
 50
0.0
 51
90.0
  0
ARC
  5
20A
  8
1
 62
     7
 10
191.05000000000001
 20
-19.550000000000001
 30
0.0
 40
0.3000000000000007
 50
90.0
 51
180.0
  0
ARC
  5
20B
  8
1
 62
     7
 10
193.65000000000001
 20
-19.776593618842799
 30
0.0
 40
0.6000000000000048
 50
287.14984979267462
 51
0.0
  0
ARC
  5
20C
  8
1
 62
     7
 10
191.34999999999991
 20
-19.776593618842799
 30
0.0
 40
0.5999999999999944
 50
180.0
 51
252.8501502073251
  0
ARC
  5
20D
  8
1
 62
     7
 10
196.30000000000001
 20
-3.594590640382231
 30
0.0
 40
1.4000000000000281
 50
135.8057962770726
 51
180.0
  0
ARC
  5
20E
  8
1
 62
     7
 10
194.0
 20
-4.6849623113198602
 30
0.0
 40
0.8999999999999994
 50
270.0
 51
0.0
  0
ARC
  5
20F
  8
1
 62
     7
 10
191.0
 20
-4.6849623113198602
 30
0.0
 40
0.9000000000000056
 50
180.0
 51
270.0
  0
ARC
  5
210
  8
1
 62
     7
 10
188.69999999999999
 20
-3.594590640382231
 30
0.0
 40
1.400000000000005
 50
0.0
 51
44.194203722926702
  0
ARC
  5
211
  8
1
 62
     7
 10
-13.89970773074023
 20
8.0250000000000021
 30
0.0
 40
4.4999999999999982
 50
132.85015020732649
 51
167.14984979267339
  0
ARC
  5
212
  8
1
 62
     7
 10
13.899707730740239
 20
8.024999999999995
 30
0.0
 40
4.4999999999999947
 50
12.85015020732644
 51
47.149849792673457
  0
ARC
  5
213
  8
1
 62
     7
 10
0.0000000000000002
 20
-16.050000000000001
 30
0.0
 40
4.4999999999999947
 50
252.85015020732641
 51
287.14984979267342
  0
ARC
  5
214
  8
1
 62
     7
 10
1.049999999999996
 20
-4.23496231131986
 30
0.0
 40
0.5500000000000016
 50
270.0
 51
90.0
  0
ARC
  5
215
  8
1
 62
     7
 10
-1.0499999999999901
 20
-4.23496231131986
 30
0.0
 40
0.5499999999999991
 50
90.0
 51
270.0
  0
ARC
  5
216
  8
1
 62
     7
 10
0.0
 20
0.0999999999999996
 30
0.0
 40
3.8999999999999959
 50
315.80579627707141
 51
224.19420372292851
  0
ARC
  5
217
  8
1
 62
     7
 10
109.7499999999999
 20
-16.050000000000001
 30
0.0
 40
4.4999999999999991
 50
252.8501502073261
 51
287.14984979267371
  0
ARC
  5
218
  8
1
 62
     7
 10
178.60029226925971
 20
8.0250000000000021
 30
0.0
 40
4.5000000000000329
 50
132.850150207327
 51
167.14984979267379
  0
ARC
  5
219
  8
1
 62
     7
 10
206.39970773074009
 20
8.024999999999995
 30
0.0
 40
4.5000000000000631
 50
12.850150207326029
 51
47.149849792673272
  0
ARC
  5
21A
  8
1
 62
     7
 10
192.5
 20
-16.050000000000001
 30
0.0
 40
4.4999999999999929
 50
252.8501502073261
 51
287.14984979267382
  0
ARC
  5
21B
  8
1
 62
     7
 10
193.55000000000001
 20
-4.23496231131986
 30
0.0
 40
0.5500000000000016
 50
270.0
 51
90.0
  0
ARC
  5
21C
  8
1
 62
     7
 10
191.4499999999999
 20
-4.23496231131986
 30
0.0
 40
0.5499999999999991
 50
90.0
 51
270.0
  0
ARC
  5
21D
  8
1
 62
     7
 10
192.5
 20
0.0999999999999996
 30
0.0
 40
3.8999999999999782
 50
315.80579627707112
 51
224.1942037229291
  0
ARC
  5
21E
  8
1
  6
DASHDOT
 62
     3
 10
192.5
 20
0.0
 30
0.0
 40
14.0
 50
77.698720344118058
 51
102.3012796558818
  0
ARC
  5
21F
  8
1
  6
DASHDOT
 62
     3
 10
192.5
 20
0.0
 30
0.0
 40
13.99999999999997
 50
197.6987203441179
 51
222.30127965588201
  0
ARC
  5
220
  8
1
  6
DASHDOT
 62
     3
 10
192.5
 20
0.0
 30
0.0
 40
13.99999999999997
 50
317.69872034411759
 51
342.30127965588179
  0
ARC
  5
221
  8
1
 62
     7
 10
0.0
 20
0.0
 30
0.0
 40
19.25
 50
95.484957432641465
 51
84.515042567358549
  0
CIRCLE
  5
222
  8
1
 62
     7
 10
0.0
 20
0.0
 30
0.0
 40
17.5
  0
CIRCLE
  5
223
  8
1
 62
     7
 10
0.0
 20
0.0
 30
0.0
 40
7.5
  0
CIRCLE
  5
224
  8
1
 62
     7
 10
0.0
 20
0.0
 30
0.0
 40
3.0
  0
CIRCLE
  5
225
  8
1
 62
     7
 10
192.5
 20
0.0
 30
0.0
 40
7.5
  0
CIRCLE
  5
226
  8
1
 62
     7
 10
192.5
 20
0.0
 30
0.0
 40
3.0
  0
CIRCLE
  5
227
  8
1
 62
     7
 10
192.5
 20
0.0
 30
0.0
 40
9.0
  0
CIRCLE
  5
228
  8
1
 62
     7
 10
192.5
 20
0.0
 30
0.0
 40
19.25
  0
CIRCLE
  5
229
  8
1
 62
     3
 10
192.5
 20
14.0
 30
0.0
 40
2.0
  0
CIRCLE
  5
22A
  8
1
 62
     7
 10
192.5
 20
14.0
 30
0.0
 40
1.621000000000008
  0
CIRCLE
  5
22B
  8
1
 62
     3
 10
180.37564434701781
 20
-6.9999999999999858
 30
0.0
 40
2.0
  0
CIRCLE
  5
22C
  8
1
 62
     7
 10
180.37564434701781
 20
-6.9999999999999858
 30
0.0
 40
1.62099999999998
  0
CIRCLE
  5
22D
  8
1
 62
     3
 10
204.62435565298199
 20
-7.0000000000000373
 30
0.0
 40
2.0
  0
CIRCLE
  5
22E
  8
1
 62
     7
 10
204.62435565298199
 20
-7.0000000000000373
 30
0.0
 40
1.621000000000008
  0
TEXT
  5
230
  8
1
 62
     7
 10
-10.606622481442191
 20
59.37340933191939
 30
0.0
 40
3.0
  1
AMP 2.5
 41
0.9
  7
SIMPLEX
  0
ENDSEC
  0
EOF
