  0
SECTION
  2
HEADER
  9
$ACADVER
  1
AC1009
  9
$INSBASE
 10
0.0
 20
0.0
 30
0.0
  9
$EXTMIN
 10
-22.25
 20
-24.25
 30
0.0
  9
$EXTMAX
 10
222.75
 20
66.110206786850398
 30
0.0
  9
$LIMMIN
 10
-22.25
 20
-24.250000000000011
  9
$LIMMAX
 10
222.75
 20
66.110206786850398
  9
$ORTHOMODE
 70
     0
  9
$REGENMODE
 70
     1
  9
$FILLMODE
 70
     1
  9
$QTEXTMODE
 70
     0
  9
$MIRRTEXT
 70
     1
  9
$DRAGMODE
 70
     2
  9
$LTSCALE
 40
1.0
  9
$OSMODE
 70
    37
  9
$ATTMODE
 70
     1
  9
$TEXTSIZE
 40
3.5
  9
$TRACEWID
 40
0.5
  9
$TEXTSTYLE
  7
STANDARD
  9
$CLAYER
  8
0
  9
$CELTYPE
  6
BYLAYER
  9
$CECOLOR
 62
   256
  9
$DIMSCALE
 40
1.0
  9
$DIMASZ
 40
0.18
  9
$DIMEXO
 40
0.0625
  9
$DIMDLI
 40
0.38
  9
$DIMRND
 40
0.0
  9
$DIMDLE
 40
0.0
  9
$DIMEXE
 40
0.18
  9
$DIMTP
 40
0.0
  9
$DIMTM
 40
0.0
  9
$DIMTXT
 40
0.18
  9
$DIMCEN
 40
0.09
  9
$DIMTSZ
 40
0.0
  9
$DIMTOL
 70
     0
  9
$DIMLIM
 70
     0
  9
$DIMTIH
 70
     1
  9
$DIMTOH
 70
     1
  9
$DIMSE1
 70
     0
  9
$DIMSE2
 70
     0
  9
$DIMTAD
 70
     0
  9
$DIMZIN
 70
     0
  9
$DIMBLK
  1

  9
$DIMASO
 70
     1
  9
$DIMSHO
 70
     1
  9
$DIMPOST
  1

  9
$DIMAPOST
  1

  9
$DIMALT
 70
     0
  9
$DIMALTD
 70
     2
  9
$DIMALTF
 40
25.399999999999999
  9
$DIMLFAC
 40
1.0
  9
$DIMTOFL
 70
     0
  9
$DIMTVP
 40
0.0
  9
$DIMTIX
 70
     0
  9
$DIMSOXD
 70
     0
  9
$DIMSAH
 70
     0
  9
$DIMBLK1
  1

  9
$DIMBLK2
  1

  9
$DIMSTYLE
  2
STANDARD
  9
$DIMCLRD
 70
     0
  9
$DIMCLRE
 70
     0
  9
$DIMCLRT
 70
     0
  9
$DIMTFAC
 40
1.0
  9
$DIMGAP
 40
0.09
  9
$LUNITS
 70
     2
  9
$LUPREC
 70
     4
  9
$SKETCHINC
 40
0.1
  9
$FILLETRAD
 40
2.0
  9
$AUNITS
 70
     0
  9
$AUPREC
 70
     0
  9
$MENU
  1
ACAD
  9
$ELEVATION
 40
0.0
  9
$PELEVATION
 40
0.0
  9
$THICKNESS
 40
0.0
  9
$LIMCHECK
 70
     0
  9
$BLIPMODE
 70
     0
  9
$CHAMFERA
 40
0.0
  9
$CHAMFERB
 40
0.0
  9
$SKPOLY
 70
     0
  9
$TDCREATE
 40
2452093.9021111112
  9
$TDUPDATE
 40
2452093.9026165511
  9
$TDINDWG
 40
0.0005092593
  9
$TDUSRTIMER
 40
0.0005092593
  9
$USRTIMER
 70
     1
  9
$ANGBASE
 50
0.0
  9
$ANGDIR
 70
     0
  9
$PDMODE
 70
     0
  9
$PDSIZE
 40
0.0
  9
$PLINEWID
 40
0.0
  9
$COORDS
 70
     1
  9
$SPLFRAME
 70
     0
  9
$SPLINETYPE
 70
     6
  9
$SPLINESEGS
 70
     8
  9
$ATTDIA
 70
     0
  9
$ATTREQ
 70
     1
  9
$HANDLING
 70
 10241
  9
$HANDSEED
  5
38B
  9
$SURFTAB1
 70
     6
  9
$SURFTAB2
 70
     6
  9
$SURFTYPE
 70
     6
  9
$SURFU
 70
     6
  9
$SURFV
 70
     6
  9
$UCSNAME
  2

  9
$UCSORG
 10
0.0
 20
0.0
 30
0.0
  9
$UCSXDIR
 10
1.0
 20
0.0
 30
0.0
  9
$UCSYDIR
 10
0.0
 20
1.0
 30
0.0
  9
$PUCSNAME
  2

  9
$PUCSORG
 10
0.0
 20
0.0
 30
0.0
  9
$PUCSXDIR
 10
1.0
 20
0.0
 30
0.0
  9
$PUCSYDIR
 10
0.0
 20
1.0
 30
0.0
  9
$USERI1
 70
     0
  9
$USERI2
 70
     0
  9
$USERI3
 70
     0
  9
$USERI4
 70
     0
  9
$USERI5
 70
     0
  9
$USERR1
 40
0.0
  9
$USERR2
 40
0.0
  9
$USERR3
 40
0.0
  9
$USERR4
 40
0.0
  9
$USERR5
 40
0.0
  9
$WORLDVIEW
 70
     1
  9
$SHADEDGE
 70
     3
  9
$SHADEDIF
 70
    70
  9
$TILEMODE
 70
     1
  9
$MAXACTVP
 70
    64
  9
$PLIMCHECK
 70
     0
  9
$PEXTMIN
 10
1.0000000000000000E+020
 20
1.0000000000000000E+020
 30
1.0000000000000000E+020
  9
$PEXTMAX
 10
-1.0000000000000000E+020
 20
-1.0000000000000000E+020
 30
-1.0000000000000000E+020
  9
$PLIMMIN
 10
0.0
 20
0.0
  9
$PLIMMAX
 10
12.0
 20
9.0
  9
$UNITMODE
 70
     0
  9
$VISRETAIN
 70
     1
  9
$PLINEGEN
 70
     0
  9
$PSLTSCALE
 70
     1
  0
ENDSEC
  0
SECTION
  2
TABLES
  0
TABLE
  2
VPORT
 70
     2
  0
VPORT
  2
*ACTIVE
 70
     0
 10
0.0
 20
0.0
 11
1.0
 21
1.0
 12
-0.6937067268358419
 22
59.652618152440333
 13
0.0
 23
0.0
 14
1.0
 24
1.0
 15
0.0
 25
0.0
 16
0.0
 26
0.0
 36
1.0
 17
0.0
 27
0.0
 37
0.0
 40
9.0000000845318269
 41
2.5693779904306222
 42
50.0
 43
0.0
 44
0.0
 50
0.0
 51
0.0
 71
     0
 72
   100
 73
     1
 74
     1
 75
     0
 76
     0
 77
     0
 78
     0
  0
ENDTAB
  0
TABLE
  2
LTYPE
 70
     9
  0
LTYPE
  2
CONTINUOUS
 70
     0
  3
Solid line
 72
    65
 73
     0
 40
0.0
  0
LTYPE
  2
BORDER
 70
     0
  3
__ __ . __ __ .
 72
    65
 73
     6
 40
11.28289473684211
 49
3.2236842105263159
 49
-1.611842105263158
 49
3.2236842105263159
 49
-1.611842105263158
 49
0.0
 49
-1.611842105263158
  0
LTYPE
  2
CENTER
 70
     0
  3
____ _ ____ _
 72
    65
 73
     4
 40
12.89473684210526
 49
8.0592105263157894
 49
-1.611842105263158
 49
1.611842105263158
 49
-1.611842105263158
  0
LTYPE
  2
DASHDOT
 70
     0
  3
__ . __ . __ .
 72
    65
 73
     4
 40
6.4473684210526319
 49
3.2236842105263159
 49
-1.611842105263158
 49
0.0
 49
-1.611842105263158
  0
LTYPE
  2
DASHED
 70
     0
  3
__ __ __ __ __
 72
    65
 73
     2
 40
4.8355263157894726
 49
3.2236842105263159
 49
-1.611842105263158
  0
LTYPE
  2
DIVIDE
 70
     0
  3
__ . . __ . . 
 72
    65
 73
     6
 40
8.0592105263157894
 49
3.2236842105263159
 49
-1.611842105263158
 49
0.0
 49
-1.611842105263158
 49
0.0
 49
-1.611842105263158
  0
LTYPE
  2
DOT
 70
     0
  3
..............
 72
    65
 73
     4
 40
3.2236842105263159
 49
0.0
 49
-1.611842105263158
 49
0.0
 49
-1.611842105263158
  0
LTYPE
  2
HIDDEN
 70
     0
  3
_ _ _ _ _ _ _
 72
    65
 73
     2
 40
2.4177631578947358
 49
1.611842105263158
 49
-0.8059210526315791
  0
LTYPE
  2
PHANTOM
 70
     0
  3
_____ _ _ _____ _ _ 
 72
    65
 73
     6
 40
16.118421052631579
 49
8.0592105263157894
 49
-1.611842105263158
 49
1.611842105263158
 49
-1.611842105263158
 49
1.611842105263158
 49
-1.611842105263158
  0
ENDTAB
  0
TABLE
  2
LAYER
 70
     2
  0
LAYER
  2
0
 70
     0
 62
     7
  6
CONTINUOUS
  0
LAYER
  2
1
 70
     0
 62
     7
  6
CONTINUOUS
  0
ENDTAB
  0
TABLE
  2
STYLE
 70
     4
  0
STYLE
  2
STANDARD
 70
     0
 40
0.0
 41
1.0
 50
0.0
 71
     0
 42
3.5
  3
txt
  4

  0
STYLE
  2
SIMPLEX
 70
     0
 40
0.0
 41
1.0
 50
0.0
 71
     0
 42
3.5
  3
simplex
  4

  0
STYLE
  2
COMPLEX
 70
     0
 40
0.0
 41
1.0
 50
0.0
 71
     0
 42
3.5
  3
complex
  4

  0
STYLE
  2
ITALIC
 70
     0
 40
0.0
 41
1.0
 50
0.0
 71
     0
 42
3.5
  3
italic
  4

  0
ENDTAB
  0
TABLE
  2
VIEW
 70
     0
  0
ENDTAB
  0
TABLE
  2
UCS
 70
     0
  0
ENDTAB
  0
TABLE
  2
APPID
 70
     1
  0
APPID
  2
ACAD
 70
     0
  0
ENDTAB
  0
TABLE
  2
DIMSTYLE
 70
     1
  0
DIMSTYLE
  2
STANDARD
 70
     0
  3

  4

  5

  6

  7

 40
1.0
 41
0.18
 42
0.0625
 43
0.38
 44
0.18
 45
0.0
 46
0.0
 47
0.0
 48
0.0
140
0.18
141
0.09
142
0.0
143
25.399999999999999
144
1.0
145
0.0
146
1.0
147
0.09
 71
     0
 72
     0
 73
     1
 74
     1
 75
     0
 76
     0
 77
     0
 78
     0
170
     0
171
     2
172
     0
173
     0
174
     0
175
     0
176
     0
177
     0
178
     0
  0
ENDTAB
  0
ENDSEC
  0
SECTION
  2
BLOCKS
  0
BLOCK
  8
0
  2
$MODEL_SPACE
 70
     0
 10
0.0
 20
0.0
 30
0.0
  3
$MODEL_SPACE
  1

  0
ENDBLK
  5
20
  8
0
  0
BLOCK
 67
     1
  8
0
  2
$PAPER_SPACE
 70
     0
 10
0.0
 20
0.0
 30
0.0
  3
$PAPER_SPACE
  1

  0
ENDBLK
  5
1C
 67
     1
  8
0
  0
ENDSEC
  0
SECTION
  2
ENTITIES
  0
POLYLINE
  5
33
  8
1
 62
     7
 66
     1
 10
0.0
 20
0.0
 30
0.0
  0
VERTEX
  5
246
  8
1
 62
     7
 10
111.4999999999999
 20
12.24119209642488
 30
0.0
 42
0.0002405884439491
  0
VERTEX
  5
247
  8
1
 62
     7
 10
111.5259280745066
 20
12.24232957592346
 30
0.0
 42
0.0007206204714508
  0
VERTEX
  5
248
  8
1
 62
     7
 10
111.5518502151902
 20
12.24351672846365
 30
0.0
 42
0.0012026032719964
  0
VERTEX
  5
249
  8
1
 62
     7
 10
111.57776048822799
 20
12.244803227087029
 30
0.0
 42
0.0016841419656227
  0
VERTEX
  5
24A
  8
1
 62
     7
 10
111.6036529597969
 20
12.24623874483523
 30
0.0
 42
0.0021681207165733
  0
VERTEX
  5
24B
  8
1
 62
     7
 10
111.62952169607399
 20
12.24787295474983
 30
0.0
 42
0.0026518248106572
  0
VERTEX
  5
24C
  8
1
 62
     7
 10
111.6553607632364
 20
12.249755529872431
 30
0.0
 42
0.0031377079227437
  0
VERTEX
  5
24D
  8
1
 62
     7
 10
111.6811642274612
 20
12.251936143244651
 30
0.0
 42
0.0036225124475719
  0
VERTEX
  5
24E
  8
1
 62
     7
 10
111.7069261549252
 20
12.25446446790807
 30
0.0
 42
0.0041080369649822
  0
VERTEX
  5
24F
  8
1
 62
     7
 10
111.73264061180549
 20
12.25739017690432
 30
0.0
 42
0.0045902600753882
  0
VERTEX
  5
250
  8
1
 62
     7
 10
111.7583016642795
 20
12.260762943274971
 30
0.0
 42
0.0145705768102502
  0
VERTEX
  5
251
  8
1
 62
     7
 10
111.8090584891785
 20
12.268895720826411
 30
0.0
 42
0.0036352653257475
  0
VERTEX
  5
252
  8
1
 62
     7
 10
111.85953186177591
 20
12.27887988056885
 30
0.0
 42
0.0136220772071572
  0
VERTEX
  5
253
  8
1
 62
     7
 10
111.9096721518154
 20
12.290609440562781
 30
0.0
 42
0.0027192377272257
  0
VERTEX
  5
254
  8
1
 62
     7
 10
111.9594297290411
 20
12.30397841886867
 30
0.0
 42
0.0163965851194248
  0
VERTEX
  5
255
  8
1
 62
     7
 10
112.03289076185931
 20
12.326759894459819
 30
0.0
 42
0.0057692232532298
  0
VERTEX
  5
256
  8
1
 62
     7
 10
112.1045293741322
 20
12.35250811817536
 30
0.0
 42
0.0170951004126958
  0
VERTEX
  5
257
  8
1
 62
     7
 10
112.1748754940419
 20
12.381487218085139
 30
0.0
 42
0.0067381934969828
  0
VERTEX
  5
258
  8
1
 62
     7
 10
112.24374999999991
 20
12.413779884554231
 30
0.0
 42
0.0382972036126385
  0
VERTEX
  5
259
  8
1
 62
     7
 10
112.41542632947539
 20
12.514013577777501
 30
0.0
 42
0.0200378319976246
  0
VERTEX
  5
25A
  8
1
 62
     7
 10
112.5327376289158
 20
12.60228849208222
 30
0.0
 42
0.1123019269762512
  0
VERTEX
  5
25B
  8
1
 62
     7
 10
112.8788897954404
 20
13.046491012819921
 30
0.0
 42
0.0136258334577491
  0
VERTEX
  5
25C
  8
1
 62
     7
 10
112.906510540919
 20
13.10985817765039
 30
0.0
 42
0.0048867075074827
  0
VERTEX
  5
25D
  8
1
 62
     7
 10
112.91483631269141
 20
13.131069966144491
 30
0.0
 42
0.0047839444647243
  0
VERTEX
  5
25E
  8
1
 62
     7
 10
112.9227498461689
 20
13.152437602444101
 30
0.0
 42
0.0052465136081305
  0
VERTEX
  5
25F
  8
1
 62
     7
 10
112.9302308987842
 20
13.17395316138675
 30
0.0
 42
0.0051548794561939
  0
VERTEX
  5
260
  8
1
 62
     7
 10
112.9372592279703
 20
13.195608717809989
 30
0.0
 42
0.0056281313886611
  0
VERTEX
  5
261
  8
1
 62
     7
 10
112.94381459115949
 20
13.217396346551331
 30
0.0
 42
0.0055465531650834
  0
VERTEX
  5
262
  8
1
 62
     7
 10
112.94987674578501
 20
13.23930812244831
 30
0.0
 42
0.0060290391224976
  0
VERTEX
  5
263
  8
1
 62
     7
 10
112.9554254492794
 20
13.26133612033844
 30
0.0
 42
0.0059556446705481
  0
VERTEX
  5
264
  8
1
 62
     7
 10
112.9604404590752
 20
13.283472415059279
 30
0.0
 42
0.0064450228007755
  0
VERTEX
  5
265
  8
1
 62
     7
 10
112.9649015326055
 20
13.30570908144834
 30
0.0
 42
0.0060345026461238
  0
VERTEX
  5
266
  8
1
 62
     7
 10
112.96876610049731
 20
13.327820291274429
 30
0.0
 42
0.0053995777146414
  0
VERTEX
  5
267
  8
1
 62
     7
 10
112.9721239143409
 20
13.350013091779831
 30
0.0
 42
0.0047602406411657
  0
VERTEX
  5
268
  8
1
 62
     7
 10
112.97503128014191
 20
13.37227841733352
 30
0.0
 42
0.0041197873292524
  0
VERTEX
  5
269
  8
1
 62
     7
 10
112.97754450390541
 20
13.39460720230444
 30
0.0
 42
0.0034799361528379
  0
VERTEX
  5
26A
  8
1
 62
     7
 10
112.97971989163671
 20
13.41699038106159
 30
0.0
 42
0.0028422370730631
  0
VERTEX
  5
26B
  8
1
 62
     7
 10
112.98161374934151
 20
13.439418887973909
 30
0.0
 42
0.0022069117422332
  0
VERTEX
  5
26C
  8
1
 62
     7
 10
112.9832823830247
 20
13.461883657410359
 30
0.0
 42
0.0015742758587559
  0
VERTEX
  5
26D
  8
1
 62
     7
 10
112.98478209869199
 20
13.484375623739931
 30
0.0
 42
0.0009435791783816
  0
VERTEX
  5
26E
  8
1
 62
     7
 10
112.98616920234871
 20
13.506885721331569
 30
0.0
 42
0.0003144207010399
  0
VERTEX
  5
26F
  8
1
 62
     7
 10
112.9874999999999
 20
13.529404884554239
 30
0.0
  0
SEQEND
  5
270
  8
1
 62
     7
  0
POLYLINE
  5
5F
  8
1
 62
     7
 66
     1
 10
0.0
 20
0.0
 30
0.0
  0
VERTEX
  5
271
  8
1
 62
     7
 10
111.4999999999999
 20
11.78652875943804
 30
0.0
 42
-0.0002405884440829
  0
VERTEX
  5
272
  8
1
 62
     7
 10
111.5259280745066
 20
11.785391279939461
 30
0.0
 42
-0.0007206204713165
  0
VERTEX
  5
273
  8
1
 62
     7
 10
111.5518502151902
 20
11.784204127399279
 30
0.0
 42
-0.0012026032721298
  0
VERTEX
  5
274
  8
1
 62
     7
 10
111.57776048822799
 20
11.782917628775889
 30
0.0
 42
-0.0016841419654895
  0
VERTEX
  5
275
  8
1
 62
     7
 10
111.6036529597969
 20
11.781482111027691
 30
0.0
 42
-0.0021681207167083
  0
VERTEX
  5
276
  8
1
 62
     7
 10
111.62952169607399
 20
11.779847901113101
 30
0.0
 42
-0.0026518248105216
  0
VERTEX
  5
277
  8
1
 62
     7
 10
111.6553607632364
 20
11.7779653259905
 30
0.0
 42
-0.0031377079228793
  0
VERTEX
  5
278
  8
1
 62
     7
 10
111.6811642274612
 20
11.775784712618281
 30
0.0
 42
-0.003622512447434
  0
VERTEX
  5
279
  8
1
 62
     7
 10
111.7069261549252
 20
11.77325638795485
 30
0.0
 42
-0.0041080369651198
  0
VERTEX
  5
27A
  8
1
 62
     7
 10
111.73264061180549
 20
11.77033067895861
 30
0.0
 42
-0.0045902600752519
  0
VERTEX
  5
27B
  8
1
 62
     7
 10
111.7583016642795
 20
11.76695791258796
 30
0.0
 42
-0.0145705768114633
  0
VERTEX
  5
27C
  8
1
 62
     7
 10
111.8090584891785
 20
11.75882513503652
 30
0.0
 42
-0.0036352653245694
  0
VERTEX
  5
27D
  8
1
 62
     7
 10
111.85953186177591
 20
11.748840975294071
 30
0.0
 42
-0.0136220772083392
  0
VERTEX
  5
27E
  8
1
 62
     7
 10
111.9096721518154
 20
11.73711141530014
 30
0.0
 42
-0.0027192377260107
  0
VERTEX
  5
27F
  8
1
 62
     7
 10
111.9594297290411
 20
11.72374243699425
 30
0.0
 42
-0.0163965851206775
  0
VERTEX
  5
280
  8
1
 62
     7
 10
112.03289076185931
 20
11.70096096140311
 30
0.0
 42
-0.0057692232519552
  0
VERTEX
  5
281
  8
1
 62
     7
 10
112.1045293741322
 20
11.67521273768757
 30
0.0
 42
-0.0170951004139577
  0
VERTEX
  5
282
  8
1
 62
     7
 10
112.1748754940419
 20
11.64623363777778
 30
0.0
 42
-0.0067381934957211
  0
VERTEX
  5
283
  8
1
 62
     7
 10
112.24374999999991
 20
11.61394097130869
 30
0.0
 42
-0.038297203613908
  0
VERTEX
  5
284
  8
1
 62
     7
 10
112.41542632947539
 20
11.51370727808542
 30
0.0
 42
-0.0200378319963496
  0
VERTEX
  5
285
  8
1
 62
     7
 10
112.5327376289158
 20
11.425432363780709
 30
0.0
 42
-0.1123019269775642
  0
VERTEX
  5
286
  8
1
 62
     7
 10
112.8788897954404
 20
10.981229843043
 30
0.0
 42
-0.013625833456452
  0
VERTEX
  5
287
  8
1
 62
     7
 10
112.906510540919
 20
10.91786267821252
 30
0.0
 42
-0.0048867075084793
  0
VERTEX
  5
288
  8
1
 62
     7
 10
112.91483631269141
 20
10.89665088971843
 30
0.0
 42
-0.0047839444643232
  0
VERTEX
  5
289
  8
1
 62
     7
 10
112.9227498461689
 20
10.875283253418811
 30
0.0
 42
-0.0052465136082252
  0
VERTEX
  5
28A
  8
1
 62
     7
 10
112.9302308987842
 20
10.85376769447616
 30
0.0
 42
-0.0051548794560981
  0
VERTEX
  5
28B
  8
1
 62
     7
 10
112.9372592279703
 20
10.832112138052929
 30
0.0
 42
-0.0056281313887473
  0
VERTEX
  5
28C
  8
1
 62
     7
 10
112.94381459115949
 20
10.81032450931159
 30
0.0
 42
-0.0055465531650193
  0
VERTEX
  5
28D
  8
1
 62
     7
 10
112.94987674578501
 20
10.788412733414599
 30
0.0
 42
-0.0060290391225412
  0
VERTEX
  5
28E
  8
1
 62
     7
 10
112.9554254492794
 20
10.766384735524481
 30
0.0
 42
-0.0059556446705148
  0
VERTEX
  5
28F
  8
1
 62
     7
 10
112.9604404590752
 20
10.74424844080364
 30
0.0
 42
-0.0064450228008091
  0
VERTEX
  5
290
  8
1
 62
     7
 10
112.9649015326055
 20
10.722011774414581
 30
0.0
 42
-0.0060345026460953
  0
VERTEX
  5
291
  8
1
 62
     7
 10
112.96876610049731
 20
10.699900564588489
 30
0.0
 42
-0.0053995777146557
  0
VERTEX
  5
292
  8
1
 62
     7
 10
112.9721239143409
 20
10.67770776408309
 30
0.0
 42
-0.0047602406411568
  0
VERTEX
  5
293
  8
1
 62
     7
 10
112.97503128014191
 20
10.6554424385294
 30
0.0
 42
-0.0041197873292615
  0
VERTEX
  5
294
  8
1
 62
     7
 10
112.97754450390541
 20
10.633113653558469
 30
0.0
 42
-0.0034799361528321
  0
VERTEX
  5
295
  8
1
 62
     7
 10
112.97971989163671
 20
10.610730474801329
 30
0.0
 42
-0.0028422370730615
  0
VERTEX
  5
296
  8
1
 62
     7
 10
112.98161374934151
 20
10.588301967889
 30
0.0
 42
-0.0022069117422411
  0
VERTEX
  5
297
  8
1
 62
     7
 10
112.9832823830247
 20
10.565837198452551
 30
0.0
 42
-0.0015742758587423
  0
VERTEX
  5
298
  8
1
 62
     7
 10
112.98478209869199
 20
10.543345232122981
 30
0.0
 42
-0.000943579178398
  0
VERTEX
  5
299
  8
1
 62
     7
 10
112.98616920234871
 20
10.520835134531341
 30
0.0
 42
-0.0003144207010261
  0
VERTEX
  5
29A
  8
1
 62
     7
 10
112.9874999999999
 20
10.49831597130868
 30
0.0
  0
SEQEND
  5
29B
  8
1
 62
     7
  0
POLYLINE
  5
8B
  8
1
 62
     7
 66
     1
 10
0.0
 20
0.0
 30
0.0
  0
VERTEX
  5
29C
  8
1
 62
     7
 10
115.0
 20
12.24119209642488
 30
0.0
 42
-0.0002405884437408
  0
VERTEX
  5
29D
  8
1
 62
     7
 10
114.9740719254934
 20
12.24232957592346
 30
0.0
 42
-0.0007206204716336
  0
VERTEX
  5
29E
  8
1
 62
     7
 10
114.9481497848096
 20
12.243516728463639
 30
0.0
 42
-0.0012026032718374
  0
VERTEX
  5
29F
  8
1
 62
     7
 10
114.92223951177191
 20
12.244803227087029
 30
0.0
 42
-0.0016841419658006
  0
VERTEX
  5
2A0
  8
1
 62
     7
 10
114.8963470402029
 20
12.246238744835219
 30
0.0
 42
-0.002168120716395
  0
VERTEX
  5
2A1
  8
1
 62
     7
 10
114.87047830392579
 20
12.24787295474982
 30
0.0
 42
-0.0026518248108204
  0
VERTEX
  5
2A2
  8
1
 62
     7
 10
114.8446392367634
 20
12.249755529872431
 30
0.0
 42
-0.0031377079225909
  0
VERTEX
  5
2A3
  8
1
 62
     7
 10
114.8188357725387
 20
12.25193614324464
 30
0.0
 42
-0.0036225124478159
  0
VERTEX
  5
2A4
  8
1
 62
     7
 10
114.7930738450747
 20
12.25446446790807
 30
0.0
 42
-0.0041080369647064
  0
VERTEX
  5
2A5
  8
1
 62
     7
 10
114.76735938819419
 20
12.257390176904311
 30
0.0
 42
-0.0045902600755943
  0
VERTEX
  5
2A6
  8
1
 62
     7
 10
114.7416983357204
 20
12.260762943274971
 30
0.0
 42
-0.0145705768093571
  0
VERTEX
  5
2A7
  8
1
 62
     7
 10
114.6909415108213
 20
12.268895720826411
 30
0.0
 42
-0.0036352653266899
  0
VERTEX
  5
2A8
  8
1
 62
     7
 10
114.64046813822389
 20
12.27887988056885
 30
0.0
 42
-0.0136220772061976
  0
VERTEX
  5
2A9
  8
1
 62
     7
 10
114.5903278481845
 20
12.290609440562781
 30
0.0
 42
-0.002719237728193
  0
VERTEX
  5
2AA
  8
1
 62
     7
 10
114.5405702709588
 20
12.30397841886867
 30
0.0
 42
-0.0163965851184388
  0
VERTEX
  5
2AB
  8
1
 62
     7
 10
114.46710923814059
 20
12.326759894459819
 30
0.0
 42
-0.0057692232541778
  0
VERTEX
  5
2AC
  8
1
 62
     7
 10
114.3954706258678
 20
12.35250811817536
 30
0.0
 42
-0.017095100411737
  0
VERTEX
  5
2AD
  8
1
 62
     7
 10
114.3251245059579
 20
12.381487218085139
 30
0.0
 42
-0.0067381934979401
  0
VERTEX
  5
2AE
  8
1
 62
     7
 10
114.25624999999989
 20
12.413779884554231
 30
0.0
 42
-0.0382972036116863
  0
VERTEX
  5
2AF
  8
1
 62
     7
 10
114.08457367052461
 20
12.514013577777501
 30
0.0
 42
-0.0200378319985995
  0
VERTEX
  5
2B0
  8
1
 62
     7
 10
113.967262371084
 20
12.60228849208222
 30
0.0
 42
-0.1123019269752424
  0
VERTEX
  5
2B1
  8
1
 62
     7
 10
113.6211102045596
 20
13.046491012819921
 30
0.0
 42
-0.0136258334586562
  0
VERTEX
  5
2B2
  8
1
 62
     7
 10
113.593489459081
 20
13.10985817765039
 30
0.0
 42
-0.004886707506664
  0
VERTEX
  5
2B3
  8
1
 62
     7
 10
113.58516368730849
 20
13.131069966144491
 30
0.0
 42
-0.0047839444652632
  0
VERTEX
  5
2B4
  8
1
 62
     7
 10
113.5772501538309
 20
13.15243760244411
 30
0.0
 42
-0.0052465136075745
  0
VERTEX
  5
2B5
  8
1
 62
     7
 10
113.5697691012157
 20
13.17395316138675
 30
0.0
 42
-0.0051548794570451
  0
VERTEX
  5
2B6
  8
1
 62
     7
 10
113.5627407720297
 20
13.19560871781
 30
0.0
 42
-0.0056281313874899
  0
VERTEX
  5
2B7
  8
1
 62
     7
 10
113.55618540884019
 20
13.217396346551331
 30
0.0
 42
-0.005546553165974
  0
VERTEX
  5
2B8
  8
1
 62
     7
 10
113.5501232542148
 20
13.23930812244831
 30
0.0
 42
-0.0060290391225025
  0
VERTEX
  5
2B9
  8
1
 62
     7
 10
113.5445745507206
 20
13.26133612033844
 30
0.0
 42
-0.0059556446699442
  0
VERTEX
  5
2BA
  8
1
 62
     7
 10
113.5395595409245
 20
13.283472415059279
 30
0.0
 42
-0.0064450228013767
  0
VERTEX
  5
2BB
  8
1
 62
     7
 10
113.53509846739421
 20
13.30570908144834
 30
0.0
 42
-0.0060345026455095
  0
VERTEX
  5
2BC
  8
1
 62
     7
 10
113.5312338995025
 20
13.32782029127441
 30
0.0
 42
-0.0053995777158811
  0
VERTEX
  5
2BD
  8
1
 62
     7
 10
113.5278760856589
 20
13.350013091779831
 30
0.0
 42
-0.0047602406396085
  0
VERTEX
  5
2BE
  8
1
 62
     7
 10
113.5249687198579
 20
13.372278417333501
 30
0.0
 42
-0.0041197873311385
  0
VERTEX
  5
2BF
  8
1
 62
     7
 10
113.52245549609449
 20
13.39460720230444
 30
0.0
 42
-0.0034799361509467
  0
VERTEX
  5
2C0
  8
1
 62
     7
 10
113.5202801083631
 20
13.416990381061581
 30
0.0
 42
-0.0028422370746395
  0
VERTEX
  5
2C1
  8
1
 62
     7
 10
113.5183862506583
 20
13.4394188879739
 30
0.0
 42
-0.0022069117412888
  0
VERTEX
  5
2C2
  8
1
 62
     7
 10
113.5167176169751
 20
13.461883657410359
 30
0.0
 42
-0.0015742758593826
  0
VERTEX
  5
2C3
  8
1
 62
     7
 10
113.51521790130769
 20
13.484375623739931
 30
0.0
 42
-0.0009435791777574
  0
VERTEX
  5
2C4
  8
1
 62
     7
 10
113.5138307976512
 20
13.506885721331569
 30
0.0
 42
-0.0003144207016643
  0
VERTEX
  5
2C5
  8
1
 62
     7
 10
113.5125
 20
13.529404884554239
 30
0.0
  0
SEQEND
  5
2C6
  8
1
 62
     7
  0
POLYLINE
  5
B7
  8
1
 62
     7
 66
     1
 10
0.0
 20
0.0
 30
0.0
  0
VERTEX
  5
2C7
  8
1
 62
     7
 10
115.0
 20
11.78652875943804
 30
0.0
 42
0.0002405884436056
  0
VERTEX
  5
2C8
  8
1
 62
     7
 10
114.9740719254934
 20
11.785391279939461
 30
0.0
 42
0.0007206204717688
  0
VERTEX
  5
2C9
  8
1
 62
     7
 10
114.9481497848096
 20
11.78420412739929
 30
0.0
 42
0.0012026032717026
  0
VERTEX
  5
2CA
  8
1
 62
     7
 10
114.92223951177191
 20
11.782917628775889
 30
0.0
 42
0.0016841419659351
  0
VERTEX
  5
2CB
  8
1
 62
     7
 10
114.8963470402029
 20
11.78148211102771
 30
0.0
 42
0.0021681207162584
  0
VERTEX
  5
2CC
  8
1
 62
     7
 10
114.87047830392579
 20
11.779847901113101
 30
0.0
 42
0.0026518248109568
  0
VERTEX
  5
2CD
  8
1
 62
     7
 10
114.8446392367634
 20
11.7779653259905
 30
0.0
 42
0.0031377079224883
  0
VERTEX
  5
2CE
  8
1
 62
     7
 10
114.8188357725387
 20
11.775784712618281
 30
0.0
 42
0.0036225124478161
  0
VERTEX
  5
2CF
  8
1
 62
     7
 10
114.7930738450747
 20
11.773256387954859
 30
0.0
 42
0.0041080369648072
  0
VERTEX
  5
2D0
  8
1
 62
     7
 10
114.76735938819419
 20
11.77033067895861
 30
0.0
 42
0.0045902600754584
  0
VERTEX
  5
2D1
  8
1
 62
     7
 10
114.7416983357204
 20
11.76695791258796
 30
0.0
 42
0.0145705768091616
  0
VERTEX
  5
2D2
  8
1
 62
     7
 10
114.6909415108213
 20
11.75882513503651
 30
0.0
 42
0.0036352653268678
  0
VERTEX
  5
2D3
  8
1
 62
     7
 10
114.64046813822389
 20
11.748840975294071
 30
0.0
 42
0.013622077206014
  0
VERTEX
  5
2D4
  8
1
 62
     7
 10
114.5903278481845
 20
11.73711141530014
 30
0.0
 42
0.0027192377283759
  0
VERTEX
  5
2D5
  8
1
 62
     7
 10
114.5405702709588
 20
11.72374243699425
 30
0.0
 42
0.0163965851182415
  0
VERTEX
  5
2D6
  8
1
 62
     7
 10
114.46710923814059
 20
11.70096096140311
 30
0.0
 42
0.0057692232543971
  0
VERTEX
  5
2D7
  8
1
 62
     7
 10
114.3954706258678
 20
11.675212737687559
 30
0.0
 42
0.0170951004114933
  0
VERTEX
  5
2D8
  8
1
 62
     7
 10
114.3251245059579
 20
11.64623363777778
 30
0.0
 42
0.0067381934981946
  0
VERTEX
  5
2D9
  8
1
 62
     7
 10
114.25624999999989
 20
11.61394097130869
 30
0.0
 42
0.0382972036114242
  0
VERTEX
  5
2DA
  8
1
 62
     7
 10
114.08457367052461
 20
11.51370727808542
 30
0.0
 42
0.0200378319988834
  0
VERTEX
  5
2DB
  8
1
 62
     7
 10
113.967262371084
 20
11.42543236378069
 30
0.0
 42
0.1123019269749483
  0
VERTEX
  5
2DC
  8
1
 62
     7
 10
113.6211102045596
 20
10.981229843043
 30
0.0
 42
0.0136258334588554
  0
VERTEX
  5
2DD
  8
1
 62
     7
 10
113.593489459081
 20
10.91786267821252
 30
0.0
 42
0.0048867075065619
  0
VERTEX
  5
2DE
  8
1
 62
     7
 10
113.58516368730849
 20
10.89665088971843
 30
0.0
 42
0.0047839444653391
  0
VERTEX
  5
2DF
  8
1
 62
     7
 10
113.5772501538309
 20
10.875283253418811
 30
0.0
 42
0.0052465136075254
  0
VERTEX
  5
2E0
  8
1
 62
     7
 10
113.5697691012157
 20
10.853767694476151
 30
0.0
 42
0.005154879457068
  0
VERTEX
  5
2E1
  8
1
 62
     7
 10
113.5627407720297
 20
10.83211213805291
 30
0.0
 42
0.0056281313874885
  0
VERTEX
  5
2E2
  8
1
 62
     7
 10
113.55618540884019
 20
10.810324509311579
 30
0.0
 42
0.0055465531659534
  0
VERTEX
  5
2E3
  8
1
 62
     7
 10
113.5501232542148
 20
10.788412733414599
 30
0.0
 42
0.0060290391225329
  0
VERTEX
  5
2E4
  8
1
 62
     7
 10
113.5445745507206
 20
10.766384735524481
 30
0.0
 42
0.0059556446699139
  0
VERTEX
  5
2E5
  8
1
 62
     7
 10
113.5395595409245
 20
10.74424844080364
 30
0.0
 42
0.0064450228014084
  0
VERTEX
  5
2E6
  8
1
 62
     7
 10
113.53509846739421
 20
10.722011774414581
 30
0.0
 42
0.0060345026454797
  0
VERTEX
  5
2E7
  8
1
 62
     7
 10
113.5312338995025
 20
10.6999005645885
 30
0.0
 42
0.0053995777159105
  0
VERTEX
  5
2E8
  8
1
 62
     7
 10
113.5278760856589
 20
10.67770776408309
 30
0.0
 42
0.0047602406395837
  0
VERTEX
  5
2E9
  8
1
 62
     7
 10
113.5249687198579
 20
10.655442438529411
 30
0.0
 42
0.0041197873311534
  0
VERTEX
  5
2EA
  8
1
 62
     7
 10
113.52245549609449
 20
10.63311365355848
 30
0.0
 42
0.0034799361509402
  0
VERTEX
  5
2EB
  8
1
 62
     7
 10
113.5202801083631
 20
10.610730474801329
 30
0.0
 42
0.0028422370746388
  0
VERTEX
  5
2EC
  8
1
 62
     7
 10
113.5183862506583
 20
10.58830196788902
 30
0.0
 42
0.0022069117412934
  0
VERTEX
  5
2ED
  8
1
 62
     7
 10
113.5167176169751
 20
10.565837198452559
 30
0.0
 42
0.0015742758593783
  0
VERTEX
  5
2EE
  8
1
 62
     7
 10
113.51521790130769
 20
10.543345232122981
 30
0.0
 42
0.0009435791777641
  0
VERTEX
  5
2EF
  8
1
 62
     7
 10
113.5138307976512
 20
10.520835134531341
 30
0.0
 42
0.000314420701655
  0
VERTEX
  5
2F0
  8
1
 62
     7
 10
113.5125
 20
10.49831597130868
 30
0.0
  0
SEQEND
  5
2F1
  8
1
 62
     7
  0
POLYLINE
  5
E3
  8
1
 62
     7
 66
     1
 10
0.0
 20
0.0
 30
0.0
  0
VERTEX
  5
2F2
  8
1
 62
     7
 10
110.4999999999999
 20
11.274999999999981
 30
0.0
 42
0.0003153291247781
  0
VERTEX
  5
2F3
  8
1
 62
     7
 10
110.5024553087877
 20
11.233366247134519
 30
0.0
 42
0.0012765726223905
  0
VERTEX
  5
2F4
  8
1
 62
     7
 10
110.50501501509871
 20
11.19174935646549
 30
0.0
 42
0.0012485797711969
  0
VERTEX
  5
2F5
  8
1
 62
     7
 10
110.5077835164562
 20
11.150166190189269
 30
0.0
 42
0.0025436099208448
  0
VERTEX
  5
2F6
  8
1
 62
     7
 10
110.5108652103835
 20
11.1086336105023
 30
0.0
 42
0.0025203023576639
  0
VERTEX
  5
2F7
  8
1
 62
     7
 10
110.51436449440391
 20
11.067168479600991
 30
0.0
 42
0.0038204702487239
  0
VERTEX
  5
2F8
  8
1
 62
     7
 10
110.51838576604079
 20
11.02578765968174
 30
0.0
 42
0.0038017553649851
  0
VERTEX
  5
2F9
  8
1
 62
     7
 10
110.52303342281699
 20
10.984508012940999
 30
0.0
 42
0.0051047469511694
  0
VERTEX
  5
2FA
  8
1
 62
     7
 10
110.52841186225631
 20
10.943346401575139
 30
0.0
 42
0.0050855504735064
  0
VERTEX
  5
2FB
  8
1
 62
     7
 10
110.5346254818816
 20
10.90231968778059
 30
0.0
 42
0.0126730439451996
  0
VERTEX
  5
2FC
  8
1
 62
     7
 10
110.5500375064854
 20
10.82033880530131
 30
0.0
 42
0.0059726165055067
  0
VERTEX
  5
2FD
  8
1
 62
     7
 10
110.5593219654004
 20
10.77941896106697
 30
0.0
 42
0.0060124383073392
  0
VERTEX
  5
2FE
  8
1
 62
     7
 10
110.56959309693509
 20
10.738699333517079
 30
0.0
 42
0.0055441677558327
  0
VERTEX
  5
2FF
  8
1
 62
     7
 10
110.58081194206341
 20
10.69819405511798
 30
0.0
 42
0.0055921792050284
  0
VERTEX
  5
300
  8
1
 62
     7
 10
110.59293954175931
 20
10.657917258335971
 30
0.0
 42
0.0051331934368459
  0
VERTEX
  5
301
  8
1
 62
     7
 10
110.6059369369967
 20
10.61788307563736
 30
0.0
 42
0.0051913369344068
  0
VERTEX
  5
302
  8
1
 62
     7
 10
110.6197651687495
 20
10.57810563948849
 30
0.0
 42
0.0047431174839559
  0
VERTEX
  5
303
  8
1
 62
     7
 10
110.6343852779914
 20
10.538599082355651
 30
0.0
 42
0.0048124651983357
  0
VERTEX
  5
304
  8
1
 62
     7
 10
110.64975830569659
 20
10.4993775367052
 30
0.0
 42
0.0095975330798815
  0
VERTEX
  5
305
  8
1
 62
     7
 10
110.6856695939495
 20
10.414997464279439
 30
0.0
 42
0.0152220695225423
  0
VERTEX
  5
306
  8
1
 62
     7
 10
110.75058171317799
 20
10.2813046615184
 30
0.0
 42
0.0144736965151894
  0
VERTEX
  5
307
  8
1
 62
     7
 10
110.8232689016814
 20
10.151781245344729
 30
0.0
 42
0.0141051960695951
  0
VERTEX
  5
308
  8
1
 62
     7
 10
110.9032377607282
 20
10.02661888036409
 30
0.0
 42
0.0119638095251973
  0
VERTEX
  5
309
  8
1
 62
     7
 10
110.9785224141624
 20
9.9213167621167173
 30
0.0
 42
0.0129661725122414
  0
VERTEX
  5
30A
  8
1
 62
     7
 10
111.0589498311878
 20
9.8199120573510879
 30
0.0
 42
0.0130004393402721
  0
VERTEX
  5
30B
  8
1
 62
     7
 10
111.144508838555
 20
9.7228455693352842
 30
0.0
 42
0.0187925051958239
  0
VERTEX
  5
30C
  8
1
 62
     7
 10
111.2688839093445
 20
9.5986325377064876
 30
0.0
 42
0.0127544371204005
  0
VERTEX
  5
30D
  8
1
 62
     7
 10
111.3685102021017
 20
9.5109607996250691
 30
0.0
 42
0.0174188888957348
  0
VERTEX
  5
30E
  8
1
 62
     7
 10
111.5081692365
 20
9.4022758272843543
 30
0.0
 42
0.0284395114753149
  0
VERTEX
  5
30F
  8
1
 62
     7
 10
111.77507208644739
 20
9.2313430965364773
 30
0.0
 42
0.0246581779455535
  0
VERTEX
  5
310
  8
1
 62
     7
 10
112.02055395200919
 20
9.1086632575778932
 30
0.0
 42
0.0270995604167059
  0
VERTEX
  5
311
  8
1
 62
     7
 10
112.32319120903421
 20
8.9947648410172292
 30
0.0
 42
0.0619593678262765
  0
VERTEX
  5
312
  8
1
 62
     7
 10
113.0611723942057
 20
8.8589418198395453
 30
0.0
 42
0.0632100001062988
  0
VERTEX
  5
313
  8
1
 62
     7
 10
113.85906004590559
 20
8.9132841082833671
 30
0.0
 42
0.0322232173277134
  0
VERTEX
  5
314
  8
1
 62
     7
 10
114.220779757355
 20
9.0089978191651934
 30
0.0
 42
0.0223394779412074
  0
VERTEX
  5
315
  8
1
 62
     7
 10
114.47944604799071
 20
9.1086632575778932
 30
0.0
 42
0.033573765117902
  0
VERTEX
  5
316
  8
1
 62
     7
 10
114.8031655939192
 20
9.2770176031350466
 30
0.0
 42
0.0237940033148623
  0
VERTEX
  5
317
  8
1
 62
     7
 10
115.0274244154626
 20
9.4285621288878332
 30
0.0
 42
0.0491260756037359
  0
VERTEX
  5
318
  8
1
 62
     7
 10
115.3845803175652
 20
9.7546918311789614
 30
0.0
 42
0.013841237080849
  0
VERTEX
  5
319
  8
1
 62
     7
 10
115.4684300362907
 20
9.8532533695855982
 30
0.0
 42
0.0246815954204349
  0
VERTEX
  5
31A
  8
1
 62
     7
 10
115.6241971434137
 20
10.067843276298801
 30
0.0
 42
0.01439844138715
  0
VERTEX
  5
31B
  8
1
 62
     7
 10
115.7017936010274
 20
10.19448062107775
 30
0.0
 42
0.0145479567339953
  0
VERTEX
  5
31C
  8
1
 62
     7
 10
115.77194392185361
 20
10.32541512884783
 30
0.0
 42
0.0155275692895463
  0
VERTEX
  5
31D
  8
1
 62
     7
 10
115.8341547071612
 20
10.460455135003411
 30
0.0
 42
0.0043618592561356
  0
VERTEX
  5
31E
  8
1
 62
     7
 10
115.85024169430341
 20
10.4993775367052
 30
0.0
 42
0.004826329788586
  0
VERTEX
  5
31F
  8
1
 62
     7
 10
115.8656147220085
 20
10.538599082355651
 30
0.0
 42
0.0047292529050451
  0
VERTEX
  5
320
  8
1
 62
     7
 10
115.88023483125041
 20
10.57810563948849
 30
0.0
 42
0.0052052015768046
  0
VERTEX
  5
321
  8
1
 62
     7
 10
115.8940630630032
 20
10.61788307563736
 30
0.0
 42
0.0051193288047565
  0
VERTEX
  5
322
  8
1
 62
     7
 10
115.90706045824059
 20
10.657917258335971
 30
0.0
 42
0.0056060439074308
  0
VERTEX
  5
323
  8
1
 62
     7
 10
115.91918805793649
 20
10.69819405511798
 30
0.0
 42
0.0055303030629837
  0
VERTEX
  5
324
  8
1
 62
     7
 10
115.93040690306491
 20
10.738699333517079
 30
0.0
 42
0.0060263030772742
  0
VERTEX
  5
325
  8
1
 62
     7
 10
115.9406780345995
 20
10.77941896106697
 30
0.0
 42
0.0059587517446566
  0
VERTEX
  5
326
  8
1
 62
     7
 10
115.94996249351451
 20
10.82033880530131
 30
0.0
 42
0.0064615831488435
  0
VERTEX
  5
327
  8
1
 62
     7
 10
115.95822132078349
 20
10.861444733753769
 30
0.0
 42
0.0060527464109126
  0
VERTEX
  5
328
  8
1
 62
     7
 10
115.9653745181183
 20
10.90231968778059
 30
0.0
 42
0.0054158235189472
  0
VERTEX
  5
329
  8
1
 62
     7
 10
115.97158813774369
 20
10.943346401575139
 30
0.0
 42
0.0047744749528272
  0
VERTEX
  5
32A
  8
1
 62
     7
 10
115.97696657718291
 20
10.984508012940999
 30
0.0
 42
0.0041320245018999
  0
VERTEX
  5
32B
  8
1
 62
     7
 10
115.98161423395911
 20
11.02578765968174
 30
0.0
 42
0.0034902018960982
  0
VERTEX
  5
32C
  8
1
 62
     7
 10
115.98563550559599
 20
11.067168479600991
 30
0.0
 42
0.0028505686791937
  0
VERTEX
  5
32D
  8
1
 62
     7
 10
115.9891347896164
 20
11.1086336105023
 30
0.0
 42
0.0022133441126809
  0
VERTEX
  5
32E
  8
1
 62
     7
 10
115.9922164835436
 20
11.150166190189269
 30
0.0
 42
0.0015788443708964
  0
VERTEX
  5
32F
  8
1
 62
     7
 10
115.99498498490129
 20
11.19174935646549
 30
0.0
 42
0.000946308274947
  0
VERTEX
  5
330
  8
1
 62
     7
 10
115.9975446912123
 20
11.233366247134519
 30
0.0
 42
0.0003153291244403
  0
VERTEX
  5
331
  8
1
 62
     7
 10
116.0
 20
11.274999999999981
 30
0.0
  0
SEQEND
  5
332
  8
1
 62
     7
  0
POLYLINE
  5
125
  8
1
 62
     7
 66
     1
 10
0.0
 20
0.0
 30
0.0
  0
VERTEX
  5
333
  8
1
 62
     7
 10
116.0
 20
11.49456007081225
 30
0.0
 42
0.0003188268332446
  0
VERTEX
  5
334
  8
1
 62
     7
 10
115.9975638844785
 20
11.536201810708301
 30
0.0
 42
0.0012833445355061
  0
VERTEX
  5
335
  8
1
 62
     7
 10
115.9950222082054
 20
11.57782620434546
 30
0.0
 42
0.0012699293695913
  0
VERTEX
  5
336
  8
1
 62
     7
 10
115.9922694104293
 20
11.61941590546488
 30
0.0
 42
0.0025646964039124
  0
VERTEX
  5
337
  8
1
 62
     7
 10
115.9891999303986
 20
11.66095356780767
 30
0.0
 42
0.0025562496981692
  0
VERTEX
  5
338
  8
1
 62
     7
 10
115.9857082073619
 20
11.70242184511498
 30
0.0
 42
0.0038564954812234
  0
VERTEX
  5
339
  8
1
 62
     7
 10
115.9816886805674
 20
11.74380339112791
 30
0.0
 42
0.0038530067260675
  0
VERTEX
  5
33A
  8
1
 62
     7
 10
115.97703578926389
 20
11.785080859587589
 30
0.0
 42
0.0051564222690616
  0
VERTEX
  5
33B
  8
1
 62
     7
 10
115.97164397269989
 20
11.826236904235159
 30
0.0
 42
0.0051527237796461
  0
VERTEX
  5
33C
  8
1
 62
     7
 10
115.9654076701235
 20
11.86725417881174
 30
0.0
 42
0.0128093674205039
  0
VERTEX
  5
33D
  8
1
 62
     7
 10
115.94991839193079
 20
11.949202913204729
 30
0.0
 42
0.0059822739694033
  0
VERTEX
  5
33E
  8
1
 62
     7
 10
115.9405838773565
 20
11.990101927420969
 30
0.0
 42
0.0060052717090029
  0
VERTEX
  5
33F
  8
1
 62
     7
 10
115.9302626439972
 20
12.03080070574169
 30
0.0
 42
0.0054778263180759
  0
VERTEX
  5
340
  8
1
 62
     7
 10
115.91899955878939
 20
12.071287574201371
 30
0.0
 42
0.0055087113714541
  0
VERTEX
  5
341
  8
1
 62
     7
 10
115.90683948866941
 20
12.111550858834489
 30
0.0
 42
0.0049904502911005
  0
VERTEX
  5
342
  8
1
 62
     7
 10
115.89382730057351
 20
12.15157888567553
 30
0.0
 42
0.0050314805485022
  0
VERTEX
  5
343
  8
1
 62
     7
 10
115.8800078614384
 20
12.191359980759
 30
0.0
 42
0.0045240351835694
  0
VERTEX
  5
344
  8
1
 62
     7
 10
115.8654260382004
 20
12.230882470119379
 30
0.0
 42
0.0045762839088004
  0
VERTEX
  5
345
  8
1
 62
     7
 10
115.8501266977957
 20
12.270134679791161
 30
0.0
 42
0.0104617279226037
  0
VERTEX
  5
346
  8
1
 62
     7
 10
115.8081206853827
 20
12.36901050048278
 30
0.0
 42
0.0060026145448693
  0
VERTEX
  5
347
  8
1
 62
     7
 10
115.78063372697871
 20
12.42821483424432
 30
0.0
 42
0.0059284818736978
  0
VERTEX
  5
348
  8
1
 62
     7
 10
115.7517530995779
 20
12.4867239963237
 30
0.0
 42
0.0055810298862661
  0
VERTEX
  5
349
  8
1
 62
     7
 10
115.72153807080799
 20
12.54454404595122
 30
0.0
 42
0.005505828177967
  0
VERTEX
  5
34A
  8
1
 62
     7
 10
115.6900479082973
 20
12.601681042357169
 30
0.0
 42
0.0051590437069423
  0
VERTEX
  5
34B
  8
1
 62
     7
 10
115.65734187967441
 20
12.65814104477184
 30
0.0
 42
0.0050859975348743
  0
VERTEX
  5
34C
  8
1
 62
     7
 10
115.62347925256719
 20
12.71393011242553
 30
0.0
 42
0.0047426217064399
  0
VERTEX
  5
34D
  8
1
 62
     7
 10
115.588519294604
 20
12.76905430454851
 30
0.0
 42
0.0046740096501104
  0
VERTEX
  5
34E
  8
1
 62
     7
 10
115.55252127341321
 20
12.823519680371099
 30
0.0
 42
0.0043358847072127
  0
VERTEX
  5
34F
  8
1
 62
     7
 10
115.51554445662261
 20
12.877332299123569
 30
0.0
 42
0.0028534398787428
  0
VERTEX
  5
350
  8
1
 62
     7
 10
115.49144107365071
 20
12.911351612203299
 30
0.0
 42
0.0030643908500602
  0
VERTEX
  5
351
  8
1
 62
     7
 10
115.4669406365538
 20
12.945077918292769
 30
0.0
 42
0.0032770747313533
  0
VERTEX
  5
352
  8
1
 62
     7
 10
115.4420210497684
 20
12.97848191623668
 30
0.0
 42
0.0034911023028098
  0
VERTEX
  5
353
  8
1
 62
     7
 10
115.4166602177304
 20
13.01153430487973
 30
0.0
 42
0.0037066184451955
  0
VERTEX
  5
354
  8
1
 62
     7
 10
115.3908360448761
 20
13.044205783066641
 30
0.0
 42
0.0039230848472972
  0
VERTEX
  5
355
  8
1
 62
     7
 10
115.36452643564181
 20
13.07646704964208
 30
0.0
 42
0.0041404846090962
  0
VERTEX
  5
356
  8
1
 62
     7
 10
115.33770929446349
 20
13.108288803450771
 30
0.0
 42
0.0043581053399859
  0
VERTEX
  5
357
  8
1
 62
     7
 10
115.31036252577751
 20
13.1396417433374
 30
0.0
 42
0.0211638495398571
  0
VERTEX
  5
358
  8
1
 62
     7
 10
115.2241861045311
 20
13.23134786760223
 30
0.0
 42
0.0030690924861214
  0
VERTEX
  5
359
  8
1
 62
     7
 10
115.1627875751504
 20
13.29064804443707
 30
0.0
 42
0.0157549911713012
  0
VERTEX
  5
35A
  8
1
 62
     7
 10
115.09915980363471
 20
13.34763198618599
 30
0.0
 42
0.0022534922111998
  0
VERTEX
  5
35B
  8
1
 62
     7
 10
115.0334873653249
 20
13.40231637862267
 30
0.0
 42
0.048102138593085
  0
VERTEX
  5
35C
  8
1
 62
     7
 10
114.6738421134763
 20
13.64506025081366
 30
0.0
 42
0.1513210439663052
  0
VERTEX
  5
35D
  8
1
 62
     7
 10
112.9313888694293
 20
13.99324055288657
 30
0.0
 42
0.0432532124214225
  0
VERTEX
  5
35E
  8
1
 62
     7
 10
112.4420204126115
 20
13.89933253197686
 30
0.0
 42
0.0222867745175085
  0
VERTEX
  5
35F
  8
1
 62
     7
 10
112.1868062295825
 20
13.814584359560349
 30
0.0
 42
0.0492067577628014
  0
VERTEX
  5
360
  8
1
 62
     7
 10
111.7134396317757
 20
13.577982084164651
 30
0.0
 42
0.0200923447113812
  0
VERTEX
  5
361
  8
1
 62
     7
 10
111.53404516443889
 20
13.45471790752074
 30
0.0
 42
0.0088486099231132
  0
VERTEX
  5
362
  8
1
 62
     7
 10
111.4665126346751
 20
13.40231637862267
 30
0.0
 42
0.0083792078684583
  0
VERTEX
  5
363
  8
1
 62
     7
 10
111.40084019636519
 20
13.34763198618599
 30
0.0
 42
0.0285938625424827
  0
VERTEX
  5
364
  8
1
 62
     7
 10
111.21753596597991
 20
13.170496568146691
 30
0.0
 42
0.0051081400666037
  0
VERTEX
  5
365
  8
1
 62
     7
 10
111.18963747422239
 20
13.1396417433374
 30
0.0
 42
0.0038257135382891
  0
VERTEX
  5
366
  8
1
 62
     7
 10
111.16229070553641
 20
13.108288803450771
 30
0.0
 42
0.004672877835107
  0
VERTEX
  5
367
  8
1
 62
     7
 10
111.13547356435819
 20
13.07646704964208
 30
0.0
 42
0.0033906948400698
  0
VERTEX
  5
368
  8
1
 62
     7
 10
111.1091639551238
 20
13.044205783066641
 30
0.0
 42
0.0042390097356816
  0
VERTEX
  5
369
  8
1
 62
     7
 10
111.0833397822695
 20
13.01153430487973
 30
0.0
 42
0.0029587138782563
  0
VERTEX
  5
36A
  8
1
 62
     7
 10
111.0579789502315
 20
12.97848191623668
 30
0.0
 42
0.0038094643031704
  0
VERTEX
  5
36B
  8
1
 62
     7
 10
111.033059363446
 20
12.945077918292769
 30
0.0
 42
0.0099481954497617
  0
VERTEX
  5
36C
  8
1
 62
     7
 10
110.9474787265867
 20
12.823519680371099
 30
0.0
 42
0.004753235813135
  0
VERTEX
  5
36D
  8
1
 62
     7
 10
110.9114807053959
 20
12.76905430454851
 30
0.0
 42
0.0046633955511508
  0
VERTEX
  5
36E
  8
1
 62
     7
 10
110.87652074743271
 20
12.71393011242553
 30
0.0
 42
0.0051652240193212
  0
VERTEX
  5
36F
  8
1
 62
     7
 10
110.8426581203255
 20
12.65814104477184
 30
0.0
 42
0.0050798172275118
  0
VERTEX
  5
370
  8
1
 62
     7
 10
110.8099520917025
 20
12.601681042357169
 30
0.0
 42
0.0055850550173419
  0
VERTEX
  5
371
  8
1
 62
     7
 10
110.77846192919201
 20
12.54454404595122
 30
0.0
 42
0.0055018030504259
  0
VERTEX
  5
372
  8
1
 62
     7
 10
110.7482469004221
 20
12.4867239963237
 30
0.0
 42
0.0060077090985982
  0
VERTEX
  5
373
  8
1
 62
     7
 10
110.71936627302119
 20
12.42821483424432
 30
0.0
 42
0.0059233873248823
  0
VERTEX
  5
374
  8
1
 62
     7
 10
110.6918793146173
 20
12.36901050048278
 30
0.0
 42
0.0064262412584722
  0
VERTEX
  5
375
  8
1
 62
     7
 10
110.6658452928388
 20
12.309104935808829
 30
0.0
 42
0.0040694225337812
  0
VERTEX
  5
376
  8
1
 62
     7
 10
110.6498733022042
 20
12.270134679791161
 30
0.0
 42
0.004587095350999
  0
VERTEX
  5
377
  8
1
 62
     7
 10
110.6345739617996
 20
12.230882470119379
 30
0.0
 42
0.0045132237475598
  0
VERTEX
  5
378
  8
1
 62
     7
 10
110.6199921385615
 20
12.191359980759
 30
0.0
 42
0.0050422920380587
  0
VERTEX
  5
379
  8
1
 62
     7
 10
110.60617269942639
 20
12.15157888567553
 30
0.0
 42
0.004979638807161
  0
VERTEX
  5
37A
  8
1
 62
     7
 10
110.5931605113305
 20
12.111550858834489
 30
0.0
 42
0.0055195229154481
  0
VERTEX
  5
37B
  8
1
 62
     7
 10
110.58100044121051
 20
12.071287574201371
 30
0.0
 42
0.0054670147790291
  0
VERTEX
  5
37C
  8
1
 62
     7
 10
110.5697373560027
 20
12.03080070574169
 30
0.0
 42
0.0060160833150419
  0
VERTEX
  5
37D
  8
1
 62
     7
 10
110.5594161226435
 20
11.990101927420969
 30
0.0
 42
0.0059714623674171
  0
VERTEX
  5
37E
  8
1
 62
     7
 10
110.55008160806921
 20
11.949202913204729
 30
0.0
 42
0.0065267643320496
  0
VERTEX
  5
37F
  8
1
 62
     7
 10
110.54177867921641
 20
11.90811533705846
 30
0.0
 42
0.006124214889762
  0
VERTEX
  5
380
  8
1
 62
     7
 10
110.5345923298764
 20
11.86725417881174
 30
0.0
 42
0.0054792580640156
  0
VERTEX
  5
381
  8
1
 62
     7
 10
110.52835602730001
 20
11.826236904235159
 30
0.0
 42
0.0048298890715867
  0
VERTEX
  5
382
  8
1
 62
     7
 10
110.52296421073601
 20
11.785080859587589
 30
0.0
 42
0.0041795370497417
  0
VERTEX
  5
383
  8
1
 62
     7
 10
110.5183113194325
 20
11.74380339112791
 30
0.0
 42
0.0035299659707556
  0
VERTEX
  5
384
  8
1
 62
     7
 10
110.51429179263801
 20
11.70242184511498
 30
0.0
 42
0.0028827771697494
  0
VERTEX
  5
385
  8
1
 62
     7
 10
110.5108000696014
 20
11.66095356780767
 30
0.0
 42
0.0022381694642001
  0
VERTEX
  5
386
  8
1
 62
     7
 10
110.5077305895707
 20
11.61941590546488
 30
0.0
 42
0.0015964550971368
  0
VERTEX
  5
387
  8
1
 62
     7
 10
110.5049777917946
 20
11.57782620434546
 30
0.0
 42
0.000956819068666
  0
VERTEX
  5
388
  8
1
 62
     7
 10
110.5024361155215
 20
11.536201810708301
 30
0.0
 42
0.0003188268332449
  0
VERTEX
  5
389
  8
1
 62
     7
 10
110.4999999999999
 20
11.49456007081225
 30
0.0
  0
SEQEND
  5
38A
  8
1
 62
     7
  0
LINE
  5
17E
  8
1
 62
     7
 10
111.4999999999999
 20
12.24119209642488
 30
0.0
 11
111.4999999999999
 21
11.78652875943804
 31
0.0
  0
LINE
  5
17F
  8
1
 62
     7
 10
115.0
 20
12.24119209642488
 30
0.0
 11
115.0
 21
11.78652875943804
 31
0.0
  0
LINE
  5
180
  8
1
 62
     7
 10
112.9874999999999
 20
10.49831597130868
 30
0.0
 11
113.5125
 21
10.49831597130868
 31
0.0
  0
LINE
  5
181
  8
1
 62
     7
 10
112.9874999999999
 20
13.529404884554239
 30
0.0
 11
113.5125
 21
13.529404884554239
 31
0.0
  0
LINE
  5
182
  8
1
 62
     7
 10
116.0
 20
11.49456007081225
 30
0.0
 11
116.0
 21
11.274999999999981
 31
0.0
  0
LINE
  5
183
  8
1
 62
     7
 10
110.4999999999999
 20
11.49456007081225
 30
0.0
 11
110.4999999999999
 21
11.274999999999981
 31
0.0
  0
LINE
  5
184
  8
1
 62
     7
 10
1.5
 20
-22.19938062199034
 30
0.0
 11
1.5
 21
-22.25
 31
0.0
  0
LINE
  5
185
  8
1
 62
     7
 10
-1.5
 20
-22.25
 30
0.0
 11
-1.5
 21
-22.19938062199034
 31
0.0
  0
LINE
  5
186
  8
1
 62
     7
 10
2.75
 20
-22.550000000000001
 30
0.0
 11
2.75
 21
-22.98912014162449
 31
0.0
  0
LINE
  5
187
  8
1
 62
     7
 10
-2.4499999999999891
 20
-22.25
 30
0.0
 11
2.4499999999999891
 21
-22.25
 31
0.0
  0
LINE
  5
188
  8
1
 62
     7
 10
-2.75
 20
-22.98912014162449
 30
0.0
 11
-2.75
 21
-22.550000000000001
 31
0.0
  0
LINE
  5
189
  8
1
 62
     7
 10
-19.975227566923639
 20
9.8006522053185208
 30
0.0
 11
-20.019065234203762
 21
9.8259618943233367
 31
0.0
  0
LINE
  5
18A
  8
1
 62
     7
 10
-18.519065234203762
 20
12.424038105676649
 30
0.0
 11
-18.47522756692365
 21
12.39872841667184
 31
0.0
  0
LINE
  5
18B
  8
1
 62
     7
 10
-20.903872855339099
 20
8.8934301395927911
 30
0.0
 11
-21.284162053299351
 21
9.1129902104050569
 31
0.0
  0
LINE
  5
18C
  8
1
 62
     7
 10
-18.044065234203771
 20
13.24676223927186
 30
0.0
 11
-20.494065234203759
 21
9.0032377607281262
 31
0.0
  0
LINE
  5
18D
  8
1
 62
     7
 10
-18.534162053299351
 20
13.87612993121947
 30
0.0
 11
-18.153872855339099
 21
13.65656986040719
 31
0.0
  0
LINE
  5
18E
  8
1
 62
     7
 10
18.475227566923621
 20
12.39872841667183
 30
0.0
 11
18.51906523420374
 21
12.42403810567666
 31
0.0
  0
LINE
  5
18F
  8
1
 62
     7
 10
20.01906523420374
 20
9.8259618943233455
 30
0.0
 11
19.975227566923621
 21
9.8006522053185137
 31
0.0
  0
LINE
  5
190
  8
1
 62
     7
 10
18.15387285533907
 20
13.65656986040721
 30
0.0
 11
18.534162053299319
 21
13.876129931219459
 31
0.0
  0
LINE
  5
191
  8
1
 62
     7
 10
20.494065234203731
 20
9.0032377607281386
 30
0.0
 11
18.044065234203732
 21
13.24676223927187
 31
0.0
  0
LINE
  5
192
  8
1
 62
     7
 10
21.28416205329933
 20
9.1129902104050462
 30
0.0
 11
20.90387285533906
 21
8.8934301395927964
 31
0.0
  0
LINE
  5
193
  8
1
 62
     7
 10
180.52477243307641
 20
9.8006522053185208
 30
0.0
 11
180.48093476579609
 21
9.8259618943233367
 31
0.0
  0
LINE
  5
194
  8
1
 62
     7
 10
181.98093476579621
 20
12.424038105676649
 30
0.0
 11
182.02477243307641
 21
12.39872841667184
 31
0.0
  0
LINE
  5
195
  8
1
 62
     7
 10
179.5961271446609
 20
8.8934301395927911
 30
0.0
 11
179.2158379467005
 21
9.1129902104050569
 31
0.0
  0
LINE
  5
196
  8
1
 62
     7
 10
182.45593476579609
 20
13.24676223927186
 30
0.0
 11
180.00593476579621
 21
9.0032377607281262
 31
0.0
  0
LINE
  5
197
  8
1
 62
     7
 10
181.9658379467005
 20
13.87612993121947
 30
0.0
 11
182.3461271446609
 21
13.65656986040719
 31
0.0
  0
LINE
  5
198
  8
1
 62
     7
 10
218.97522756692351
 20
12.39872841667183
 30
0.0
 11
219.01906523420359
 21
12.42403810567666
 31
0.0
  0
LINE
  5
199
  8
1
 62
     7
 10
220.51906523420359
 20
9.8259618943233455
 30
0.0
 11
220.47522756692351
 21
9.8006522053185137
 31
0.0
  0
LINE
  5
19A
  8
1
 62
     7
 10
218.6538728553391
 20
13.65656986040721
 30
0.0
 11
219.0341620532993
 21
13.876129931219459
 31
0.0
  0
LINE
  5
19B
  8
1
 62
     7
 10
220.99406523420359
 20
9.0032377607281386
 30
0.0
 11
218.54406523420371
 21
13.24676223927187
 31
0.0
  0
LINE
  5
19C
  8
1
 62
     7
 10
221.78416205329921
 20
9.1129902104050462
 30
0.0
 11
221.40387285533899
 21
8.8934301395927964
 31
0.0
  0
LINE
  5
19D
  8
1
 62
     7
 10
202.0
 20
-22.19938062199034
 30
0.0
 11
202.0
 21
-22.25
 31
0.0
  0
LINE
  5
19E
  8
1
 62
     7
 10
199.0
 20
-22.25
 30
0.0
 11
199.0
 21
-22.19938062199034
 31
0.0
  0
LINE
  5
19F
  8
1
 62
     7
 10
203.25
 20
-22.550000000000001
 30
0.0
 11
203.25
 21
-22.98912014162449
 31
0.0
  0
LINE
  5
1A0
  8
1
 62
     7
 10
198.05000000000001
 20
-22.25
 30
0.0
 11
202.94999999999999
 21
-22.25
 31
0.0
  0
LINE
  5
1A1
  8
1
 62
     7
 10
197.75
 20
-22.98912014162449
 30
0.0
 11
197.75
 21
-22.550000000000001
 31
0.0
  0
LINE
  5
1A2
  8
1
 62
     7
 10
202.34
 20
22.173788580213351
 30
0.0
 11
202.34
 21
37.249999999999993
 31
0.0
  0
LINE
  5
1A3
  8
1
 62
     7
 10
116.0
 20
-22.550000000000001
 30
0.0
 11
116.0
 21
-22.98912014162449
 31
0.0
  0
LINE
  5
1A4
  8
1
 62
     7
 10
110.4999999999999
 20
-22.98912014162449
 30
0.0
 11
110.4999999999999
 21
-22.550000000000001
 31
0.0
  0
LINE
  5
1A5
  8
1
 62
     7
 10
0.0
 20
37.249999999999993
 30
0.0
 11
0.0
 21
20.549999999999969
 31
0.0
  0
LINE
  5
1A6
  8
1
 62
     7
 10
1.8400000000000001
 20
37.249999999999993
 30
0.0
 11
1.8400000000000001
 21
20.549999999999969
 31
0.0
  0
LINE
  5
1A7
  8
1
 62
     7
 10
2.5
 20
20.049999999999979
 30
0.0
 11
2.5
 21
19.843134832984429
 31
0.0
  0
LINE
  5
1A8
  8
1
 62
     7
 10
-2.5
 20
20.049999999999979
 30
0.0
 11
2.5
 21
20.049999999999979
 31
0.0
  0
LINE
  5
1A9
  8
1
 62
     7
 10
-2.0
 20
20.549999999999969
 30
0.0
 11
-2.5
 21
20.049999999999979
 31
0.0
  0
LINE
  5
1AA
  8
1
 62
     7
 10
2.5
 20
20.049999999999979
 30
0.0
 11
2.0
 21
20.549999999999969
 31
0.0
  0
LINE
  5
1AB
  8
1
 62
     7
 10
-2.0
 20
20.549999999999969
 30
0.0
 11
2.0
 21
20.549999999999969
 31
0.0
  0
LINE
  5
1AC
  8
1
 62
     7
 10
2.399999999999999
 20
-3.594590640382231
 30
0.0
 11
2.399999999999999
 21
-4.6849623113198602
 31
0.0
  0
LINE
  5
1AD
  8
1
 62
     7
 10
0.2999999999999972
 20
-5.5849623113198597
 30
0.0
 11
1.5
 21
-5.5849623113198597
 31
0.0
  0
LINE
  5
1AE
  8
1
 62
     7
 10
0.2999999999999972
 20
-5.5849623113198597
 30
0.0
 11
0.2999999999999972
 21
-4.7849623113198589
 31
0.0
  0
LINE
  5
1AF
  8
1
 62
     7
 10
0.2999999999999972
 20
-4.7849623113198589
 30
0.0
 11
1.049999999999996
 21
-4.7849623113198607
 31
0.0
  0
LINE
  5
1B0
  8
1
 62
     7
 10
1.049999999999996
 20
-3.6849623113198611
 30
0.0
 11
0.2999999999999972
 21
-3.6849623113198589
 31
0.0
  0
LINE
  5
1B1
  8
1
 62
     7
 10
0.2999999999999972
 20
-3.6849623113198589
 30
0.0
 11
0.2999999999999972
 21
-2.9849623113198591
 31
0.0
  0
LINE
  5
1B2
  8
1
 62
     7
 10
-0.2999999999999901
 20
-2.9849623113198591
 30
0.0
 11
-0.2999999999999901
 21
-3.6849623113198589
 31
0.0
  0
LINE
  5
1B3
  8
1
 62
     7
 10
-0.2999999999999901
 20
-3.6849623113198589
 30
0.0
 11
-1.0499999999999901
 21
-3.6849623113198611
 31
0.0
  0
LINE
  5
1B4
  8
1
 62
     7
 10
-1.0499999999999901
 20
-4.7849623113198607
 30
0.0
 11
-0.2999999999999901
 21
-4.7849623113198589
 31
0.0
  0
LINE
  5
1B5
  8
1
 62
     7
 10
-0.2999999999999901
 20
-4.7849623113198589
 30
0.0
 11
-0.2999999999999901
 21
-5.5849623113198597
 31
0.0
  0
LINE
  5
1B6
  8
1
 62
     7
 10
-1.4999999999999929
 20
-5.5849623113198597
 30
0.0
 11
-0.2999999999999901
 21
-5.5849623113198597
 31
0.0
  0
LINE
  5
1B7
  8
1
 62
     7
 10
-2.3999999999999901
 20
-4.6849623113198602
 30
0.0
 11
-2.3999999999999901
 21
-3.594590640382231
 31
0.0
  0
LINE
  5
1B8
  8
1
  6
DASHDOT
 62
     3
 10
0.0
 20
1.5
 30
0.0
 11
0.0
 21
-1.5
 31
0.0
  0
LINE
  5
1B9
  8
1
  6
DASHDOT
 62
     3
 10
-1.5
 20
0.0
 30
0.0
 11
1.5
 21
0.0
 31
0.0
  0
LINE
  5
1BA
  8
1
 62
     7
 10
120.25
 20
22.25
 30
0.0
 11
78.25
 21
22.249999999999989
 31
0.0
  0
LINE
  5
1BB
  8
1
 62
     7
 10
122.95
 20
-2.9999999999999978
 30
0.0
 11
138.25
 21
-2.9999999999999978
 31
0.0
  0
LINE
  5
1BC
  8
1
 62
     7
 10
138.25
 20
3.0000000000000031
 30
0.0
 11
122.95
 21
3.0000000000000031
 31
0.0
  0
LINE
  5
1BD
  8
1
 62
     7
 10
138.25
 20
-2.9999999999999978
 30
0.0
 11
138.25
 21
3.0000000000000031
 31
0.0
  0
LINE
  5
1BE
  8
1
 62
     7
 10
78.25
 20
-22.25
 30
0.0
 11
78.25
 21
22.249999999999989
 31
0.0
  0
LINE
  5
1BF
  8
1
 62
     7
 10
122.95
 20
-5.584962311319857
 30
0.0
 11
122.95
 21
3.999999999999996
 31
0.0
  0
LINE
  5
1C0
  8
1
 62
     7
 10
118.25
 20
22.25
 30
0.0
 11
118.25
 21
-22.25
 31
0.0
  0
LINE
  5
1C1
  8
1
 62
     7
 10
120.25
 20
22.25
 30
0.0
 11
120.25
 21
-22.25
 31
0.0
  0
LINE
  5
1C2
  8
1
 62
     7
 10
62.25
 20
3.0
 30
0.0
 11
62.25
 21
-2.9999999999999911
 31
0.0
  0
LINE
  5
1C3
  8
1
 62
     7
 10
77.550000000000026
 20
3.0
 30
0.0
 11
62.25
 21
3.0
 31
0.0
  0
LINE
  5
1C4
  8
1
 62
     7
 10
62.25
 20
-2.9999999999999911
 30
0.0
 11
77.550000000000026
 21
-2.9999999999999911
 31
0.0
  0
LINE
  5
1C5
  8
1
 62
     7
 10
120.25
 20
9.0
 30
0.0
 11
122.2499999999999
 21
9.0
 31
0.0
  0
LINE
  5
1C6
  8
1
 62
     7
 10
122.2499999999999
 20
-9.0
 30
0.0
 11
122.2499999999999
 21
9.0
 31
0.0
  0
LINE
  5
1C7
  8
1
 62
     7
 10
122.2499999999999
 20
3.9999999999999978
 30
0.0
 11
122.95
 21
3.999999999999996
 31
0.0
  0
LINE
  5
1C8
  8
1
 62
     7
 10
78.25
 20
3.9999999999999911
 30
0.0
 11
77.549999999999983
 21
3.999999999999996
 31
0.0
  0
LINE
  5
1C9
  8
1
  6
DASHDOT
 62
     3
 10
59.25
 20
0.0
 30
0.0
 11
62.25
 21
0.0
 31
0.0
  0
LINE
  5
1CA
  8
1
 62
     7
 10
120.25
 20
-22.25
 30
0.0
 11
78.25
 21
-22.25
 31
0.0
  0
LINE
  5
1CB
  8
1
 62
     7
 10
122.2499999999999
 20
-9.0
 30
0.0
 11
120.25
 21
-9.0
 31
0.0
  0
LINE
  5
1CC
  8
1
 62
     7
 10
122.95
 20
-5.584962311319857
 30
0.0
 11
122.2499999999999
 21
-5.584962311319857
 31
0.0
  0
LINE
  5
1CD
  8
1
 62
     7
 10
77.549999999999983
 20
-5.584962311319857
 30
0.0
 11
78.25
 21
-5.5849623113198597
 31
0.0
  0
LINE
  5
1CE
  8
1
 62
     7
 10
83.329999999999998
 20
22.25
 30
0.0
 11
83.329999999999998
 21
37.249999999999993
 31
0.0
  0
LINE
  5
1CF
  8
1
 62
     7
 10
85.170000000000016
 20
22.25
 30
0.0
 11
85.170000000000016
 21
37.249999999999993
 31
0.0
  0
LINE
  5
1D0
  8
1
 62
     7
 10
83.329999999999998
 20
37.249999999999993
 30
0.0
 11
85.170000000000016
 21
37.249999999999993
 31
0.0
  0
LINE
  5
1D1
  8
1
 62
     3
 10
83.860000000000014
 20
37.25
 30
0.0
 11
83.860000000000014
 21
40.249999999999993
 31
0.0
  0
LINE
  5
1D2
  8
1
 62
     3
 10
84.640000000000001
 20
40.249999999999993
 30
0.0
 11
84.640000000000001
 21
37.25
 31
0.0
  0
LINE
  5
1D3
  8
1
 62
     7
 10
77.549999999999983
 20
-5.584962311319857
 30
0.0
 11
77.549999999999983
 21
3.999999999999996
 31
0.0
  0
LINE
  5
1D4
  8
1
 62
     7
 10
198.65999999999991
 20
37.249999999999993
 30
0.0
 11
198.65999999999991
 21
22.173788580213351
 31
0.0
  0
LINE
  5
1D5
  8
1
 62
     7
 10
200.49999999999989
 20
37.249999999999993
 30
0.0
 11
200.49999999999989
 21
22.25
 31
0.0
  0
LINE
  5
1D6
  8
1
 62
     3
 10
199.96999999999991
 20
40.249999999999993
 30
0.0
 11
199.96999999999991
 21
37.25
 31
0.0
  0
LINE
  5
1D7
  8
1
 62
     3
 10
199.19
 20
40.249999999999993
 30
0.0
 11
199.19
 21
37.25
 31
0.0
  0
LINE
  5
1D8
  8
1
 62
     7
 10
202.89999999999989
 20
-3.594590640382231
 30
0.0
 11
202.89999999999989
 21
-4.6849623113198602
 31
0.0
  0
LINE
  5
1D9
  8
1
 62
     7
 10
200.80000000000001
 20
-5.5849623113198597
 30
0.0
 11
202.0
 21
-5.5849623113198597
 31
0.0
  0
LINE
  5
1DA
  8
1
 62
     7
 10
200.80000000000001
 20
-5.5849623113198597
 30
0.0
 11
200.80000000000001
 21
-4.7849623113198589
 31
0.0
  0
LINE
  5
1DB
  8
1
 62
     7
 10
200.80000000000001
 20
-4.7849623113198589
 30
0.0
 11
201.55000000000001
 21
-4.7849623113198607
 31
0.0
  0
LINE
  5
1DC
  8
1
 62
     7
 10
201.55000000000001
 20
-3.6849623113198611
 30
0.0
 11
200.80000000000001
 21
-3.6849623113198589
 31
0.0
  0
LINE
  5
1DD
  8
1
 62
     7
 10
200.80000000000001
 20
-3.6849623113198589
 30
0.0
 11
200.80000000000001
 21
-2.9849623113198591
 31
0.0
  0
LINE
  5
1DE
  8
1
 62
     7
 10
200.1999999999999
 20
-2.9849623113198591
 30
0.0
 11
200.1999999999999
 21
-3.6849623113198589
 31
0.0
  0
LINE
  5
1DF
  8
1
 62
     7
 10
200.1999999999999
 20
-3.6849623113198589
 30
0.0
 11
199.44999999999999
 21
-3.6849623113198611
 31
0.0
  0
LINE
  5
1E0
  8
1
 62
     7
 10
199.44999999999999
 20
-4.7849623113198607
 30
0.0
 11
200.1999999999999
 21
-4.7849623113198589
 31
0.0
  0
LINE
  5
1E1
  8
1
 62
     7
 10
200.1999999999999
 20
-4.7849623113198589
 30
0.0
 11
200.1999999999999
 21
-5.5849623113198597
 31
0.0
  0
LINE
  5
1E2
  8
1
 62
     7
 10
199.0
 20
-5.5849623113198597
 30
0.0
 11
200.1999999999999
 21
-5.5849623113198597
 31
0.0
  0
LINE
  5
1E3
  8
1
 62
     7
 10
198.09999999999999
 20
-4.6849623113198602
 30
0.0
 11
198.09999999999999
 21
-3.594590640382231
 31
0.0
  0
LINE
  5
1E4
  8
1
  6
DASHDOT
 62
     3
 10
200.49999999999989
 20
1.5
 30
0.0
 11
200.49999999999989
 21
-1.5
 31
0.0
  0
LINE
  5
1E5
  8
1
  6
DASHDOT
 62
     3
 10
199.0
 20
0.0
 30
0.0
 11
202.0
 21
0.0
 31
0.0
  0
LINE
  5
1E6
  8
1
  6
DASHDOT
 62
     3
 10
200.49999999999989
 20
18.0
 30
0.0
 11
200.49999999999989
 21
12.0
 31
0.0
  0
LINE
  5
1E7
  8
1
  6
DASHDOT
 62
     3
 10
184.9115427318801
 20
-8.9999999999999805
 30
0.0
 11
190.10769515458679
 21
-5.9999999999999822
 31
0.0
  0
LINE
  5
1E8
  8
1
  6
DASHDOT
 62
     3
 10
216.08845726811981
 20
-9.0000000000000568
 30
0.0
 11
210.89230484541309
 21
-6.0000000000000524
 31
0.0
  0
LINE
  5
1E9
  8
1
  6
DASHDOT
 62
     3
 10
138.25
 20
0.0000000000000001
 30
0.0
 11
141.25
 21
0.0
 31
0.0
  0
LINE
  5
1EA
  8
1
 62
     7
 10
-1.8400000000000001
 20
20.549999999999969
 30
0.0
 11
-1.8400000000000001
 21
37.249999999999993
 31
0.0
  0
LINE
  5
1EB
  8
1
 62
     7
 10
202.34
 20
37.249999999999993
 30
0.0
 11
198.65999999999991
 21
37.249999999999993
 31
0.0
  0
LINE
  5
1EC
  8
1
 62
     7
 10
-2.5
 20
19.843134832984429
 30
0.0
 11
-2.5
 21
20.049999999999979
 31
0.0
  0
LINE
  5
1ED
  8
1
 62
     7
 10
-2.7000000000000002
 20
22.08557221355154
 30
0.0
 11
-2.7000000000000002
 21
19.816911969325599
 31
0.0
  0
LINE
  5
1EE
  8
1
 62
     7
 10
2.7000000000000002
 20
22.08557221355154
 30
0.0
 11
2.7000000000000002
 21
19.816911969325599
 31
0.0
  0
LINE
  5
1EF
  8
1
 62
     3
 10
84.25
 20
37.25
 30
0.0
 11
84.25
 21
40.249999999999993
 31
0.0
  0
LINE
  5
1F0
  8
1
 62
     3
 10
-1.3100000000000009
 20
37.25
 30
0.0
 11
-1.3100000000000009
 21
40.249999999999993
 31
0.0
  0
LINE
  5
1F1
  8
1
 62
     3
 10
-0.5300000000000013
 20
40.249999999999993
 30
0.0
 11
-0.5300000000000013
 21
37.25
 31
0.0
  0
LINE
  5
1F2
  8
1
 62
     3
 10
-0.9200000000000015
 20
37.25
 30
0.0
 11
-0.9200000000000015
 21
40.249999999999993
 31
0.0
  0
LINE
  5
1F3
  8
1
 62
     7
 10
1.8400000000000001
 20
37.249999999999993
 30
0.0
 11
-1.8400000000000001
 21
37.249999999999993
 31
0.0
  0
LINE
  5
1F4
  8
1
 62
     3
 10
0.5300000000000001
 20
37.25
 30
0.0
 11
0.5299999999999978
 21
40.249999999999993
 31
0.0
  0
LINE
  5
1F5
  8
1
 62
     3
 10
1.3099999999999981
 20
40.249999999999993
 30
0.0
 11
1.3099999999999981
 21
37.25
 31
0.0
  0
LINE
  5
1F6
  8
1
 62
     3
 10
0.9199999999999983
 20
37.25
 30
0.0
 11
0.9199999999999983
 21
40.249999999999993
 31
0.0
  0
LINE
  5
1F7
  8
1
 62
     3
 10
199.58000000000001
 20
40.249999999999993
 30
0.0
 11
199.58000000000001
 21
37.25
 31
0.0
  0
LINE
  5
1F8
  8
1
 62
     3
 10
201.81
 20
40.249999999999993
 30
0.0
 11
201.81
 21
37.25
 31
0.0
  0
LINE
  5
1F9
  8
1
 62
     3
 10
201.02999999999989
 20
40.249999999999993
 30
0.0
 11
201.02999999999989
 21
37.25
 31
0.0
  0
LINE
  5
1FA
  8
1
 62
     3
 10
201.4199999999999
 20
40.249999999999993
 30
0.0
 11
201.4199999999999
 21
37.25
 31
0.0
  0
ARC
  5
1FB
  8
1
 62
     7
 10
2.4499999999999891
 20
-22.550000000000001
 30
0.0
 40
0.3000000000000109
 50
0.0
 51
90.0
  0
ARC
  5
1FC
  8
1
 62
     7
 10
-2.4499999999999891
 20
-22.550000000000001
 30
0.0
 40
0.3000000000000007
 50
90.0
 51
180.0
  0
ARC
  5
1FD
  8
1
 62
     7
 10
1.75
 20
-22.98912014162449
 30
0.0
 40
0.9999999999999891
 50
286.95776330000302
 51
0.0
  0
ARC
  5
1FE
  8
1
 62
     7
 10
-1.75
 20
-22.98912014162449
 30
0.0
 40
1.0
 50
180.0
 51
253.0422366999959
  0
ARC
  5
1FF
  8
1
 62
     7
 10
-20.7538728553391
 20
9.1532377607281301
 30
0.0
 40
0.3000000000000088
 50
240.00000000000131
 51
329.99999999999977
  0
ARC
  5
200
  8
1
 62
     7
 10
-18.303872855339101
 20
13.396762239271849
 30
0.0
 40
0.3000000000000082
 50
330.0000000000008
 51
59.999999999998771
  0
ARC
  5
201
  8
1
 62
     7
 10
-20.784162053299351
 20
9.9790156141894926
 30
0.0
 40
0.9999999999999895
 50
166.95776330000419
 51
239.99999999999989
  0
ARC
  5
202
  8
1
 62
     7
 10
-19.034162053299351
 20
13.01010452743502
 30
0.0
 40
1.0000000000000011
 50
60.000000000000021
 51
133.04223669999701
  0
ARC
  5
203
  8
1
 62
     7
 10
18.303872855339069
 20
13.39676223927186
 30
0.0
 40
0.3000000000000111
 50
120.0000000000008
 51
209.9999999999992
  0
ARC
  5
204
  8
1
 62
     7
 10
20.753872855339061
 20
9.1532377607281408
 30
0.0
 40
0.3000000000000051
 50
209.99999999999949
 51
299.99999999999937
  0
ARC
  5
205
  8
1
 62
     7
 10
19.034162053299319
 20
13.01010452743502
 30
0.0
 40
0.9999999999999872
 50
46.957763300004601
 51
119.9999999999999
  0
ARC
  5
206
  8
1
 62
     7
 10
20.784162053299319
 20
9.9790156141894872
 30
0.0
 40
1.0000000000000011
 50
299.99999999999989
 51
13.042236699996581
  0
ARC
  5
207
  8
1
 62
     7
 10
179.7461271446609
 20
9.1532377607281301
 30
0.0
 40
0.3000000000000124
 50
240.0
 51
329.99999999999682
  0
ARC
  5
208
  8
1
 62
     7
 10
182.19612714466089
 20
13.396762239271849
 30
0.0
 40
0.2999999999999805
 50
329.99999999999778
 51
59.999999999999922
  0
ARC
  5
209
  8
1
 62
     7
 10
179.7158379467005
 20
9.9790156141894926
 30
0.0
 40
0.9999999999999275
 50
166.95776330000339
 51
239.99999999999989
  0
ARC
  5
20A
  8
1
 62
     7
 10
181.4658379467005
 20
13.01010452743502
 30
0.0
 40
1.0000000000000011
 50
60.000000000000021
 51
133.0422366999945
  0
ARC
  5
20B
  8
1
 62
     7
 10
218.80387285533899
 20
13.39676223927186
 30
0.0
 40
0.3000000000000093
 50
120.0000000000002
 51
209.99999999999409
  0
ARC
  5
20C
  8
1
 62
     7
 10
221.25387285533901
 20
9.1532377607281408
 30
0.0
 40
0.3000000000000544
 50
209.99999999999409
 51
300.00000000000011
  0
ARC
  5
20D
  8
1
 62
     7
 10
219.53416205329921
 20
13.01010452743502
 30
0.0
 40
1.0000000000000191
 50
46.957763300003521
 51
119.9999999999999
  0
ARC
  5
20E
  8
1
 62
     7
 10
221.2841620532993
 20
9.9790156141894872
 30
0.0
 40
1.0000000000000011
 50
299.99999999999989
 51
13.04223669999439
  0
ARC
  5
20F
  8
1
 62
     7
 10
202.94999999999999
 20
-22.550000000000001
 30
0.0
 40
0.3000000000000114
 50
0.0
 51
90.0
  0
ARC
  5
210
  8
1
 62
     7
 10
198.05000000000001
 20
-22.550000000000001
 30
0.0
 40
0.3000000000000007
 50
90.0
 51
180.0
  0
ARC
  5
211
  8
1
 62
     7
 10
202.24999999999989
 20
-22.98912014162449
 30
0.0
 40
1.0000000000000091
 50
286.95776330000677
 51
0.0
  0
ARC
  5
212
  8
1
 62
     7
 10
198.75
 20
-22.98912014162449
 30
0.0
 40
1.0
 50
180.0
 51
253.042236699993
  0
ARC
  5
213
  8
1
 62
     7
 10
115.7
 20
-22.550000000000001
 30
0.0
 40
0.2999999999999972
 50
0.0
 51
90.0
  0
ARC
  5
214
  8
1
 62
     7
 10
110.8
 20
-22.550000000000001
 30
0.0
 40
0.3000000000000007
 50
90.0
 51
180.0
  0
ARC
  5
215
  8
1
 62
     7
 10
115.0
 20
-22.98912014162449
 30
0.0
 40
1.0000000000000051
 50
286.95776330000592
 51
0.0
  0
ARC
  5
216
  8
1
 62
     7
 10
111.4999999999999
 20
-22.98912014162449
 30
0.0
 40
1.0
 50
180.0
 51
253.04223669999391
  0
ARC
  5
217
  8
1
 62
     7
 10
3.7999999999999972
 20
-3.594590640382231
 30
0.0
 40
1.399999999999999
 50
135.80579627707141
 51
180.0
  0
ARC
  5
218
  8
1
 62
     7
 10
1.5
 20
-4.6849623113198602
 30
0.0
 40
0.8999999999999994
 50
270.0
 51
0.0
  0
ARC
  5
219
  8
1
 62
     7
 10
-1.4999999999999929
 20
-4.6849623113198602
 30
0.0
 40
0.8999999999999983
 50
180.0
 51
270.0
  0
ARC
  5
21A
  8
1
 62
     7
 10
-3.7999999999999901
 20
-3.594590640382231
 30
0.0
 40
1.399999999999999
 50
0.0
 51
44.194203722928783
  0
ARC
  5
21B
  8
1
 62
     7
 10
204.30000000000001
 20
-3.594590640382231
 30
0.0
 40
1.4000000000000281
 50
135.8057962770726
 51
180.0
  0
ARC
  5
21C
  8
1
 62
     7
 10
202.0
 20
-4.6849623113198602
 30
0.0
 40
0.8999999999999994
 50
270.0
 51
0.0
  0
ARC
  5
21D
  8
1
 62
     7
 10
199.0
 20
-4.6849623113198602
 30
0.0
 40
0.9000000000000056
 50
180.0
 51
270.0
  0
ARC
  5
21E
  8
1
 62
     7
 10
196.6999999999999
 20
-3.594590640382231
 30
0.0
 40
1.400000000000005
 50
0.0
 51
44.194203722926702
  0
ARC
  5
21F
  8
1
  6
DASHDOT
 62
     3
 10
200.49999999999989
 20
0.0
 30
0.0
 40
15.0
 50
318.52165904546632
 51
341.47834095453328
  0
ARC
  5
220
  8
1
  6
DASHDOT
 62
     3
 10
200.49999999999989
 20
0.0
 30
0.0
 40
15.0
 50
198.52165904546601
 51
221.47834095453359
  0
ARC
  5
221
  8
1
  6
DASHDOT
 62
     3
 10
200.49999999999989
 20
0.0
 30
0.0
 40
15.0
 50
78.521659045466293
 51
101.47834095453371
  0
ARC
  5
222
  8
1
 62
     7
 10
0.0
 20
-17.25
 30
0.0
 40
7.0000000000000071
 50
253.0422366999959
 51
286.95776330000388
  0
ARC
  5
223
  8
1
 62
     7
 10
-14.93893821528158
 20
8.625
 30
0.0
 40
7.000000000000016
 50
133.04223669999601
 51
166.9577633000041
  0
ARC
  5
224
  8
1
 62
     7
 10
14.938938215281549
 20
8.6250000000000053
 30
0.0
 40
7.0000000000000231
 50
13.04223669999593
 51
46.957763300004082
  0
ARC
  5
225
  8
1
 62
     7
 10
185.56106178471831
 20
8.625
 30
0.0
 40
7.0000000000000524
 50
133.04223669999581
 51
166.95776330000399
  0
ARC
  5
226
  8
1
 62
     7
 10
215.43893821528161
 20
8.6250000000000053
 30
0.0
 40
6.9999999999999654
 50
13.04223669999578
 51
46.957763300004487
  0
ARC
  5
227
  8
1
 62
     7
 10
200.49999999999989
 20
-17.25
 30
0.0
 40
7.0000000000000027
 50
253.04223669999541
 51
286.95776330000439
  0
ARC
  5
228
  8
1
 62
     7
 10
113.25
 20
-17.25
 30
0.0
 40
7.0000000000000071
 50
253.0422366999955
 51
286.95776330000439
  0
ARC
  5
229
  8
1
 62
     7
 10
1.049999999999996
 20
-4.23496231131986
 30
0.0
 40
0.5500000000000016
 50
270.0
 51
90.0
  0
ARC
  5
22A
  8
1
 62
     7
 10
-1.0499999999999901
 20
-4.23496231131986
 30
0.0
 40
0.5499999999999991
 50
90.0
 51
270.0
  0
ARC
  5
22B
  8
1
 62
     7
 10
0.0
 20
0.0999999999999996
 30
0.0
 40
3.8999999999999959
 50
315.80579627707141
 51
224.19420372292851
  0
ARC
  5
22C
  8
1
 62
     7
 10
201.55000000000001
 20
-4.23496231131986
 30
0.0
 40
0.5500000000000016
 50
270.0
 51
90.0
  0
ARC
  5
22D
  8
1
 62
     7
 10
199.44999999999999
 20
-4.23496231131986
 30
0.0
 40
0.5499999999999991
 50
90.0
 51
270.0
  0
ARC
  5
22E
  8
1
 62
     7
 10
200.49999999999989
 20
0.0999999999999996
 30
0.0
 40
3.8999999999999782
 50
315.80579627707112
 51
224.1942037229291
  0
ARC
  5
22F
  8
1
 62
     7
 10
0.0
 20
0.0
 30
0.0
 40
22.25
 50
94.743585031930706
 51
85.256414968069279
  0
CIRCLE
  5
230
  8
1
 62
     7
 10
0.0
 20
0.0
 30
0.0
 40
20.0
  0
CIRCLE
  5
231
  8
1
 62
     7
 10
200.49999999999989
 20
0.0
 30
0.0
 40
22.25
  0
CIRCLE
  5
232
  8
1
 62
     7
 10
0.0
 20
0.0
 30
0.0
 40
7.5
  0
CIRCLE
  5
233
  8
1
 62
     7
 10
0.0
 20
0.0
 30
0.0
 40
3.0
  0
CIRCLE
  5
234
  8
1
 62
     7
 10
200.49999999999989
 20
0.0
 30
0.0
 40
7.5
  0
CIRCLE
  5
235
  8
1
 62
     7
 10
200.49999999999989
 20
0.0
 30
0.0
 40
3.0
  0
CIRCLE
  5
236
  8
1
 62
     7
 10
200.49999999999989
 20
0.0
 30
0.0
 40
9.0
  0
CIRCLE
  5
237
  8
1
 62
     3
 10
200.49999999999989
 20
15.0
 30
0.0
 40
2.0
  0
CIRCLE
  5
238
  8
1
 62
     7
 10
200.49999999999989
 20
15.0
 30
0.0
 40
1.621000000000008
  0
CIRCLE
  5
239
  8
1
 62
     3
 10
187.50961894323339
 20
-7.4999999999999822
 30
0.0
 40
2.0
  0
CIRCLE
  5
23A
  8
1
 62
     7
 10
187.50961894323339
 20
-7.4999999999999822
 30
0.0
 40
1.621000000000008
  0
CIRCLE
  5
23B
  8
1
 62
     3
 10
213.49038105676649
 20
-7.5000000000000533
 30
0.0
 40
2.0
  0
CIRCLE
  5
23C
  8
1
 62
     7
 10
213.49038105676649
 20
-7.5000000000000533
 30
0.0
 40
1.62099999999998
  0
TEXT
  5
23E
  8
1
 62
     7
 10
-9.2684199363732578
 20
62.610206786850391
 30
0.0
 40
3.5
  1
AMP 5
 41
0.9
  7
SIMPLEX
  0
ENDSEC
  0
EOF
