  0
SECTION
  2
HEADER
  9
$ACADVER
  1
AC1009
  9
$INSBASE
 10
0.0
 20
0.0
 30
0.0
  9
$EXTMIN
 10
-303.52542903992497
 20
139.28386681786799
 30
0.0
  9
$EXTMAX
 10
-27.859916717628451
 20
371.18344874264949
 30
0.0
  9
$LIMMIN
 10
-303.52542903992497
 20
139.28386681786799
  9
$LIMMAX
 10
-28.06702349881499
 20
370.56212839908989
  9
$ORTHOMODE
 70
     0
  9
$REGENMODE
 70
     1
  9
$FILLMODE
 70
     1
  9
$QTEXTMODE
 70
     0
  9
$MIRRTEXT
 70
     1
  9
$DRAGMODE
 70
     2
  9
$LTSCALE
 40
1.0
  9
$OSMODE
 70
    37
  9
$ATTMODE
 70
     1
  9
$TEXTSIZE
 40
3.5
  9
$TRACEWID
 40
0.5
  9
$TEXTSTYLE
  7
STANDARD
  9
$CLAYER
  8
0
  9
$CELTYPE
  6
BYLAYER
  9
$CECOLOR
 62
   256
  9
$DIMSCALE
 40
1.0
  9
$DIMASZ
 40
0.18
  9
$DIMEXO
 40
0.0625
  9
$DIMDLI
 40
0.38
  9
$DIMRND
 40
0.0
  9
$DIMDLE
 40
0.0
  9
$DIMEXE
 40
0.18
  9
$DIMTP
 40
0.0
  9
$DIMTM
 40
0.0
  9
$DIMTXT
 40
0.18
  9
$DIMCEN
 40
0.09
  9
$DIMTSZ
 40
0.0
  9
$DIMTOL
 70
     0
  9
$DIMLIM
 70
     0
  9
$DIMTIH
 70
     1
  9
$DIMTOH
 70
     1
  9
$DIMSE1
 70
     0
  9
$DIMSE2
 70
     0
  9
$DIMTAD
 70
     0
  9
$DIMZIN
 70
     0
  9
$DIMBLK
  1

  9
$DIMASO
 70
     1
  9
$DIMSHO
 70
     1
  9
$DIMPOST
  1

  9
$DIMAPOST
  1

  9
$DIMALT
 70
     0
  9
$DIMALTD
 70
     2
  9
$DIMALTF
 40
25.399999999999999
  9
$DIMLFAC
 40
1.0
  9
$DIMTOFL
 70
     0
  9
$DIMTVP
 40
0.0
  9
$DIMTIX
 70
     0
  9
$DIMSOXD
 70
     0
  9
$DIMSAH
 70
     0
  9
$DIMBLK1
  1

  9
$DIMBLK2
  1

  9
$DIMSTYLE
  2
STANDARD
  9
$DIMCLRD
 70
     0
  9
$DIMCLRE
 70
     0
  9
$DIMCLRT
 70
     0
  9
$DIMTFAC
 40
1.0
  9
$DIMGAP
 40
0.09
  9
$LUNITS
 70
     2
  9
$LUPREC
 70
     4
  9
$SKETCHINC
 40
0.1
  9
$FILLETRAD
 40
2.0
  9
$AUNITS
 70
     0
  9
$AUPREC
 70
     0
  9
$MENU
  1
ACAD
  9
$ELEVATION
 40
0.0
  9
$PELEVATION
 40
0.0
  9
$THICKNESS
 40
0.0
  9
$LIMCHECK
 70
     0
  9
$BLIPMODE
 70
     0
  9
$CHAMFERA
 40
0.0
  9
$CHAMFERB
 40
0.0
  9
$SKPOLY
 70
     0
  9
$TDCREATE
 40
2452093.9090238418
  9
$TDUPDATE
 40
2452093.9095883099
  9
$TDINDWG
 40
0.000568287
  9
$TDUSRTIMER
 40
0.000568287
  9
$USRTIMER
 70
     1
  9
$ANGBASE
 50
0.0
  9
$ANGDIR
 70
     0
  9
$PDMODE
 70
     0
  9
$PDSIZE
 40
0.0
  9
$PLINEWID
 40
0.0
  9
$COORDS
 70
     1
  9
$SPLFRAME
 70
     0
  9
$SPLINETYPE
 70
     6
  9
$SPLINESEGS
 70
     8
  9
$ATTDIA
 70
     0
  9
$ATTREQ
 70
     1
  9
$HANDLING
 70
 10241
  9
$HANDSEED
  5
23D
  9
$SURFTAB1
 70
     6
  9
$SURFTAB2
 70
     6
  9
$SURFTYPE
 70
     6
  9
$SURFU
 70
     6
  9
$SURFV
 70
     6
  9
$UCSNAME
  2

  9
$UCSORG
 10
0.0
 20
0.0
 30
0.0
  9
$UCSXDIR
 10
1.0
 20
0.0
 30
0.0
  9
$UCSYDIR
 10
0.0
 20
1.0
 30
0.0
  9
$PUCSNAME
  2

  9
$PUCSORG
 10
0.0
 20
0.0
 30
0.0
  9
$PUCSXDIR
 10
1.0
 20
0.0
 30
0.0
  9
$PUCSYDIR
 10
0.0
 20
1.0
 30
0.0
  9
$USERI1
 70
     0
  9
$USERI2
 70
     0
  9
$USERI3
 70
     0
  9
$USERI4
 70
     0
  9
$USERI5
 70
     0
  9
$USERR1
 40
0.0
  9
$USERR2
 40
0.0
  9
$USERR3
 40
0.0
  9
$USERR4
 40
0.0
  9
$USERR5
 40
0.0
  9
$WORLDVIEW
 70
     1
  9
$SHADEDGE
 70
     3
  9
$SHADEDIF
 70
    70
  9
$TILEMODE
 70
     1
  9
$MAXACTVP
 70
    64
  9
$PLIMCHECK
 70
     0
  9
$PEXTMIN
 10
1.0000000000000000E+020
 20
1.0000000000000000E+020
 30
1.0000000000000000E+020
  9
$PEXTMAX
 10
-1.0000000000000000E+020
 20
-1.0000000000000000E+020
 30
-1.0000000000000000E+020
  9
$PLIMMIN
 10
0.0
 20
0.0
  9
$PLIMMAX
 10
12.0
 20
9.0
  9
$UNITMODE
 70
     0
  9
$VISRETAIN
 70
     1
  9
$PLINEGEN
 70
     0
  9
$PSLTSCALE
 70
     1
  0
ENDSEC
  0
SECTION
  2
TABLES
  0
TABLE
  2
VPORT
 70
     2
  0
VPORT
  2
*ACTIVE
 70
     0
 10
0.0
 20
0.0
 11
1.0
 21
1.0
 12
-234.4817708560085
 22
250.76568408395241
 13
0.0
 23
0.0
 14
1.0
 24
1.0
 15
0.0
 25
0.0
 16
0.0
 26
0.0
 36
1.0
 17
0.0
 27
0.0
 37
0.0
 40
9.0000002480074954
 41
2.5693779904306222
 42
50.0
 43
0.0
 44
0.0
 50
0.0
 51
0.0
 71
     0
 72
   100
 73
     1
 74
     1
 75
     0
 76
     0
 77
     0
 78
     0
  0
ENDTAB
  0
TABLE
  2
LTYPE
 70
     9
  0
LTYPE
  2
CONTINUOUS
 70
     0
  3
Solid line
 72
    65
 73
     0
 40
0.0
  0
LTYPE
  2
BORDER
 70
     0
  3
__ __ . __ __ .
 72
    65
 73
     6
 40
12.685584465709001
 49
3.6244527044882879
 49
-1.8122263522441451
 49
3.6244527044882879
 49
-1.8122263522441451
 49
0.0
 49
-1.8122263522441451
  0
LTYPE
  2
CENTER
 70
     0
  3
____ _ ____ _
 72
    65
 73
     4
 40
14.497810817953161
 49
9.0611317612207252
 49
-1.8122263522441451
 49
1.8122263522441451
 49
-1.8122263522441451
  0
LTYPE
  2
DASHDOT
 70
     0
  3
__ . __ . __ .
 72
    65
 73
     4
 40
7.2489054089765776
 49
3.6244527044882879
 49
-1.8122263522441451
 49
0.0
 49
-1.8122263522441451
  0
LTYPE
  2
DASHED
 70
     0
  3
__ __ __ __ __
 72
    65
 73
     2
 40
5.4366790567324328
 49
3.6244527044882879
 49
-1.8122263522441451
  0
LTYPE
  2
DIVIDE
 70
     0
  3
__ . . __ . . 
 72
    65
 73
     6
 40
9.0611317612207252
 49
3.6244527044882879
 49
-1.8122263522441451
 49
0.0
 49
-1.8122263522441451
 49
0.0
 49
-1.8122263522441451
  0
LTYPE
  2
DOT
 70
     0
  3
..............
 72
    65
 73
     4
 40
3.6244527044882879
 49
0.0
 49
-1.8122263522441451
 49
0.0
 49
-1.8122263522441451
  0
LTYPE
  2
HIDDEN
 70
     0
  3
_ _ _ _ _ _ _
 72
    65
 73
     2
 40
2.718339528366216
 49
1.8122263522441451
 49
-0.9061131761220725
  0
LTYPE
  2
PHANTOM
 70
     0
  3
_____ _ _ _____ _ _ 
 72
    65
 73
     6
 40
18.12226352244145
 49
9.0611317612207252
 49
-1.8122263522441451
 49
1.8122263522441451
 49
-1.8122263522441451
 49
1.8122263522441451
 49
-1.8122263522441451
  0
ENDTAB
  0
TABLE
  2
LAYER
 70
     2
  0
LAYER
  2
0
 70
     0
 62
     7
  6
CONTINUOUS
  0
LAYER
  2
1
 70
     0
 62
     7
  6
CONTINUOUS
  0
ENDTAB
  0
TABLE
  2
STYLE
 70
     4
  0
STYLE
  2
STANDARD
 70
     0
 40
0.0
 41
1.0
 50
0.0
 71
     0
 42
3.5
  3
txt
  4

  0
STYLE
  2
SIMPLEX
 70
     0
 40
0.0
 41
1.0
 50
0.0
 71
     0
 42
3.5
  3
simplex
  4

  0
STYLE
  2
COMPLEX
 70
     0
 40
0.0
 41
1.0
 50
0.0
 71
     0
 42
3.5
  3
complex
  4

  0
STYLE
  2
ITALIC
 70
     0
 40
0.0
 41
1.0
 50
0.0
 71
     0
 42
3.5
  3
italic
  4

  0
ENDTAB
  0
TABLE
  2
VIEW
 70
     0
  0
ENDTAB
  0
TABLE
  2
UCS
 70
     0
  0
ENDTAB
  0
TABLE
  2
APPID
 70
     1
  0
APPID
  2
ACAD
 70
     0
  0
ENDTAB
  0
TABLE
  2
DIMSTYLE
 70
     1
  0
DIMSTYLE
  2
STANDARD
 70
     0
  3

  4

  5

  6

  7

 40
1.0
 41
0.18
 42
0.0625
 43
0.38
 44
0.18
 45
0.0
 46
0.0
 47
0.0
 48
0.0
140
0.18
141
0.09
142
0.0
143
25.399999999999999
144
1.0
145
0.0
146
1.0
147
0.09
 71
     0
 72
     0
 73
     1
 74
     1
 75
     0
 76
     0
 77
     0
 78
     0
170
     0
171
     2
172
     0
173
     0
174
     0
175
     0
176
     0
177
     0
178
     0
  0
ENDTAB
  0
ENDSEC
  0
SECTION
  2
BLOCKS
  0
BLOCK
  8
0
  2
$MODEL_SPACE
 70
     0
 10
0.0
 20
0.0
 30
0.0
  3
$MODEL_SPACE
  1

  0
ENDBLK
  5
20
  8
0
  0
BLOCK
 67
     1
  8
0
  2
$PAPER_SPACE
 70
     0
 10
0.0
 20
0.0
 30
0.0
  3
$PAPER_SPACE
  1

  0
ENDBLK
  5
1C
 67
     1
  8
0
  0
ENDSEC
  0
SECTION
  2
ENTITIES
  0
LINE
  5
33
  8
1
 62
     7
 10
-268.52542903992497
 20
325.56212839909
 30
0.0
 11
-268.52542903992497
 21
331.56212839909
 31
0.0
  0
LINE
  5
34
  8
1
 62
     7
 10
-204.52542903992489
 20
325.56212839909
 30
0.0
 11
-204.52542903992489
 21
331.56212839909
 31
0.0
  0
LINE
  5
35
  8
1
  6
DASHDOT
 62
     3
 10
-303.52542903992497
 20
182.13307167764191
 30
0.0
 11
-298.52542903992497
 21
182.13307167764191
 31
0.0
  0
LINE
  5
36
  8
1
 62
     7
 10
-238.525429039925
 20
367.56212839908977
 30
0.0
 11
-238.525429039925
 21
358.56212839908977
 31
0.0
  0
LINE
  5
37
  8
1
 62
     7
 10
-238.525429039925
 20
298.56212839909
 30
0.0
 11
-238.525429039925
 21
289.56212839908989
 31
0.0
  0
LINE
  5
38
  8
1
  6
DASHDOT
 62
     3
 10
-259.02542903992497
 20
359.79395907352807
 30
0.0
 11
-259.02542903992497
 21
368.87883051298297
 31
0.0
  0
LINE
  5
39
  8
1
  6
DASHDOT
 62
     3
 10
-264.34213115381777
 20
363.56212839909011
 30
0.0
 11
-253.70872692603189
 21
363.56212839909011
 31
0.0
  0
LINE
  5
3A
  8
1
  6
DASHDOT
 62
     3
 10
-303.52542903992497
 20
328.56212839909
 30
0.0
 11
-298.52542903992497
 21
328.56212839909
 31
0.0
  0
LINE
  5
3B
  8
1
 62
     7
 10
-266.52542903992497
 20
370.56212839908989
 30
0.0
 11
-206.52542903992489
 21
370.56212839908989
 31
0.0
  0
LINE
  5
3C
  8
1
 62
     7
 10
-266.52542903992497
 20
286.56212839909
 30
0.0
 11
-206.52542903992489
 21
286.56212839909
 31
0.0
  0
LINE
  5
3D
  8
1
 62
     7
 10
-263.52542903992492
 20
298.41464919632563
 30
0.0
 11
-255.52542903992469
 21
298.41464919632563
 31
0.0
  0
LINE
  5
3E
  8
1
 62
     7
 10
-262.27542903992457
 20
297.67552905470109
 30
0.0
 11
-262.27542903992457
 21
298.11464919632562
 31
0.0
  0
LINE
  5
3F
  8
1
 62
     7
 10
-256.77542903992492
 20
298.11464919632562
 30
0.0
 11
-256.77542903992457
 21
297.6755290547012
 31
0.0
  0
LINE
  5
40
  8
1
 62
     7
 10
-255.52542903992469
 20
298.56212839909
 30
0.0
 11
-255.52542903992469
 21
298.41464919632563
 31
0.0
  0
LINE
  5
41
  8
1
 62
     7
 10
-263.52542903992509
 20
324.5935014324931
 30
0.0
 11
-263.52542903992492
 21
298.41464919632563
 31
0.0
  0
LINE
  5
42
  8
1
 62
     7
 10
-263.52542903992497
 20
332.53075536568667
 30
0.0
 11
-263.52542903992492
 21
358.70960760185432
 31
0.0
  0
LINE
  5
43
  8
1
 62
     7
 10
-255.52542903992469
 20
358.70960760185432
 30
0.0
 11
-255.52542903992469
 21
358.56212839908989
 31
0.0
  0
LINE
  5
44
  8
1
 62
     7
 10
-256.77542903992457
 20
359.4487277434788
 30
0.0
 11
-256.77542903992492
 21
359.00960760185433
 31
0.0
  0
LINE
  5
45
  8
1
 62
     7
 10
-262.27542903992457
 20
359.00960760185433
 30
0.0
 11
-262.27542903992457
 21
359.4487277434788
 31
0.0
  0
LINE
  5
46
  8
1
 62
     7
 10
-255.52542903992469
 20
358.70960760185432
 30
0.0
 11
-263.52542903992492
 21
358.70960760185432
 31
0.0
  0
LINE
  5
47
  8
1
 62
     7
 10
-262.82542903992498
 20
329.76212839908999
 30
0.0
 11
-262.82542903992498
 21
327.3621283990899
 31
0.0
  0
LINE
  5
48
  8
1
 62
     7
 10
-265.22542903992502
 20
327.3621283990899
 30
0.0
 11
-265.22542903992502
 21
329.76212839908999
 31
0.0
  0
LINE
  5
49
  8
1
 62
     7
 10
-270.02542903992497
 20
325.56212839909
 30
0.0
 11
-265.82820467765691
 21
325.56212839909
 31
0.0
  0
LINE
  5
4A
  8
1
 62
     7
 10
-267.52542903992497
 20
369.56212839908989
 30
0.0
 11
-267.52542903992497
 21
331.56212839909
 31
0.0
  0
LINE
  5
4B
  8
1
 62
     7
 10
-265.82820467765691
 20
331.56212839909
 30
0.0
 11
-270.02542903992497
 21
331.56212839909
 31
0.0
  0
LINE
  5
4C
  8
1
 62
     7
 10
-267.52542903992497
 20
287.56212839908989
 30
0.0
 11
-267.52542903992497
 21
325.56212839909
 31
0.0
  0
LINE
  5
4D
  8
1
 62
     7
 10
-298.02542903992497
 20
332.56212839909
 30
0.0
 11
-298.02542903992497
 21
329.81212839909
 31
0.0
  0
LINE
  5
4E
  8
1
 62
     7
 10
-298.52542903992497
 20
329.81212839909
 30
0.0
 11
-281.77542903992497
 21
329.81212839909
 31
0.0
  0
LINE
  5
4F
  8
1
 62
     7
 10
-281.77542903992497
 20
327.31212839908989
 30
0.0
 11
-298.52542903992497
 21
327.31212839908989
 31
0.0
  0
LINE
  5
50
  8
1
 62
     7
 10
-263.52542903992497
 20
299.56212839908989
 30
0.0
 11
-266.52542903992497
 21
299.56212839908989
 31
0.0
  0
LINE
  5
51
  8
1
 62
     7
 10
-273.44238356007111
 20
314.13854127576889
 30
0.0
 11
-277.60847451977878
 21
314.48571552241111
 31
0.0
  0
LINE
  5
52
  8
1
 62
     7
 10
-268.52542903992497
 20
301.56212839909
 30
0.0
 11
-270.02542903992497
 21
301.56212839909
 31
0.0
  0
LINE
  5
53
  8
1
 62
     7
 10
-270.02542903992497
 20
301.56212839909
 30
0.0
 11
-271.52542903992497
 21
301.56212839909
 31
0.0
  0
LINE
  5
54
  8
1
 62
     7
 10
-272.52542903992497
 20
304.96313852586678
 30
0.0
 11
-273.52542903992497
 21
304.96313852586678
 31
0.0
  0
LINE
  5
55
  8
1
 62
     7
 10
-273.52542903992497
 20
304.96313852586678
 30
0.0
 11
-273.52542903992497
 21
312.56313852586658
 31
0.0
  0
LINE
  5
56
  8
1
 62
     7
 10
-273.52542903992497
 20
312.56313852586658
 30
0.0
 11
-272.52542903992497
 21
312.56313852586658
 31
0.0
  0
LINE
  5
57
  8
1
 62
     7
 10
-273.52542903992497
 20
305.26313852586668
 30
0.0
 11
-277.22542903992502
 21
305.26313852586668
 31
0.0
  0
LINE
  5
58
  8
1
 62
     7
 10
-277.22542903992502
 20
305.26313852586668
 30
0.0
 11
-277.52542903992497
 21
305.7827537681373
 31
0.0
  0
LINE
  5
59
  8
1
 62
     7
 10
-277.52542903992497
 20
305.7827537681373
 30
0.0
 11
-277.52542903992497
 21
311.74352328359601
 31
0.0
  0
LINE
  5
5A
  8
1
 62
     7
 10
-277.52542903992497
 20
311.74352328359601
 30
0.0
 11
-277.22542903992502
 21
312.26313852586662
 31
0.0
  0
LINE
  5
5B
  8
1
 62
     7
 10
-277.22542903992502
 20
312.26313852586662
 30
0.0
 11
-273.52542903992497
 21
312.26313852586662
 31
0.0
  0
LINE
  5
5C
  8
1
 62
     7
 10
-277.22542903992502
 20
305.26313852586668
 30
0.0
 11
-277.22542903992502
 21
312.26313852586662
 31
0.0
  0
LINE
  5
5D
  8
1
 62
     7
 10
-272.52542903992497
 20
308.4744633912718
 30
0.0
 11
-273.52542903992497
 21
307.89711312208232
 31
0.0
  0
LINE
  5
5E
  8
1
 62
     7
 10
-272.52542903992497
 20
309.6291639296511
 30
0.0
 11
-273.52542903992497
 21
309.05181366046162
 31
0.0
  0
LINE
  5
5F
  8
1
 62
     7
 10
-298.02542903992497
 20
327.31212839908989
 30
0.0
 11
-298.02542903992497
 21
324.56212839908989
 31
0.0
  0
LINE
  5
60
  8
1
 62
     7
 10
-298.52542903992497
 20
325.06212839908989
 30
0.0
 11
-298.02542903992497
 21
324.56212839908989
 31
0.0
  0
LINE
  5
61
  8
1
 62
     7
 10
-298.02542903992497
 20
332.56212839909
 30
0.0
 11
-298.52542903992497
 21
332.06212839909
 31
0.0
  0
LINE
  5
62
  8
1
 62
     7
 10
-278.52542903992497
 20
324.56212839908989
 30
0.0
 11
-298.02542903992497
 21
324.56212839908989
 31
0.0
  0
LINE
  5
63
  8
1
 62
     7
 10
-298.52542903992497
 20
332.06212839909
 30
0.0
 11
-298.52542903992497
 21
325.06212839908989
 31
0.0
  0
LINE
  5
64
  8
1
 62
     7
 10
-298.02542903992497
 20
332.56212839909
 30
0.0
 11
-278.52542903992497
 21
332.56212839909
 31
0.0
  0
LINE
  5
65
  8
1
 62
     7
 10
-266.52542903992497
 20
357.56212839908989
 30
0.0
 11
-263.52542903992497
 21
357.56212839908989
 31
0.0
  0
LINE
  5
66
  8
1
 62
     7
 10
-277.60847451977878
 20
342.63854127576889
 30
0.0
 11
-273.44238356007111
 21
342.98571552241111
 31
0.0
  0
LINE
  5
67
  8
1
 62
     7
 10
-278.52542903992497
 20
315.48226128065602
 30
0.0
 11
-278.52542903992497
 21
341.64199551752392
 31
0.0
  0
LINE
  5
68
  8
1
 62
     7
 10
-270.02542903992497
 20
355.56212839908989
 30
0.0
 11
-268.52542903992497
 21
355.56212839908989
 31
0.0
  0
LINE
  5
69
  8
1
 62
     7
 10
-270.02542903992497
 20
301.56212839909
 30
0.0
 11
-270.02542903992497
 21
355.56212839908989
 31
0.0
  0
LINE
  5
6A
  8
1
 62
     7
 10
-271.52542903992497
 20
355.56212839908989
 30
0.0
 11
-270.02542903992497
 21
355.56212839908989
 31
0.0
  0
LINE
  5
6B
  8
1
 62
     7
 10
-272.52542903992497
 20
302.56212839909
 30
0.0
 11
-272.52542903992497
 21
354.56212839908989
 31
0.0
  0
LINE
  5
6C
  8
1
 62
     7
 10
-273.52542903992497
 20
352.1611182723131
 30
0.0
 11
-272.52542903992497
 21
352.1611182723131
 31
0.0
  0
LINE
  5
6D
  8
1
 62
     7
 10
-273.52542903992497
 20
344.56111827231331
 30
0.0
 11
-273.52542903992497
 21
352.1611182723131
 31
0.0
  0
LINE
  5
6E
  8
1
 62
     7
 10
-272.52542903992497
 20
344.56111827231331
 30
0.0
 11
-273.52542903992497
 21
344.56111827231331
 31
0.0
  0
LINE
  5
6F
  8
1
 62
     7
 10
-277.22542903992502
 20
351.86111827231332
 30
0.0
 11
-273.52542903992497
 21
351.86111827231332
 31
0.0
  0
LINE
  5
70
  8
1
 62
     7
 10
-277.52542903992497
 20
351.34150303004259
 30
0.0
 11
-277.22542903992502
 21
351.86111827231332
 31
0.0
  0
LINE
  5
71
  8
1
 62
     7
 10
-277.52542903992497
 20
345.38073351458388
 30
0.0
 11
-277.52542903992497
 21
351.34150303004259
 31
0.0
  0
LINE
  5
72
  8
1
 62
     7
 10
-277.22542903992502
 20
344.86111827231332
 30
0.0
 11
-277.52542903992497
 21
345.38073351458388
 31
0.0
  0
LINE
  5
73
  8
1
 62
     7
 10
-273.52542903992497
 20
344.86111827231332
 30
0.0
 11
-277.22542903992502
 21
344.86111827231332
 31
0.0
  0
LINE
  5
74
  8
1
 62
     7
 10
-277.22542903992502
 20
344.86111827231332
 30
0.0
 11
-277.22542903992502
 21
351.86111827231332
 31
0.0
  0
LINE
  5
75
  8
1
 62
     7
 10
-272.52542903992497
 20
348.07244313771849
 30
0.0
 11
-273.52542903992497
 21
347.49509286852879
 31
0.0
  0
LINE
  5
76
  8
1
 62
     7
 10
-272.52542903992497
 20
349.22714367609768
 30
0.0
 11
-273.52542903992497
 21
348.64979340690809
 31
0.0
  0
LINE
  5
77
  8
1
  6
DASHDOT
 62
     3
 10
-253.70872692603189
 20
293.56212839908989
 30
0.0
 11
-264.34213115381777
 21
293.56212839908989
 31
0.0
  0
LINE
  5
78
  8
1
  6
DASHDOT
 62
     3
 10
-259.02542903992497
 20
288.24542628519691
 30
0.0
 11
-259.02542903992497
 21
297.33029772465198
 31
0.0
  0
LINE
  5
79
  8
1
 62
     7
 10
-234.525429039925
 20
358.56212839908977
 30
0.0
 11
-234.525429039925
 21
367.56212839908977
 31
0.0
  0
LINE
  5
7A
  8
1
 62
     7
 10
-234.525429039925
 20
289.56212839908989
 30
0.0
 11
-234.525429039925
 21
298.56212839909
 31
0.0
  0
LINE
  5
7B
  8
1
  6
DASHDOT
 62
     3
 10
-214.025429039925
 20
368.87883051298297
 30
0.0
 11
-214.025429039925
 21
359.79395907352807
 31
0.0
  0
LINE
  5
7C
  8
1
  6
DASHDOT
 62
     3
 10
-219.34213115381789
 20
363.56212839909011
 30
0.0
 11
-208.708726926032
 21
363.56212839909011
 31
0.0
  0
LINE
  5
7D
  8
1
  6
DASHDOT
 62
     3
 10
-174.525429039925
 20
182.13307167764191
 30
0.0
 11
-169.52542903992489
 21
182.13307167764191
 31
0.0
  0
LINE
  5
7E
  8
1
  6
DASHDOT
 62
     3
 10
-174.525429039925
 20
328.56212839909
 30
0.0
 11
-169.52542903992489
 21
328.56212839909
 31
0.0
  0
LINE
  5
7F
  8
1
 62
     7
 10
-217.52542903992509
 20
298.41464919632563
 30
0.0
 11
-209.52542903992509
 21
298.41464919632563
 31
0.0
  0
LINE
  5
80
  8
1
 62
     7
 10
-210.7754290399254
 20
298.11464919632562
 30
0.0
 11
-210.7754290399252
 21
297.67552905470109
 31
0.0
  0
LINE
  5
81
  8
1
 62
     7
 10
-216.2754290399252
 20
297.6755290547012
 30
0.0
 11
-216.275429039925
 21
298.11464919632562
 31
0.0
  0
LINE
  5
82
  8
1
 62
     7
 10
-217.52542903992509
 20
298.41464919632563
 30
0.0
 11
-217.52542903992509
 21
298.56212839909
 31
0.0
  0
LINE
  5
83
  8
1
 62
     7
 10
-209.52542903992509
 20
298.41464919632563
 30
0.0
 11
-209.5254290399248
 21
324.5935014324931
 31
0.0
  0
LINE
  5
84
  8
1
 62
     7
 10
-209.52542903992509
 20
358.70960760185432
 30
0.0
 11
-209.525429039925
 21
332.53075536568667
 31
0.0
  0
LINE
  5
85
  8
1
 62
     7
 10
-217.52542903992509
 20
358.56212839908989
 30
0.0
 11
-217.52542903992509
 21
358.70960760185432
 31
0.0
  0
LINE
  5
86
  8
1
 62
     7
 10
-216.275429039925
 20
359.00960760185433
 30
0.0
 11
-216.2754290399252
 21
359.4487277434788
 31
0.0
  0
LINE
  5
87
  8
1
 62
     7
 10
-210.7754290399252
 20
359.4487277434788
 30
0.0
 11
-210.7754290399254
 21
359.00960760185433
 31
0.0
  0
LINE
  5
88
  8
1
 62
     7
 10
-209.52542903992509
 20
358.70960760185432
 30
0.0
 11
-217.52542903992509
 21
358.70960760185432
 31
0.0
  0
LINE
  5
89
  8
1
 62
     7
 10
-264.94542903992487
 20
212.13307167764191
 30
0.0
 11
-264.94542903992487
 21
226.52980725042829
 31
0.0
  0
LINE
  5
8A
  8
1
 62
     7
 10
-263.10542903992501
 20
212.13307167764191
 30
0.0
 11
-263.10542903992501
 21
226.52980725042829
 31
0.0
  0
LINE
  5
8B
  8
1
 62
     7
 10
-263.52542903992497
 20
211.13307167764199
 30
0.0
 11
-267.52542903992497
 21
211.13307167764199
 31
0.0
  0
LINE
  5
8C
  8
1
 62
     7
 10
-267.0254290399248
 20
211.13307167764199
 30
0.0
 11
-267.0254290399248
 21
210.9990970814265
 31
0.0
  0
LINE
  5
8D
  8
1
 62
     7
 10
-267.52542903992497
 20
211.13307167764199
 30
0.0
 11
-267.52542903992497
 21
212.13307167764191
 31
0.0
  0
LINE
  5
8E
  8
1
 62
     7
 10
-270.02542903992497
 20
209.13307167764199
 30
0.0
 11
-268.52542903992497
 21
209.13307167764199
 31
0.0
  0
LINE
  5
8F
  8
1
 62
     7
 10
-271.52542903992497
 20
209.13307167764199
 30
0.0
 11
-270.02542903992497
 21
209.13307167764199
 31
0.0
  0
LINE
  5
90
  8
1
 62
     7
 10
-208.10542903992501
 20
226.52980725042829
 30
0.0
 11
-208.10542903992501
 21
212.13307167764191
 31
0.0
  0
LINE
  5
91
  8
1
 62
     7
 10
-209.94542903992499
 20
226.52980725042829
 30
0.0
 11
-209.94542903992499
 21
212.13307167764191
 31
0.0
  0
LINE
  5
92
  8
1
 62
     7
 10
-209.94542903992499
 20
226.52980725042829
 30
0.0
 11
-208.10542903992501
 21
226.52980725042829
 31
0.0
  0
LINE
  5
93
  8
1
 62
     3
 10
-209.41542903992499
 20
226.52980725042829
 30
0.0
 11
-209.41542903992499
 21
229.49061239506611
 31
0.0
  0
LINE
  5
94
  8
1
 62
     3
 10
-208.63542903992499
 20
229.49061239506611
 30
0.0
 11
-208.63542903992499
 21
226.52980725042829
 31
0.0
  0
LINE
  5
95
  8
1
 62
     7
 10
-205.525429039925
 20
211.13307167764199
 30
0.0
 11
-209.525429039925
 21
211.13307167764199
 31
0.0
  0
LINE
  5
96
  8
1
 62
     7
 10
-206.025429039925
 20
210.9990970814265
 30
0.0
 11
-206.025429039925
 21
211.13307167764199
 31
0.0
  0
LINE
  5
97
  8
1
 62
     7
 10
-205.525429039925
 20
212.13307167764191
 30
0.0
 11
-267.52542903992497
 21
212.13307167764191
 31
0.0
  0
LINE
  5
98
  8
1
 62
     7
 10
-205.525429039925
 20
212.13307167764191
 30
0.0
 11
-205.525429039925
 21
211.13307167764199
 31
0.0
  0
LINE
  5
99
  8
1
 62
     7
 10
-210.2254290399249
 20
327.3621283990899
 30
0.0
 11
-210.2254290399249
 21
329.76212839908999
 31
0.0
  0
LINE
  5
9A
  8
1
 62
     7
 10
-207.82542903992481
 20
329.76212839908999
 30
0.0
 11
-207.82542903992481
 21
327.3621283990899
 31
0.0
  0
LINE
  5
9B
  8
1
 62
     7
 10
-207.22265340219309
 20
325.56212839909
 30
0.0
 11
-203.025429039925
 21
325.56212839909
 31
0.0
  0
LINE
  5
9C
  8
1
 62
     7
 10
-205.525429039925
 20
331.56212839909
 30
0.0
 11
-205.525429039925
 21
369.56212839908989
 31
0.0
  0
LINE
  5
9D
  8
1
 62
     7
 10
-203.025429039925
 20
331.56212839909
 30
0.0
 11
-207.22265340219309
 21
331.56212839909
 31
0.0
  0
LINE
  5
9E
  8
1
 62
     7
 10
-209.525429039925
 20
298.56212839909
 30
0.0
 11
-263.52542903992497
 21
298.56212839909
 31
0.0
  0
LINE
  5
9F
  8
1
 62
     7
 10
-263.52542903992497
 20
358.56212839908989
 30
0.0
 11
-209.525429039925
 21
358.56212839908989
 31
0.0
  0
LINE
  5
A0
  8
1
 62
     7
 10
-205.525429039925
 20
325.56212839909
 30
0.0
 11
-205.525429039925
 21
287.56212839908989
 31
0.0
  0
LINE
  5
A1
  8
1
 62
     7
 10
-175.02542903992489
 20
329.81212839909
 30
0.0
 11
-175.02542903992489
 21
332.56212839909
 31
0.0
  0
LINE
  5
A2
  8
1
 62
     7
 10
-191.275429039925
 20
329.81212839909
 30
0.0
 11
-174.525429039925
 21
329.81212839909
 31
0.0
  0
LINE
  5
A3
  8
1
 62
     7
 10
-174.525429039925
 20
327.31212839908989
 30
0.0
 11
-191.275429039925
 21
327.31212839908989
 31
0.0
  0
LINE
  5
A4
  8
1
 62
     7
 10
-206.52542903992489
 20
299.56212839908989
 30
0.0
 11
-209.525429039925
 21
299.56212839908989
 31
0.0
  0
LINE
  5
A5
  8
1
 62
     7
 10
-195.44238356007119
 20
314.48571552241111
 30
0.0
 11
-199.60847451977881
 21
314.13854127576889
 31
0.0
  0
LINE
  5
A6
  8
1
 62
     7
 10
-203.025429039925
 20
301.56212839909
 30
0.0
 11
-204.52542903992489
 21
301.56212839909
 31
0.0
  0
LINE
  5
A7
  8
1
 62
     7
 10
-201.525429039925
 20
301.56212839909
 30
0.0
 11
-203.025429039925
 21
301.56212839909
 31
0.0
  0
LINE
  5
A8
  8
1
 62
     7
 10
-199.525429039925
 20
304.96313852586678
 30
0.0
 11
-200.52542903992489
 21
304.96313852586678
 31
0.0
  0
LINE
  5
A9
  8
1
 62
     7
 10
-199.525429039925
 20
312.56313852586658
 30
0.0
 11
-199.525429039925
 21
304.96313852586678
 31
0.0
  0
LINE
  5
AA
  8
1
 62
     7
 10
-200.52542903992489
 20
312.56313852586658
 30
0.0
 11
-199.525429039925
 21
312.56313852586658
 31
0.0
  0
LINE
  5
AB
  8
1
 62
     7
 10
-195.82542903992501
 20
305.26313852586668
 30
0.0
 11
-199.525429039925
 21
305.26313852586668
 31
0.0
  0
LINE
  5
AC
  8
1
 62
     7
 10
-195.52542903992489
 20
305.7827537681373
 30
0.0
 11
-195.82542903992501
 21
305.26313852586668
 31
0.0
  0
LINE
  5
AD
  8
1
 62
     7
 10
-195.52542903992489
 20
311.74352328359601
 30
0.0
 11
-195.52542903992489
 21
305.7827537681373
 31
0.0
  0
LINE
  5
AE
  8
1
 62
     7
 10
-195.82542903992501
 20
312.26313852586662
 30
0.0
 11
-195.52542903992489
 21
311.74352328359601
 31
0.0
  0
LINE
  5
AF
  8
1
 62
     7
 10
-199.525429039925
 20
312.26313852586662
 30
0.0
 11
-195.82542903992501
 21
312.26313852586662
 31
0.0
  0
LINE
  5
B0
  8
1
 62
     7
 10
-195.82542903992501
 20
312.26313852586662
 30
0.0
 11
-195.82542903992501
 21
305.26313852586668
 31
0.0
  0
LINE
  5
B1
  8
1
 62
     7
 10
-200.52542903992489
 20
309.05181366046151
 30
0.0
 11
-199.525429039925
 21
309.62916392965087
 31
0.0
  0
LINE
  5
B2
  8
1
 62
     7
 10
-200.52542903992489
 20
307.89711312208232
 30
0.0
 11
-199.525429039925
 21
308.4744633912718
 31
0.0
  0
LINE
  5
B3
  8
1
 62
     7
 10
-175.02542903992489
 20
324.56212839908989
 30
0.0
 11
-175.02542903992489
 21
327.31212839908989
 31
0.0
  0
LINE
  5
B4
  8
1
 62
     7
 10
-175.02542903992489
 20
324.56212839908989
 30
0.0
 11
-174.525429039925
 21
325.06212839908989
 31
0.0
  0
LINE
  5
B5
  8
1
 62
     7
 10
-174.525429039925
 20
332.06212839909
 30
0.0
 11
-175.02542903992489
 21
332.56212839909
 31
0.0
  0
LINE
  5
B6
  8
1
 62
     7
 10
-175.02542903992489
 20
324.56212839908989
 30
0.0
 11
-194.52542903992489
 21
324.56212839908989
 31
0.0
  0
LINE
  5
B7
  8
1
 62
     7
 10
-174.525429039925
 20
325.06212839908989
 30
0.0
 11
-174.525429039925
 21
332.06212839909
 31
0.0
  0
LINE
  5
B8
  8
1
 62
     7
 10
-194.52542903992489
 20
332.56212839909
 30
0.0
 11
-175.02542903992489
 21
332.56212839909
 31
0.0
  0
LINE
  5
B9
  8
1
 62
     7
 10
-209.525429039925
 20
357.56212839908989
 30
0.0
 11
-206.52542903992489
 21
357.56212839908989
 31
0.0
  0
LINE
  5
BA
  8
1
 62
     7
 10
-199.60847451977881
 20
342.98571552241111
 30
0.0
 11
-195.44238356007119
 21
342.63854127576889
 31
0.0
  0
LINE
  5
BB
  8
1
 62
     7
 10
-194.52542903992489
 20
341.64199551752392
 30
0.0
 11
-194.52542903992489
 21
315.48226128065602
 31
0.0
  0
LINE
  5
BC
  8
1
 62
     7
 10
-204.52542903992489
 20
355.56212839908989
 30
0.0
 11
-203.025429039925
 21
355.56212839908989
 31
0.0
  0
LINE
  5
BD
  8
1
 62
     7
 10
-203.025429039925
 20
355.56212839908989
 30
0.0
 11
-203.025429039925
 21
301.56212839909
 31
0.0
  0
LINE
  5
BE
  8
1
 62
     7
 10
-203.025429039925
 20
355.56212839908989
 30
0.0
 11
-201.525429039925
 21
355.56212839908989
 31
0.0
  0
LINE
  5
BF
  8
1
 62
     7
 10
-200.52542903992489
 20
354.56212839908989
 30
0.0
 11
-200.52542903992489
 21
302.56212839909
 31
0.0
  0
LINE
  5
C0
  8
1
 62
     7
 10
-200.52542903992489
 20
352.1611182723131
 30
0.0
 11
-199.525429039925
 21
352.1611182723131
 31
0.0
  0
LINE
  5
C1
  8
1
 62
     7
 10
-199.525429039925
 20
352.1611182723131
 30
0.0
 11
-199.525429039925
 21
344.56111827231331
 31
0.0
  0
LINE
  5
C2
  8
1
 62
     7
 10
-199.525429039925
 20
344.56111827231331
 30
0.0
 11
-200.52542903992489
 21
344.56111827231331
 31
0.0
  0
LINE
  5
C3
  8
1
 62
     7
 10
-199.525429039925
 20
351.86111827231332
 30
0.0
 11
-195.82542903992501
 21
351.86111827231332
 31
0.0
  0
LINE
  5
C4
  8
1
 62
     7
 10
-195.82542903992501
 20
351.86111827231332
 30
0.0
 11
-195.52542903992489
 21
351.34150303004259
 31
0.0
  0
LINE
  5
C5
  8
1
 62
     7
 10
-195.52542903992489
 20
351.34150303004259
 30
0.0
 11
-195.52542903992489
 21
345.38073351458388
 31
0.0
  0
LINE
  5
C6
  8
1
 62
     7
 10
-195.52542903992489
 20
345.38073351458388
 30
0.0
 11
-195.82542903992501
 21
344.86111827231332
 31
0.0
  0
LINE
  5
C7
  8
1
 62
     7
 10
-195.82542903992501
 20
344.86111827231332
 30
0.0
 11
-199.525429039925
 21
344.86111827231332
 31
0.0
  0
LINE
  5
C8
  8
1
 62
     7
 10
-195.82542903992501
 20
351.86111827231332
 30
0.0
 11
-195.82542903992501
 21
344.86111827231332
 31
0.0
  0
LINE
  5
C9
  8
1
 62
     7
 10
-200.52542903992489
 20
348.64979340690809
 30
0.0
 11
-199.525429039925
 21
349.22714367609768
 31
0.0
  0
LINE
  5
CA
  8
1
 62
     7
 10
-200.52542903992489
 20
347.49509286852879
 30
0.0
 11
-199.525429039925
 21
348.07244313771849
 31
0.0
  0
LINE
  5
CB
  8
1
 62
     7
 10
-298.52542903992492
 20
187.03307167764191
 30
0.0
 11
-280.52542903992492
 21
187.03307167764191
 31
0.0
  0
LINE
  5
CC
  8
1
 62
     7
 10
-280.52542903992492
 20
187.03307167764191
 30
0.0
 11
-280.52542903992492
 21
186.13307167764191
 31
0.0
  0
LINE
  5
CD
  8
1
 62
     7
 10
-298.02542903992492
 20
186.13307167764191
 30
0.0
 11
-298.02542903992492
 21
178.13307167764199
 31
0.0
  0
LINE
  5
CE
  8
1
 62
     7
 10
-298.52542903992492
 20
178.63307167764191
 30
0.0
 11
-298.02542903992492
 21
178.13307167764199
 31
0.0
  0
LINE
  5
CF
  8
1
 62
     7
 10
-298.02542903992492
 20
186.13307167764191
 30
0.0
 11
-298.52542903992492
 21
185.63307167764199
 31
0.0
  0
LINE
  5
D0
  8
1
 62
     7
 10
-278.52542903992492
 20
178.13307167764199
 30
0.0
 11
-298.02542903992492
 21
178.13307167764199
 31
0.0
  0
LINE
  5
D1
  8
1
 62
     7
 10
-298.52542903992492
 20
187.03307167764191
 30
0.0
 11
-298.52542903992492
 21
178.63307167764191
 31
0.0
  0
LINE
  5
D2
  8
1
 62
     7
 10
-298.02542903992492
 20
186.13307167764191
 30
0.0
 11
-278.52542903992492
 21
186.13307167764191
 31
0.0
  0
LINE
  5
D3
  8
1
 62
     7
 10
-192.525429039925
 20
187.03307167764191
 30
0.0
 11
-174.525429039925
 21
187.03307167764191
 31
0.0
  0
LINE
  5
D4
  8
1
 62
     7
 10
-192.525429039925
 20
186.13307167764191
 30
0.0
 11
-192.525429039925
 21
187.03307167764191
 31
0.0
  0
LINE
  5
D5
  8
1
 62
     7
 10
-175.02542903992489
 20
178.13307167764199
 30
0.0
 11
-175.02542903992489
 21
186.13307167764191
 31
0.0
  0
LINE
  5
D6
  8
1
 62
     7
 10
-175.02542903992489
 20
178.13307167764199
 30
0.0
 11
-174.525429039925
 21
178.63307167764191
 31
0.0
  0
LINE
  5
D7
  8
1
 62
     7
 10
-174.525429039925
 20
185.63307167764199
 30
0.0
 11
-175.02542903992489
 21
186.13307167764191
 31
0.0
  0
LINE
  5
D8
  8
1
 62
     7
 10
-175.02542903992489
 20
178.13307167764199
 30
0.0
 11
-194.52542903992489
 21
178.13307167764199
 31
0.0
  0
LINE
  5
D9
  8
1
 62
     7
 10
-174.525429039925
 20
178.63307167764191
 30
0.0
 11
-174.525429039925
 21
187.03307167764191
 31
0.0
  0
LINE
  5
DA
  8
1
 62
     7
 10
-194.52542903992489
 20
186.13307167764191
 30
0.0
 11
-175.02542903992489
 21
186.13307167764191
 31
0.0
  0
LINE
  5
DB
  8
1
 62
     7
 10
-209.525429039925
 20
171.13307167764191
 30
0.0
 11
-211.525429039925
 21
171.13307167764191
 31
0.0
  0
LINE
  5
DC
  8
1
 62
     7
 10
-209.525429039925
 20
212.13307167764191
 30
0.0
 11
-209.525429039925
 21
171.13307167764191
 31
0.0
  0
LINE
  5
DD
  8
1
 62
     7
 10
-199.60847451977881
 20
167.70948455432091
 30
0.0
 11
-195.44238356007119
 21
168.05665880096299
 31
0.0
  0
LINE
  5
DE
  8
1
 62
     7
 10
-199.60847451977881
 20
196.55665880096311
 30
0.0
 11
-195.44238356007119
 21
196.20948455432091
 31
0.0
  0
LINE
  5
DF
  8
1
 62
     7
 10
-194.52542903992489
 20
195.21293879607589
 30
0.0
 11
-194.52542903992489
 21
169.0532045592079
 31
0.0
  0
LINE
  5
E0
  8
1
 62
     7
 10
-204.52542903992489
 20
209.13307167764199
 30
0.0
 11
-203.025429039925
 21
209.13307167764199
 31
0.0
  0
LINE
  5
E1
  8
1
 62
     7
 10
-203.025429039925
 20
155.13307167764191
 30
0.0
 11
-204.52542903992489
 21
155.13307167764191
 31
0.0
  0
LINE
  5
E2
  8
1
 62
     7
 10
-203.025429039925
 20
209.13307167764199
 30
0.0
 11
-203.025429039925
 21
155.13307167764191
 31
0.0
  0
LINE
  5
E3
  8
1
 62
     7
 10
-205.525429039925
 20
210.13307167764191
 30
0.0
 11
-205.525429039925
 21
142.13307167764191
 31
0.0
  0
LINE
  5
E4
  8
1
 62
     7
 10
-205.525429039925
 20
142.13307167764191
 30
0.0
 11
-267.52542903992497
 21
142.13307167764191
 31
0.0
  0
LINE
  5
E5
  8
1
 62
     7
 10
-266.52542903992497
 20
151.13307167764199
 30
0.0
 11
-206.52542903992489
 21
151.13307167764199
 31
0.0
  0
LINE
  5
E6
  8
1
 62
     7
 10
-73.56702349881499
 20
211.13307167764199
 30
0.0
 11
-66.56702349881499
 21
211.13307167764199
 31
0.0
  0
LINE
  5
E7
  8
1
 62
     7
 10
-73.56702349881499
 20
212.13307167764191
 30
0.0
 11
-66.56702349881499
 21
212.13307167764191
 31
0.0
  0
LINE
  5
E8
  8
1
 62
     7
 10
-66.56702349881499
 20
211.13307167764199
 30
0.0
 11
-66.56702349881499
 21
212.13307167764191
 31
0.0
  0
LINE
  5
E9
  8
1
 62
     7
 10
-73.56702349881499
 20
211.13307167764199
 30
0.0
 11
-73.56702349881499
 21
212.13307167764191
 31
0.0
  0
LINE
  5
EA
  8
1
 62
     7
 10
-68.227023498815015
 20
226.52980725042829
 30
0.0
 11
-68.227023498815015
 21
212.13307167764191
 31
0.0
  0
LINE
  5
EB
  8
1
 62
     7
 10
-70.06702349881499
 20
226.52980725042829
 30
0.0
 11
-70.06702349881499
 21
212.13307167764191
 31
0.0
  0
LINE
  5
EC
  8
1
 62
     7
 10
-71.907023498814965
 20
226.52980725042829
 30
0.0
 11
-71.907023498814894
 21
212.13307167764191
 31
0.0
  0
LINE
  5
ED
  8
1
 62
     7
 10
-73.06702349881499
 20
211.13307167764199
 30
0.0
 11
-73.06702349881499
 21
209.06272051134039
 31
0.0
  0
LINE
  5
EE
  8
1
 62
     7
 10
-67.06702349881499
 20
209.06272051134039
 30
0.0
 11
-67.067023498814976
 21
211.13307167764199
 31
0.0
  0
LINE
  5
EF
  8
1
 62
     7
 10
-112.067023498815
 20
142.13307167764191
 30
0.0
 11
-92.567023498815004
 21
142.13307167764191
 31
0.0
  0
LINE
  5
F0
  8
1
 62
     7
 10
-91.567023498815004
 20
143.13307167764191
 30
0.0
 11
-48.56702349881499
 21
143.13307167764191
 31
0.0
  0
LINE
  5
F1
  8
1
 62
     7
 10
-112.067023498815
 20
142.13307167764191
 30
0.0
 11
-112.067023498815
 21
150.13307167764199
 31
0.0
  0
LINE
  5
F2
  8
1
 62
     7
 10
-111.067023498815
 20
151.13307167764199
 30
0.0
 11
-96.130483600525224
 21
151.13307167764199
 31
0.0
  0
LINE
  5
F3
  8
1
 62
     7
 10
-47.56702349881499
 20
142.13307167764191
 30
0.0
 11
-28.06702349881499
 21
142.13307167764191
 31
0.0
  0
LINE
  5
F4
  8
1
 62
     7
 10
-28.06702349881499
 20
150.13307167764199
 30
0.0
 11
-28.06702349881499
 21
142.13307167764191
 31
0.0
  0
LINE
  5
F5
  8
1
 62
     7
 10
-44.003563397104742
 20
151.13307167764199
 30
0.0
 11
-29.06702349881499
 21
151.13307167764199
 31
0.0
  0
LINE
  5
F6
  8
1
 62
     7
 10
-111.9364733410912
 20
150.62709290366959
 30
0.0
 11
-99.856967532109294
 21
171.88635033445311
 31
0.0
  0
LINE
  5
F7
  8
1
  6
DASHDOT
 62
     3
 10
-105.067023498815
 20
153.982276537416
 30
0.0
 11
-105.067023498815
 21
139.28386681786799
 31
0.0
  0
LINE
  5
F8
  8
1
  6
DASHDOT
 62
     3
 10
-35.06702349881499
 20
139.28386681786799
 30
0.0
 11
-35.06702349881499
 21
153.982276537416
 31
0.0
  0
LINE
  5
F9
  8
1
 62
     7
 10
-48.768033625591663
 20
201.06603614708089
 30
0.0
 11
-48.768033625591663
 21
202.79808695464979
 31
0.0
  0
LINE
  5
FA
  8
1
 62
     7
 10
-50.268033625591663
 20
200.20001074329639
 30
0.0
 11
-48.768033625591663
 21
201.06603614708089
 31
0.0
  0
LINE
  5
FB
  8
1
 62
     7
 10
-51.768033625591663
 20
201.06603614708089
 30
0.0
 11
-50.268033625591663
 21
200.20001074329639
 31
0.0
  0
LINE
  5
FC
  8
1
 62
     7
 10
-51.768033625591663
 20
202.79808695464979
 30
0.0
 11
-51.768033625591663
 21
201.06603614708089
 31
0.0
  0
LINE
  5
FD
  8
1
 62
     7
 10
-50.268033625591663
 20
203.6641123584341
 30
0.0
 11
-51.768033625591663
 21
202.79808695464979
 31
0.0
  0
LINE
  5
FE
  8
1
 62
     7
 10
-48.768033625591663
 20
202.79808695464979
 30
0.0
 11
-50.268033625591663
 21
203.6641123584341
 31
0.0
  0
LINE
  5
FF
  8
1
 62
     7
 10
-89.866013372038267
 20
203.6641123584341
 30
0.0
 11
-91.366013372038282
 21
202.79808695464979
 31
0.0
  0
LINE
  5
100
  8
1
 62
     7
 10
-88.366013372038296
 20
202.79808695464979
 30
0.0
 11
-89.866013372038267
 21
203.6641123584341
 31
0.0
  0
LINE
  5
101
  8
1
 62
     7
 10
-88.366013372038296
 20
201.06603614708089
 30
0.0
 11
-88.366013372038296
 21
202.79808695464979
 31
0.0
  0
LINE
  5
102
  8
1
 62
     7
 10
-89.866013372038267
 20
200.20001074329639
 30
0.0
 11
-88.366013372038296
 21
201.06603614708089
 31
0.0
  0
LINE
  5
103
  8
1
 62
     7
 10
-91.366013372038282
 20
201.06603614708089
 30
0.0
 11
-89.866013372038267
 21
200.20001074329639
 31
0.0
  0
LINE
  5
104
  8
1
 62
     7
 10
-91.366013372038282
 20
202.79808695464979
 30
0.0
 11
-91.366013372038282
 21
201.06603614708089
 31
0.0
  0
LINE
  5
105
  8
1
 62
     7
 10
-91.366013372038282
 20
163.20010720820309
 30
0.0
 11
-91.366013372038282
 21
161.46805640063411
 31
0.0
  0
LINE
  5
106
  8
1
 62
     7
 10
-89.866013372038267
 20
164.0661326119874
 30
0.0
 11
-91.366013372038282
 21
163.20010720820309
 31
0.0
  0
LINE
  5
107
  8
1
 62
     7
 10
-88.366013372038296
 20
163.20010720820309
 30
0.0
 11
-89.866013372038267
 21
164.0661326119874
 31
0.0
  0
LINE
  5
108
  8
1
 62
     7
 10
-88.366013372038296
 20
161.46805640063411
 30
0.0
 11
-88.366013372038296
 21
163.20010720820309
 31
0.0
  0
LINE
  5
109
  8
1
 62
     7
 10
-89.866013372038267
 20
160.60203099684969
 30
0.0
 11
-88.366013372038296
 21
161.46805640063411
 31
0.0
  0
LINE
  5
10A
  8
1
 62
     7
 10
-91.366013372038282
 20
161.46805640063411
 30
0.0
 11
-89.866013372038267
 21
160.60203099684969
 31
0.0
  0
LINE
  5
10B
  8
1
 62
     7
 10
-50.268033625591663
 20
160.60203099684969
 30
0.0
 11
-48.768033625591663
 21
161.46805640063411
 31
0.0
  0
LINE
  5
10C
  8
1
 62
     7
 10
-51.768033625591663
 20
161.46805640063411
 30
0.0
 11
-50.268033625591663
 21
160.60203099684969
 31
0.0
  0
LINE
  5
10D
  8
1
 62
     7
 10
-51.768033625591663
 20
163.20010720820309
 30
0.0
 11
-51.768033625591663
 21
161.46805640063411
 31
0.0
  0
LINE
  5
10E
  8
1
 62
     7
 10
-50.268033625591663
 20
164.0661326119874
 30
0.0
 11
-51.768033625591663
 21
163.20010720820309
 31
0.0
  0
LINE
  5
10F
  8
1
 62
     7
 10
-48.768033625591663
 20
163.20010720820309
 30
0.0
 11
-50.268033625591663
 21
164.0661326119874
 31
0.0
  0
LINE
  5
110
  8
1
 62
     7
 10
-48.768033625591663
 20
161.46805640063411
 30
0.0
 11
-48.768033625591663
 21
163.20010720820309
 31
0.0
  0
LINE
  5
111
  8
1
  6
DASHDOT
 62
     3
 10
-70.06702349881499
 20
185.3740394076475
 30
0.0
 11
-70.06702349881499
 21
178.89210394763629
 31
0.0
  0
LINE
  5
112
  8
1
  6
DASHDOT
 62
     3
 10
-66.826055768809397
 20
182.13307167764191
 30
0.0
 11
-73.307991228820583
 21
182.13307167764191
 31
0.0
  0
LINE
  5
113
  8
1
 62
     7
 10
-71.31702349881499
 20
185.03307167764191
 30
0.0
 11
-71.31702349881499
 21
187.03307167764191
 31
0.0
  0
LINE
  5
114
  8
1
 62
     7
 10
-71.31702349881499
 20
187.03307167764191
 30
0.0
 11
-68.81702349881499
 21
187.03307167764191
 31
0.0
  0
LINE
  5
115
  8
1
 62
     7
 10
-68.81702349881499
 20
187.03307167764191
 30
0.0
 11
-68.81702349881499
 21
185.03307167764191
 31
0.0
  0
LINE
  5
116
  8
1
 62
     7
 10
-68.81702349881499
 20
185.03307167764191
 30
0.0
 11
-71.31702349881499
 21
185.03307167764191
 31
0.0
  0
LINE
  5
117
  8
1
 62
     7
 10
-67.467023498814967
 20
177.26079408271491
 30
0.0
 11
-67.467023498814967
 21
176.45312192921551
 31
0.0
  0
LINE
  5
118
  8
1
 62
     7
 10
-69.66702349881497
 20
175.45312192921551
 30
0.0
 11
-68.467023498814953
 21
175.45312192921551
 31
0.0
  0
LINE
  5
119
  8
1
 62
     7
 10
-69.66702349881497
 20
175.45312192921551
 30
0.0
 11
-69.66702349881497
 21
176.35312192921549
 31
0.0
  0
LINE
  5
11A
  8
1
 62
     7
 10
-69.66702349881497
 20
176.35312192921549
 30
0.0
 11
-68.81702349881499
 21
176.35312192921549
 31
0.0
  0
LINE
  5
11B
  8
1
 62
     7
 10
-68.81702349881499
 20
177.45312192921551
 30
0.0
 11
-69.66702349881497
 21
177.45312192921551
 31
0.0
  0
LINE
  5
11C
  8
1
 62
     7
 10
-69.66702349881497
 20
177.45312192921551
 30
0.0
 11
-69.66702349881497
 21
178.1531219292155
 31
0.0
  0
LINE
  5
11D
  8
1
 62
     7
 10
-70.467023498814953
 20
178.1531219292155
 30
0.0
 11
-70.467023498814953
 21
177.45312192921551
 31
0.0
  0
LINE
  5
11E
  8
1
 62
     7
 10
-70.467023498814953
 20
177.45312192921551
 30
0.0
 11
-71.31702349881499
 21
177.45312192921551
 31
0.0
  0
LINE
  5
11F
  8
1
 62
     7
 10
-71.31702349881499
 20
176.35312192921549
 30
0.0
 11
-70.467023498814953
 21
176.35312192921549
 31
0.0
  0
LINE
  5
120
  8
1
 62
     7
 10
-70.467023498814953
 20
176.35312192921549
 30
0.0
 11
-70.467023498814953
 21
175.45312192921551
 31
0.0
  0
LINE
  5
121
  8
1
 62
     7
 10
-71.667023498814984
 20
175.45312192921551
 30
0.0
 11
-70.467023498814953
 21
175.45312192921551
 31
0.0
  0
LINE
  5
122
  8
1
 62
     7
 10
-72.667023498814984
 20
176.45312192921551
 30
0.0
 11
-72.667023498814984
 21
177.26079408271491
 31
0.0
  0
LINE
  5
123
  8
1
 62
     7
 10
-98.171439520465711
 20
171.29725078211951
 30
0.0
 11
-99.157870066248208
 21
171.13307167764191
 31
0.0
  0
LINE
  5
124
  8
1
 62
     7
 10
-74.035650465411877
 20
211.01364544563509
 30
0.0
 11
-74.035650465411877
 21
212.01543108578491
 31
0.0
  0
LINE
  5
125
  8
1
 62
     7
 10
-66.098396532218104
 20
211.01364544563509
 30
0.0
 11
-66.098396532218104
 21
212.01543108578491
 31
0.0
  0
LINE
  5
126
  8
1
 62
     7
 10
-99.433604829213607
 20
172.6314451114894
 30
0.0
 11
-99.398648109597403
 21
172.69296699102711
 31
0.0
  0
LINE
  5
127
  8
1
 62
     7
 10
-40.976176931381737
 20
171.13307167764191
 30
0.0
 11
-41.962607477164347
 21
171.29725078211951
 31
0.0
  0
LINE
  5
128
  8
1
 62
     7
 10
-40.73539888803262
 20
172.69296699102711
 30
0.0
 11
-40.70044216841643
 21
172.6314451114894
 31
0.0
  0
LINE
  5
129
  8
1
 62
     7
 10
-40.277079465520757
 20
171.88635033445311
 30
0.0
 11
-28.197573656538761
 21
150.62709290366959
 31
0.0
  0
LINE
  5
12A
  8
1
 62
     7
 10
-40.020683369209138
 20
179.0044497405583
 30
0.0
 11
-39.523503535587068
 21
178.95141943752799
 31
0.0
  0
LINE
  5
12B
  8
1
 62
     7
 10
-39.357771392989498
 20
177.67665167165441
 30
0.0
 11
-38.921128035083612
 21
177.63007832330049
 31
0.0
  0
LINE
  5
12C
  8
1
 62
     7
 10
-39.504461368416841
 20
172.16110015345731
 30
0.0
 11
-39.941104726322841
 21
172.20767350181151
 31
0.0
  0
LINE
  5
12D
  8
1
 62
     7
 10
-40.869168217694003
 20
171.0495724026045
 30
0.0
 11
-40.020683369209138
 21
179.0044497405583
 31
0.0
  0
LINE
  5
12E
  8
1
 62
     7
 10
-40.371988384071841
 20
170.9965420995741
 30
0.0
 11
-39.523503535587068
 21
178.95141943752799
 31
0.0
  0
LINE
  5
12F
  8
1
 62
     7
 10
-40.869168217694003
 20
171.0495724026045
 30
0.0
 11
-40.371988384071841
 21
170.9965420995741
 31
0.0
  0
LINE
  5
130
  8
1
 62
     7
 10
-99.762058613558196
 20
170.9965420995741
 30
0.0
 11
-99.264878779935984
 21
171.0495724026045
 31
0.0
  0
LINE
  5
131
  8
1
 62
     7
 10
-100.6105434620429
 20
178.95141943752799
 30
0.0
 11
-99.762058613558196
 21
170.9965420995741
 31
0.0
  0
LINE
  5
132
  8
1
 62
     7
 10
-100.1133636284208
 20
179.0044497405583
 30
0.0
 11
-99.264878779935984
 21
171.0495724026045
 31
0.0
  0
LINE
  5
133
  8
1
 62
     7
 10
-100.1929422713071
 20
172.20767350181151
 30
0.0
 11
-100.6295856292132
 21
172.16110015345731
 31
0.0
  0
LINE
  5
134
  8
1
 62
     7
 10
-101.2129189625464
 20
177.63007832330049
 30
0.0
 11
-100.7762756046405
 21
177.67665167165441
 31
0.0
  0
LINE
  5
135
  8
1
 62
     7
 10
-100.6105434620429
 20
178.95141943752799
 30
0.0
 11
-100.1133636284208
 21
179.0044497405583
 31
0.0
  0
LINE
  5
136
  8
1
 62
     7
 10
-203.025429039925
 20
209.13307167764199
 30
0.0
 11
-201.525429039925
 21
209.13307167764199
 31
0.0
  0
LINE
  5
137
  8
1
 62
     7
 10
-200.52542903992489
 20
208.13307167764191
 30
0.0
 11
-200.52542903992489
 21
156.13307167764191
 31
0.0
  0
LINE
  5
138
  8
1
 62
     7
 10
-201.525429039925
 20
155.13307167764191
 30
0.0
 11
-203.025429039925
 21
155.13307167764191
 31
0.0
  0
LINE
  5
139
  8
1
 62
     7
 10
-215.275429039925
 20
175.3955716776419
 30
0.0
 11
-215.275429039925
 21
174.87057167764189
 31
0.0
  0
LINE
  5
13A
  8
1
 62
     7
 10
-213.7879290399249
 20
173.38307167764191
 30
0.0
 11
-213.26292903992501
 21
173.38307167764191
 31
0.0
  0
LINE
  5
13B
  8
1
 62
     7
 10
-211.775429039925
 20
174.87057167764189
 30
0.0
 11
-211.775429039925
 21
175.3955716776419
 31
0.0
  0
LINE
  5
13C
  8
1
 62
     7
 10
-213.26292903992501
 20
176.88307167764191
 30
0.0
 11
-213.7879290399249
 21
176.88307167764191
 31
0.0
  0
LINE
  5
13D
  8
1
 62
     7
 10
-238.525429039925
 20
154.13307167764191
 30
0.0
 11
-238.525429039925
 21
171.13307167764191
 31
0.0
  0
LINE
  5
13E
  8
1
 62
     7
 10
-234.525429039925
 20
154.13307167764191
 30
0.0
 11
-234.525429039925
 21
171.13307167764191
 31
0.0
  0
LINE
  5
13F
  8
1
  6
DASHDOT
 62
     3
 10
-214.025429039925
 20
153.982276537416
 30
0.0
 11
-214.025429039925
 21
139.28386681786799
 31
0.0
  0
LINE
  5
140
  8
1
 62
     7
 10
-200.52542903992489
 20
205.7320615508651
 30
0.0
 11
-199.525429039925
 21
205.7320615508651
 31
0.0
  0
LINE
  5
141
  8
1
 62
     7
 10
-199.525429039925
 20
205.7320615508651
 30
0.0
 11
-199.525429039925
 21
198.13206155086539
 31
0.0
  0
LINE
  5
142
  8
1
 62
     7
 10
-199.525429039925
 20
198.13206155086539
 30
0.0
 11
-200.52542903992489
 21
198.13206155086539
 31
0.0
  0
LINE
  5
143
  8
1
 62
     7
 10
-199.525429039925
 20
205.43206155086531
 30
0.0
 11
-195.82542903992501
 21
205.43206155086531
 31
0.0
  0
LINE
  5
144
  8
1
 62
     7
 10
-195.82542903992501
 20
205.43206155086531
 30
0.0
 11
-195.52542903992489
 21
204.9124463085945
 31
0.0
  0
LINE
  5
145
  8
1
 62
     7
 10
-195.52542903992489
 20
204.9124463085945
 30
0.0
 11
-195.52542903992489
 21
198.9516767931359
 31
0.0
  0
LINE
  5
146
  8
1
 62
     7
 10
-195.52542903992489
 20
198.9516767931359
 30
0.0
 11
-195.82542903992501
 21
198.43206155086531
 31
0.0
  0
LINE
  5
147
  8
1
 62
     7
 10
-195.82542903992501
 20
198.43206155086531
 30
0.0
 11
-199.525429039925
 21
198.43206155086531
 31
0.0
  0
LINE
  5
148
  8
1
 62
     7
 10
-195.82542903992501
 20
205.43206155086531
 30
0.0
 11
-195.82542903992501
 21
198.43206155086531
 31
0.0
  0
LINE
  5
149
  8
1
 62
     7
 10
-200.52542903992489
 20
202.22073668546
 30
0.0
 11
-199.525429039925
 21
202.79808695464959
 31
0.0
  0
LINE
  5
14A
  8
1
 62
     7
 10
-200.52542903992489
 20
201.06603614708089
 30
0.0
 11
-199.525429039925
 21
201.64338641627049
 31
0.0
  0
LINE
  5
14B
  8
1
 62
     7
 10
-199.525429039925
 20
158.53408180441869
 30
0.0
 11
-200.52542903992489
 21
158.53408180441869
 31
0.0
  0
LINE
  5
14C
  8
1
 62
     7
 10
-199.525429039925
 20
166.1340818044186
 30
0.0
 11
-199.525429039925
 21
158.53408180441869
 31
0.0
  0
LINE
  5
14D
  8
1
 62
     7
 10
-200.52542903992489
 20
166.1340818044186
 30
0.0
 11
-199.525429039925
 21
166.1340818044186
 31
0.0
  0
LINE
  5
14E
  8
1
 62
     7
 10
-195.82542903992501
 20
158.83408180441859
 30
0.0
 11
-199.525429039925
 21
158.83408180441859
 31
0.0
  0
LINE
  5
14F
  8
1
 62
     7
 10
-195.52542903992489
 20
159.35369704668929
 30
0.0
 11
-195.82542903992501
 21
158.83408180441859
 31
0.0
  0
LINE
  5
150
  8
1
 62
     7
 10
-195.52542903992489
 20
165.314466562148
 30
0.0
 11
-195.52542903992489
 21
159.35369704668929
 31
0.0
  0
LINE
  5
151
  8
1
 62
     7
 10
-195.82542903992501
 20
165.83408180441859
 30
0.0
 11
-195.52542903992489
 21
165.314466562148
 31
0.0
  0
LINE
  5
152
  8
1
 62
     7
 10
-199.525429039925
 20
165.83408180441859
 30
0.0
 11
-195.82542903992501
 21
165.83408180441859
 31
0.0
  0
LINE
  5
153
  8
1
 62
     7
 10
-195.82542903992501
 20
165.83408180441859
 30
0.0
 11
-195.82542903992501
 21
158.83408180441859
 31
0.0
  0
LINE
  5
154
  8
1
 62
     7
 10
-200.52542903992489
 20
162.6227569390135
 30
0.0
 11
-199.525429039925
 21
163.20010720820309
 31
0.0
  0
LINE
  5
155
  8
1
 62
     7
 10
-200.52542903992489
 20
161.46805640063431
 30
0.0
 11
-199.525429039925
 21
162.04540666982379
 31
0.0
  0
LINE
  5
156
  8
1
 62
     7
 10
-263.52542903992497
 20
171.13307167764191
 30
0.0
 11
-263.52542903992497
 21
212.13307167764191
 31
0.0
  0
LINE
  5
157
  8
1
 62
     7
 10
-277.60847451977878
 20
168.05665880096299
 30
0.0
 11
-273.44238356007111
 21
167.70948455432091
 31
0.0
  0
LINE
  5
158
  8
1
 62
     7
 10
-277.60847451977878
 20
196.20948455432091
 30
0.0
 11
-273.44238356007111
 21
196.55665880096311
 31
0.0
  0
LINE
  5
159
  8
1
 62
     7
 10
-278.52542903992497
 20
169.0532045592079
 30
0.0
 11
-278.52542903992497
 21
195.21293879607589
 31
0.0
  0
LINE
  5
15A
  8
1
 62
     7
 10
-268.52542903992497
 20
155.13307167764191
 30
0.0
 11
-270.02542903992497
 21
155.13307167764191
 31
0.0
  0
LINE
  5
15B
  8
1
 62
     7
 10
-270.02542903992497
 20
155.13307167764191
 30
0.0
 11
-270.02542903992497
 21
209.13307167764199
 31
0.0
  0
LINE
  5
15C
  8
1
 62
     7
 10
-267.52542903992497
 20
142.13307167764191
 30
0.0
 11
-267.52542903992497
 21
210.13307167764191
 31
0.0
  0
LINE
  5
15D
  8
1
 62
     7
 10
-272.52542903992497
 20
156.13307167764191
 30
0.0
 11
-272.52542903992497
 21
208.13307167764191
 31
0.0
  0
LINE
  5
15E
  8
1
 62
     7
 10
-270.02542903992497
 20
155.13307167764191
 30
0.0
 11
-271.52542903992497
 21
155.13307167764191
 31
0.0
  0
LINE
  5
15F
  8
1
  6
DASHDOT
 62
     3
 10
-259.02542903992497
 20
139.28386681786799
 30
0.0
 11
-259.02542903992497
 21
153.982276537416
 31
0.0
  0
LINE
  5
160
  8
1
 62
     7
 10
-273.52542903992497
 20
205.7320615508651
 30
0.0
 11
-272.52542903992497
 21
205.7320615508651
 31
0.0
  0
LINE
  5
161
  8
1
 62
     7
 10
-273.52542903992497
 20
198.13206155086539
 30
0.0
 11
-273.52542903992497
 21
205.7320615508651
 31
0.0
  0
LINE
  5
162
  8
1
 62
     7
 10
-272.52542903992497
 20
198.13206155086539
 30
0.0
 11
-273.52542903992497
 21
198.13206155086539
 31
0.0
  0
LINE
  5
163
  8
1
 62
     7
 10
-277.22542903992502
 20
205.43206155086531
 30
0.0
 11
-273.52542903992497
 21
205.43206155086531
 31
0.0
  0
LINE
  5
164
  8
1
 62
     7
 10
-277.52542903992497
 20
204.9124463085945
 30
0.0
 11
-277.22542903992502
 21
205.43206155086531
 31
0.0
  0
LINE
  5
165
  8
1
 62
     7
 10
-277.52542903992497
 20
198.9516767931359
 30
0.0
 11
-277.52542903992497
 21
204.9124463085945
 31
0.0
  0
LINE
  5
166
  8
1
 62
     7
 10
-277.22542903992502
 20
198.43206155086531
 30
0.0
 11
-277.52542903992497
 21
198.9516767931359
 31
0.0
  0
LINE
  5
167
  8
1
 62
     7
 10
-273.52542903992497
 20
198.43206155086531
 30
0.0
 11
-277.22542903992502
 21
198.43206155086531
 31
0.0
  0
LINE
  5
168
  8
1
 62
     7
 10
-277.22542903992502
 20
198.43206155086531
 30
0.0
 11
-277.22542903992502
 21
205.43206155086531
 31
0.0
  0
LINE
  5
169
  8
1
 62
     7
 10
-272.52542903992497
 20
201.64338641627049
 30
0.0
 11
-273.52542903992497
 21
201.06603614708089
 31
0.0
  0
LINE
  5
16A
  8
1
 62
     7
 10
-272.52542903992497
 20
202.79808695464959
 30
0.0
 11
-273.52542903992497
 21
202.22073668546
 31
0.0
  0
LINE
  5
16B
  8
1
 62
     7
 10
-272.52542903992497
 20
158.53408180441869
 30
0.0
 11
-273.52542903992497
 21
158.53408180441869
 31
0.0
  0
LINE
  5
16C
  8
1
 62
     7
 10
-273.52542903992497
 20
158.53408180441869
 30
0.0
 11
-273.52542903992497
 21
166.1340818044186
 31
0.0
  0
LINE
  5
16D
  8
1
 62
     7
 10
-273.52542903992497
 20
166.1340818044186
 30
0.0
 11
-272.52542903992497
 21
166.1340818044186
 31
0.0
  0
LINE
  5
16E
  8
1
 62
     7
 10
-273.52542903992497
 20
158.83408180441859
 30
0.0
 11
-277.22542903992502
 21
158.83408180441859
 31
0.0
  0
LINE
  5
16F
  8
1
 62
     7
 10
-277.22542903992502
 20
158.83408180441859
 30
0.0
 11
-277.52542903992497
 21
159.35369704668929
 31
0.0
  0
LINE
  5
170
  8
1
 62
     7
 10
-277.52542903992497
 20
159.35369704668929
 30
0.0
 11
-277.52542903992497
 21
165.314466562148
 31
0.0
  0
LINE
  5
171
  8
1
 62
     7
 10
-277.52542903992497
 20
165.314466562148
 30
0.0
 11
-277.22542903992502
 21
165.83408180441859
 31
0.0
  0
LINE
  5
172
  8
1
 62
     7
 10
-277.22542903992502
 20
165.83408180441859
 30
0.0
 11
-273.52542903992497
 21
165.83408180441859
 31
0.0
  0
LINE
  5
173
  8
1
 62
     7
 10
-277.22542903992502
 20
158.83408180441859
 30
0.0
 11
-277.22542903992502
 21
165.83408180441859
 31
0.0
  0
LINE
  5
174
  8
1
 62
     7
 10
-272.52542903992497
 20
162.04540666982379
 30
0.0
 11
-273.52542903992497
 21
161.46805640063411
 31
0.0
  0
LINE
  5
175
  8
1
 62
     7
 10
-272.52542903992497
 20
163.20010720820289
 30
0.0
 11
-273.52542903992497
 21
162.62275693901341
 31
0.0
  0
LINE
  5
176
  8
1
  6
DASHDOT
 62
     3
 10
-208.708726926032
 20
293.56212839908989
 30
0.0
 11
-219.34213115381789
 21
293.56212839908989
 31
0.0
  0
LINE
  5
177
  8
1
  6
DASHDOT
 62
     3
 10
-214.025429039925
 20
297.33029772465198
 30
0.0
 11
-214.025429039925
 21
288.24542628519691
 31
0.0
  0
LINE
  5
178
  8
1
 62
     7
 10
-211.525429039925
 20
171.6689700625042
 30
0.0
 11
-211.525429039925
 21
171.13307167764191
 31
0.0
  0
LINE
  5
179
  8
1
 62
     7
 10
-215.525429039925
 20
171.6689700625042
 30
0.0
 11
-215.525429039925
 21
171.13307167764191
 31
0.0
  0
LINE
  5
17A
  8
1
 62
     7
 10
-215.525429039925
 20
171.13307167764191
 30
0.0
 11
-257.52542903992497
 21
171.13307167764191
 31
0.0
  0
LINE
  5
17B
  8
1
 62
     7
 10
-257.77542903992497
 20
174.87057167764189
 30
0.0
 11
-257.77542903992497
 21
175.3955716776419
 31
0.0
  0
LINE
  5
17C
  8
1
 62
     7
 10
-259.78792903992502
 20
173.38307167764191
 30
0.0
 11
-259.26292903992498
 21
173.38307167764191
 31
0.0
  0
LINE
  5
17D
  8
1
 62
     7
 10
-261.27542903992497
 20
175.3955716776419
 30
0.0
 11
-261.27542903992497
 21
174.87057167764189
 31
0.0
  0
LINE
  5
17E
  8
1
 62
     7
 10
-259.26292903992498
 20
176.88307167764191
 30
0.0
 11
-259.78792903992502
 21
176.88307167764191
 31
0.0
  0
LINE
  5
17F
  8
1
 62
     7
 10
-261.52542903992497
 20
171.6689700625042
 30
0.0
 11
-261.52542903992497
 21
171.13307167764191
 31
0.0
  0
LINE
  5
180
  8
1
 62
     7
 10
-257.52542903992497
 20
171.6689700625042
 30
0.0
 11
-257.52542903992497
 21
171.13307167764191
 31
0.0
  0
LINE
  5
181
  8
1
 62
     7
 10
-261.52542903992497
 20
171.13307167764191
 30
0.0
 11
-263.52542903992497
 21
171.13307167764191
 31
0.0
  0
LINE
  5
182
  8
1
 62
     3
 10
-209.025429039925
 20
226.52980725042829
 30
0.0
 11
-209.025429039925
 21
229.49061239506611
 31
0.0
  0
LINE
  5
183
  8
1
 62
     7
 10
-264.94542903992487
 20
226.52980725042829
 30
0.0
 11
-263.10542903992501
 21
226.52980725042829
 31
0.0
  0
LINE
  5
184
  8
1
 62
     3
 10
-264.41542903992502
 20
226.52980725042829
 30
0.0
 11
-264.41542903992502
 21
229.49061239506611
 31
0.0
  0
LINE
  5
185
  8
1
 62
     3
 10
-263.63542903992487
 20
229.49061239506611
 30
0.0
 11
-263.63542903992487
 21
226.52980725042829
 31
0.0
  0
LINE
  5
186
  8
1
 62
     3
 10
-264.02542903992497
 20
226.52980725042829
 30
0.0
 11
-264.02542903992497
 21
229.49061239506611
 31
0.0
  0
LINE
  5
187
  8
1
 62
     3
 10
-71.377023498814964
 20
226.52980725042829
 30
0.0
 11
-71.37702349881495
 21
229.49061239506611
 31
0.0
  0
LINE
  5
188
  8
1
 62
     3
 10
-70.597023498814949
 20
229.49061239506611
 30
0.0
 11
-70.597023498814949
 21
226.52980725042829
 31
0.0
  0
LINE
  5
189
  8
1
 62
     3
 10
-70.987023498814949
 20
226.52980725042829
 30
0.0
 11
-70.987023498814949
 21
229.49061239506611
 31
0.0
  0
LINE
  5
18A
  8
1
 62
     7
 10
-68.227023498815015
 20
226.52980725042829
 30
0.0
 11
-71.907023498814965
 21
226.52980725042829
 31
0.0
  0
LINE
  5
18B
  8
1
 62
     3
 10
-69.53702349881496
 20
226.52980725042829
 30
0.0
 11
-69.537023498814904
 21
229.49061239506611
 31
0.0
  0
LINE
  5
18C
  8
1
 62
     3
 10
-68.757023498814988
 20
229.49061239506611
 30
0.0
 11
-68.757023498814874
 21
226.52980725042829
 31
0.0
  0
LINE
  5
18D
  8
1
 62
     3
 10
-69.14702349881496
 20
226.52980725042829
 30
0.0
 11
-69.14702349881496
 21
229.49061239506611
 31
0.0
  0
ARC
  5
18E
  8
1
 62
     7
 10
-266.52542903992497
 20
369.56212839908989
 30
0.0
 40
1.0
 50
90.0
 51
180.0
  0
ARC
  5
18F
  8
1
 62
     7
 10
-266.52542903992497
 20
287.56212839908989
 30
0.0
 40
1.0
 50
180.0
 51
270.0
  0
ARC
  5
190
  8
1
 62
     7
 10
-262.57542903992481
 20
298.11464919632562
 30
0.0
 40
0.3000000000002387
 50
0.0
 51
90.0
  0
ARC
  5
191
  8
1
 62
     7
 10
-261.27542903992492
 20
297.67552905470109
 30
0.0
 40
0.9999999999996587
 50
180.0
 51
253.04223670000241
  0
ARC
  5
192
  8
1
 62
     7
 10
-257.77542903992492
 20
297.67552905470109
 30
0.0
 40
0.9999999999998971
 50
286.95776330002059
 51
0.0
  0
ARC
  5
193
  8
1
 62
     7
 10
-256.47542903992462
 20
298.11464919632562
 30
0.0
 40
0.3000000000000682
 50
90.0
 51
180.0
  0
ARC
  5
194
  8
1
 62
     7
 10
-256.47542903992462
 20
359.00960760185433
 30
0.0
 40
0.3000000000002387
 50
180.0
 51
270.0
  0
ARC
  5
195
  8
1
 62
     7
 10
-261.27542903992492
 20
359.4487277434788
 30
0.0
 40
1.0000000000000691
 50
106.9577632999972
 51
180.0
  0
ARC
  5
196
  8
1
 62
     7
 10
-262.57542903992481
 20
359.00960760185433
 30
0.0
 40
0.3000000000000114
 50
270.0
 51
0.0
  0
ARC
  5
197
  8
1
 62
     7
 10
-257.77542903992492
 20
359.4487277434788
 30
0.0
 40
1.0000000000002269
 50
0.0
 51
73.042236699971596
  0
ARC
  5
198
  8
1
 62
     7
 10
-277.52542903992497
 20
315.48226128065602
 30
0.0
 40
1.0
 50
180.0
 51
265.23635830926997
  0
ARC
  5
199
  8
1
 62
     7
 10
-271.52542903992497
 20
302.56212839909
 30
0.0
 40
1.0
 50
180.0
 51
270.0
  0
ARC
  5
19A
  8
1
 62
     7
 10
-266.52542903992497
 20
300.56212839909
 30
0.0
 40
1.0
 50
180.0
 51
270.0
  0
ARC
  5
19B
  8
1
 62
     7
 10
-277.52542903992497
 20
341.64199551752392
 30
0.0
 40
1.0000000000000311
 50
94.763641690729955
 51
180.0
  0
ARC
  5
19C
  8
1
 62
     7
 10
-271.52542903992497
 20
354.56212839908989
 30
0.0
 40
1.0
 50
90.0
 51
180.0
  0
ARC
  5
19D
  8
1
 62
     7
 10
-266.52542903992497
 20
356.56212839908989
 30
0.0
 40
1.0
 50
90.0
 51
180.0
  0
ARC
  5
19E
  8
1
 62
     7
 10
-206.52542903992489
 20
369.56212839908989
 30
0.0
 40
1.0
 50
0.0
 51
90.0
  0
ARC
  5
19F
  8
1
 62
     7
 10
-206.52542903992489
 20
287.56212839908989
 30
0.0
 40
1.0
 50
270.0
 51
0.0
  0
ARC
  5
1A0
  8
1
 62
     7
 10
-210.4754290399251
 20
298.11464919632562
 30
0.0
 40
0.3000000000000114
 50
90.0
 51
180.0
  0
ARC
  5
1A1
  8
1
 62
     7
 10
-211.77542903992509
 20
297.67552905470109
 30
0.0
 40
0.9999999999999693
 50
286.95776330000069
 51
0.0
  0
ARC
  5
1A2
  8
1
 62
     7
 10
-215.275429039925
 20
297.67552905470109
 30
0.0
 40
1.000000000000113
 50
180.0
 51
253.042236699982
  0
ARC
  5
1A3
  8
1
 62
     7
 10
-216.5754290399251
 20
298.11464919632562
 30
0.0
 40
0.3000000000001251
 50
0.0
 51
90.0
  0
ARC
  5
1A4
  8
1
 62
     7
 10
-216.5754290399251
 20
359.00960760185433
 30
0.0
 40
0.3000000000000682
 50
270.0
 51
0.0
  0
ARC
  5
1A5
  8
1
 62
     7
 10
-211.77542903992509
 20
359.4487277434788
 30
0.0
 40
0.9999999999997726
 50
0.0
 51
73.042236699996451
  0
ARC
  5
1A6
  8
1
 62
     7
 10
-210.4754290399251
 20
359.00960760185433
 30
0.0
 40
0.3000000000002103
 50
180.0
 51
270.0
  0
ARC
  5
1A7
  8
1
 62
     7
 10
-215.275429039925
 20
359.4487277434788
 30
0.0
 40
0.9999999999998971
 50
106.9577633000207
 51
180.0
  0
ARC
  5
1A8
  8
1
 62
     7
 10
-271.52542903992497
 20
208.13307167764191
 30
0.0
 40
1.0
 50
90.0
 51
180.0
  0
ARC
  5
1A9
  8
1
 62
     7
 10
-266.52542903992497
 20
210.13307167764191
 30
0.0
 40
1.0
 50
90.0
 51
180.0
  0
ARC
  5
1AA
  8
1
 62
     7
 10
-195.52542903992489
 20
315.48226128065602
 30
0.0
 40
1.0000000000000311
 50
274.76364169072991
 51
0.0
  0
ARC
  5
1AB
  8
1
 62
     7
 10
-201.525429039925
 20
302.56212839909
 30
0.0
 40
1.0
 50
270.0
 51
0.0
  0
ARC
  5
1AC
  8
1
 62
     7
 10
-206.52542903992489
 20
300.56212839909
 30
0.0
 40
1.0
 50
270.0
 51
0.0
  0
ARC
  5
1AD
  8
1
 62
     7
 10
-195.52542903992489
 20
341.64199551752392
 30
0.0
 40
1.0
 50
0.0
 51
85.236358309270045
  0
ARC
  5
1AE
  8
1
 62
     7
 10
-201.525429039925
 20
354.56212839908989
 30
0.0
 40
1.0
 50
0.0
 51
90.0
  0
ARC
  5
1AF
  8
1
 62
     7
 10
-206.52542903992489
 20
356.56212839908989
 30
0.0
 40
1.0
 50
0.0
 51
90.0
  0
ARC
  5
1B0
  8
1
 62
     7
 10
-195.52542903992489
 20
169.0532045592079
 30
0.0
 40
1.0000000000000311
 50
274.76364169072991
 51
0.0
  0
ARC
  5
1B1
  8
1
 62
     7
 10
-195.52542903992489
 20
195.21293879607589
 30
0.0
 40
1.0
 50
0.0
 51
85.236358309270045
  0
ARC
  5
1B2
  8
1
 62
     7
 10
-201.525429039925
 20
156.13307167764191
 30
0.0
 40
1.0
 50
270.0
 51
0.0
  0
ARC
  5
1B3
  8
1
 62
     7
 10
-201.525429039925
 20
208.13307167764191
 30
0.0
 40
1.0
 50
0.0
 51
90.0
  0
ARC
  5
1B4
  8
1
 62
     7
 10
-206.52542903992489
 20
150.13307167764199
 30
0.0
 40
1.0
 50
0.0
 51
90.0
  0
ARC
  5
1B5
  8
1
 62
     7
 10
-91.567023498815004
 20
142.13307167764191
 30
0.0
 40
1.0
 50
90.0
 51
180.0
  0
ARC
  5
1B6
  8
1
 62
     7
 10
-111.067023498815
 20
150.13307167764199
 30
0.0
 40
1.0
 50
90.0
 51
180.0
  0
ARC
  5
1B7
  8
1
 62
     7
 10
-48.567023498814997
 20
142.13307167764191
 30
0.0
 40
1.0000000000000071
 50
0.0
 51
90.0
  0
ARC
  5
1B8
  8
1
 62
     7
 10
-29.06702349881499
 20
150.13307167764199
 30
0.0
 40
1.0
 50
0.0
 51
90.0
  0
ARC
  5
1B9
  8
1
 62
     7
 10
-89.747515900039971
 20
201.81356407886699
 30
0.0
 40
6.0000000000000071
 50
109.14792625271819
 51
160.85207374728131
  0
ARC
  5
1BA
  8
1
 62
     7
 10
-50.386531097589973
 20
201.81356407886699
 30
0.0
 40
6.0
 50
19.147926252718769
 51
70.852073747281565
  0
ARC
  5
1BB
  8
1
 62
     7
 10
-89.747515900039971
 20
201.81356407886699
 30
0.0
 40
4.0000000000000231
 50
109.14792625271861
 51
160.85207374728179
  0
ARC
  5
1BC
  8
1
 62
     7
 10
-50.386531097589973
 20
201.81356407886699
 30
0.0
 40
3.9999999999999729
 50
19.147926252718459
 51
70.85207374728202
  0
ARC
  5
1BD
  8
1
 62
     7
 10
-89.747515900039971
 20
162.452579276417
 30
0.0
 40
4.0000000000000151
 50
199.1479262527194
 51
250.852073747281
  0
ARC
  5
1BE
  8
1
 62
     7
 10
-50.38653109758998
 20
162.452579276417
 30
0.0
 40
3.9999999999999729
 50
289.14792625271781
 51
340.8520737472831
  0
ARC
  5
1BF
  8
1
 62
     7
 10
-65.907023498814979
 20
177.26079408271491
 30
0.0
 40
1.559999999999893
 50
129.3566989272642
 51
180.0
  0
ARC
  5
1C0
  8
1
 62
     7
 10
-68.467023498814953
 20
176.45312192921551
 30
0.0
 40
1.0
 50
270.0
 51
0.0
  0
ARC
  5
1C1
  8
1
 62
     7
 10
-71.667023498814984
 20
176.45312192921551
 30
0.0
 40
1.0
 50
180.0
 51
270.0
  0
ARC
  5
1C2
  8
1
 62
     7
 10
-74.227023498814987
 20
177.26079408271491
 30
0.0
 40
1.5600000000000021
 50
0.0
 51
50.643301072736399
  0
ARC
  5
1C3
  8
1
 62
     7
 10
-50.386531097589973
 20
201.81356407886699
 30
0.0
 40
7.0000000000000071
 50
19.14792625271776
 51
70.852073747281835
  0
ARC
  5
1C4
  8
1
 62
     7
 10
-89.747515900039971
 20
201.81356407886699
 30
0.0
 40
7.0000000000000506
 50
109.14792625271841
 51
160.85207374728131
  0
ARC
  5
1C5
  8
1
 62
     7
 10
-39.325953211171317
 20
177.97495957182781
 30
0.0
 40
0.3000000000000718
 50
173.91172395584641
 51
263.91172395588399
  0
ARC
  5
1C6
  8
1
 62
     7
 10
-39.02718864114415
 20
176.63571865605601
 30
0.0
 40
0.9999999999999243
 50
10.86948725590225
 51
83.911723955887908
  0
ARC
  5
1C7
  8
1
 62
     7
 10
-39.398400762356289
 20
173.15545982070131
 30
0.0
 40
0.9999999999998464
 50
263.91172395588598
 51
336.95396065588471
  0
ARC
  5
1C8
  8
1
 62
     7
 10
-39.972922908140973
 20
171.909365601638
 30
0.0
 40
0.3000000000002354
 50
83.91172395589885
 51
173.91172395590431
  0
ARC
  5
1C9
  8
1
 62
     7
 10
-100.16112408948899
 20
171.909365601638
 30
0.0
 40
0.3000000000000204
 50
6.0882760441000903
 51
96.088276044117364
  0
ARC
  5
1CA
  8
1
 62
     7
 10
-100.73564623527371
 20
173.15545982070131
 30
0.0
 40
1.000000000000103
 50
203.0460393441144
 51
276.08827604411232
  0
ARC
  5
1CB
  8
1
 62
     7
 10
-101.1068583564858
 20
176.63571865605601
 30
0.0
 40
1.0000000000001521
 50
96.088276044109691
 51
169.1305127441008
  0
ARC
  5
1CC
  8
1
 62
     7
 10
-100.8080937864586
 20
177.97495957182781
 30
0.0
 40
0.3000000000000452
 50
276.08827604411857
 51
6.0882760441540649
  0
ARC
  5
1CD
  8
1
 62
     7
 10
-206.52542903992489
 20
210.13307167764191
 30
0.0
 40
1.0
 50
0.0
 51
90.0
  0
ARC
  5
1CE
  8
1
 62
     7
 10
-277.52542903992497
 20
169.0532045592079
 30
0.0
 40
1.0
 50
180.0
 51
265.23635830926997
  0
ARC
  5
1CF
  8
1
 62
     7
 10
-277.52542903992497
 20
195.21293879607589
 30
0.0
 40
1.0000000000000311
 50
94.763641690729955
 51
180.0
  0
ARC
  5
1D0
  8
1
 62
     7
 10
-271.52542903992497
 20
156.13307167764191
 30
0.0
 40
1.0
 50
180.0
 51
270.0
  0
ARC
  5
1D1
  8
1
 62
     7
 10
-266.52542903992497
 20
150.13307167764199
 30
0.0
 40
1.0
 50
90.0
 51
180.0
  0
ARC
  5
1D2
  8
1
 62
     7
 10
-241.52542903992489
 20
367.56212839908977
 30
0.0
 40
3.0
 50
0.0
 51
90.0
  0
ARC
  5
1D3
  8
1
 62
     7
 10
-241.52542903992489
 20
289.56212839908989
 30
0.0
 40
3.0
 50
270.0
 51
0.0
  0
ARC
  5
1D4
  8
1
 62
     7
 10
-259.02542903992497
 20
363.56212839909011
 30
0.0
 40
3.2500000000000862
 50
290.41650778992562
 51
243.7731346404311
  0
ARC
  5
1D5
  8
1
 62
     7
 10
-259.52542903992497
 20
303.41464919632563
 30
0.0
 40
6.9999999999996776
 50
253.04223669999729
 51
286.95776330000677
  0
ARC
  5
1D6
  8
1
 62
     7
 10
-259.52542903992497
 20
353.70960760185432
 30
0.0
 40
7.0000000000002931
 50
73.042236699992046
 51
106.9577633000025
  0
ARC
  5
1D7
  8
1
 62
     7
 10
-264.02542903992497
 20
327.3621283990899
 30
0.0
 40
1.2000000000001021
 50
180.0
 51
0.0
  0
ARC
  5
1D8
  8
1
 62
     7
 10
-264.02542903992497
 20
329.76212839908999
 30
0.0
 40
1.1999999999999891
 50
0.0
 51
180.0
  0
ARC
  5
1D9
  8
1
 62
     7
 10
-264.02542903992497
 20
328.56212839909
 30
0.0
 40
4.0
 50
277.18075578145658
 51
82.81924421854157
  0
ARC
  5
1DA
  8
1
 62
     7
 10
-281.77542903992497
 20
328.56212839909
 30
0.0
 40
1.25
 50
270.0
 51
90.0
  0
ARC
  5
1DB
  8
1
 62
     7
 10
-273.52542903992497
 20
313.14199551752392
 30
0.0
 40
1.0
 50
0.0
 51
85.236358309273314
  0
ARC
  5
1DC
  8
1
 62
     7
 10
-268.52542903992497
 20
300.56212839909
 30
0.0
 40
1.0
 50
0.0
 51
90.0
  0
ARC
  5
1DD
  8
1
 62
     7
 10
-273.52542903992497
 20
343.98226128065591
 30
0.0
 40
1.0000000000000271
 50
274.76364169072662
 51
0.0
  0
ARC
  5
1DE
  8
1
 62
     7
 10
-268.52542903992497
 20
356.56212839908989
 30
0.0
 40
1.0
 50
270.0
 51
0.0
  0
ARC
  5
1DF
  8
1
 62
     7
 10
-259.02542903992497
 20
293.56212839908989
 30
0.0
 40
3.2499999999999072
 50
116.2268653595697
 51
69.583492210073203
  0
ARC
  5
1E0
  8
1
 62
     7
 10
-231.52542903992489
 20
367.56212839908977
 30
0.0
 40
3.0
 50
90.0
 51
180.0
  0
ARC
  5
1E1
  8
1
 62
     7
 10
-231.52542903992489
 20
289.56212839908989
 30
0.0
 40
3.0
 50
180.0
 51
270.0
  0
ARC
  5
1E2
  8
1
 62
     7
 10
-214.025429039925
 20
363.56212839909011
 30
0.0
 40
3.2499999999999072
 50
296.22686535956979
 51
249.58349221007401
  0
ARC
  5
1E3
  8
1
 62
     7
 10
-213.525429039925
 20
303.41464919632563
 30
0.0
 40
7.0000000000001243
 50
253.0422366999932
 51
286.9577633000028
  0
ARC
  5
1E4
  8
1
 62
     7
 10
-213.525429039925
 20
353.70960760185432
 30
0.0
 40
6.9999999999998188
 50
73.042236699996693
 51
106.9577633000071
  0
ARC
  5
1E5
  8
1
 62
     7
 10
-268.52542903992497
 20
210.13307167764191
 30
0.0
 40
1.0
 50
270.0
 51
0.0
  0
ARC
  5
1E6
  8
1
 62
     7
 10
-209.025429039925
 20
327.3621283990899
 30
0.0
 40
1.1999999999999891
 50
180.0
 51
0.0
  0
ARC
  5
1E7
  8
1
 62
     7
 10
-209.025429039925
 20
329.76212839908999
 30
0.0
 40
1.2000000000001021
 50
0.0
 51
180.0
  0
ARC
  5
1E8
  8
1
 62
     7
 10
-209.025429039925
 20
328.56212839909
 30
0.0
 40
3.999999999999901
 50
97.180755781458487
 51
262.8192442185433
  0
ARC
  5
1E9
  8
1
 62
     7
 10
-191.275429039925
 20
328.56212839909
 30
0.0
 40
1.25
 50
90.0
 51
270.0
  0
ARC
  5
1EA
  8
1
 62
     7
 10
-199.525429039925
 20
313.14199551752392
 30
0.0
 40
1.0000000000000311
 50
94.763641690729955
 51
180.0
  0
ARC
  5
1EB
  8
1
 62
     7
 10
-204.52542903992489
 20
300.56212839909
 30
0.0
 40
1.0
 50
90.0
 51
180.0
  0
ARC
  5
1EC
  8
1
 62
     7
 10
-199.525429039925
 20
343.98226128065591
 30
0.0
 40
1.0
 50
180.0
 51
265.23635830926997
  0
ARC
  5
1ED
  8
1
 62
     7
 10
-204.52542903992489
 20
356.56212839908989
 30
0.0
 40
1.0
 50
180.0
 51
270.0
  0
ARC
  5
1EE
  8
1
 62
     7
 10
-199.525429039925
 20
166.712938796076
 30
0.0
 40
1.0000000000000311
 50
94.763641690729955
 51
180.0
  0
ARC
  5
1EF
  8
1
 62
     7
 10
-199.525429039925
 20
197.5532045592079
 30
0.0
 40
1.0
 50
180.0
 51
265.23635830926997
  0
ARC
  5
1F0
  8
1
 62
     7
 10
-204.52542903992489
 20
154.13307167764191
 30
0.0
 40
1.0
 50
90.0
 51
180.0
  0
ARC
  5
1F1
  8
1
 62
     7
 10
-204.52542903992489
 20
210.13307167764191
 30
0.0
 40
1.0
 50
180.0
 51
270.0
  0
ARC
  5
1F2
  8
1
 62
     7
 10
-70.06702349881499
 20
145.13307167764199
 30
0.0
 40
66.0
 50
70.85207374728148
 51
87.394748734942709
  0
ARC
  5
1F3
  8
1
 62
     7
 10
-96.130483600525224
 20
154.13307167764191
 30
0.0
 40
3.0
 50
270.0
 51
23.941087266311389
  0
ARC
  5
1F4
  8
1
 62
     7
 10
-44.003563397104742
 20
154.13307167764191
 30
0.0
 40
2.9999999999999929
 50
156.05891273369269
 51
270.0
  0
ARC
  5
1F5
  8
1
 62
     7
 10
-33.06702349881499
 20
182.13307167764191
 30
0.0
 40
66.0
 50
160.85207374728139
 51
203.94108726630981
  0
ARC
  5
1F6
  8
1
 62
     7
 10
-70.06702349881499
 20
145.13307167764199
 30
0.0
 40
65.999999999999957
 50
92.605251265057262
 51
109.14792625271851
  0
ARC
  5
1F7
  8
1
 62
     7
 10
-107.067023498815
 20
182.13307167764191
 30
0.0
 40
66.000000000000028
 50
336.05891273369002
 51
19.14792625271852
  0
ARC
  5
1F8
  8
1
 62
     7
 10
-33.06702349881499
 20
182.13307167764191
 30
0.0
 40
64.000000000000014
 50
160.85207374728139
 51
199.14792625271849
  0
ARC
  5
1F9
  8
1
 62
     7
 10
-70.06702349881499
 20
145.13307167764199
 30
0.0
 40
64.000000000000014
 50
70.852073747281509
 51
109.14792625271851
  0
ARC
  5
1FA
  8
1
 62
     7
 10
-107.067023498815
 20
182.13307167764191
 30
0.0
 40
63.999999999999993
 50
340.85207374728162
 51
19.147926252718499
  0
ARC
  5
1FB
  8
1
 62
     7
 10
-70.067023498815004
 20
219.13307167764191
 30
0.0
 40
63.999999999999993
 50
250.85207374728151
 51
289.14792625271838
  0
ARC
  5
1FC
  8
1
 62
     7
 10
-70.06702349881499
 20
182.13307167764191
 30
0.0
 40
4.0000000000000471
 50
108.2099568642828
 51
71.790043135717227
  0
ARC
  5
1FD
  8
1
 62
     7
 10
-70.06702349881499
 20
182.13307167764191
 30
0.0
 40
3.5000000000000031
 50
110.92483242763829
 51
69.075167572361721
  0
ARC
  5
1FE
  8
1
 62
     7
 10
-70.06702349881499
 20
182.3330716776419
 30
0.0
 40
5.0000000000000711
 50
309.35669892726082
 51
90.0
  0
ARC
  5
1FF
  8
1
 62
     7
 10
-68.81702349881499
 20
176.9031219292155
 30
0.0
 40
0.5500000000000114
 50
270.0
 51
90.0
  0
ARC
  5
200
  8
1
 62
     7
 10
-71.31702349881499
 20
176.9031219292155
 30
0.0
 40
0.5500000000000114
 50
90.0
 51
270.0
  0
ARC
  5
201
  8
1
 62
     7
 10
-70.06702349881499
 20
182.3330716776419
 30
0.0
 40
5.0000000000000853
 50
90.0
 51
230.64330107273921
  0
ARC
  5
202
  8
1
 62
     7
 10
-33.06702349881499
 20
182.13307167764191
 30
0.0
 40
67.000000000000043
 50
160.85207374728139
 51
189.44955030848851
  0
ARC
  5
203
  8
1
 62
     7
 10
-70.06702349881499
 20
145.13307167764199
 30
0.0
 40
67.0
 50
92.994426074700243
 51
109.14792625271851
  0
ARC
  5
204
  8
1
 62
     7
 10
-107.067023498815
 20
182.13307167764191
 30
0.0
 40
67.000000000000043
 50
350.55044969151152
 51
19.14792625271842
  0
ARC
  5
205
  8
1
 62
     7
 10
-70.06702349881499
 20
145.13307167764199
 30
0.0
 40
67.000000000000014
 50
70.852073747281509
 51
87.005573925299785
  0
ARC
  5
206
  8
1
 62
     7
 10
-44.919544296050603
 20
175.50428379885389
 30
0.0
 40
6.9999999999997673
 50
336.95396065588051
 51
10.86948725588946
  0
ARC
  5
207
  8
1
 62
     7
 10
-95.214502701579406
 20
175.50428379885389
 30
0.0
 40
7.0000000000002567
 50
169.130512744111
 51
203.04603934411941
  0
ARC
  5
208
  8
1
 62
     7
 10
-215.275429039925
 20
173.38307167764191
 30
0.0
 40
1.48750000000001
 50
0.0
 51
90.0
  0
ARC
  5
209
  8
1
 62
     7
 10
-211.775429039925
 20
173.38307167764191
 30
0.0
 40
1.48750000000001
 50
90.0
 51
180.0
  0
ARC
  5
20A
  8
1
 62
     7
 10
-211.775429039925
 20
176.88307167764191
 30
0.0
 40
1.48750000000001
 50
180.0
 51
270.0
  0
ARC
  5
20B
  8
1
 62
     7
 10
-215.275429039925
 20
176.88307167764191
 30
0.0
 40
1.4874999999999821
 50
270.0
 51
0.0
  0
ARC
  5
20C
  8
1
 62
     7
 10
-241.52542903992489
 20
154.13307167764191
 30
0.0
 40
3.0
 50
270.0
 51
0.0
  0
ARC
  5
20D
  8
1
 62
     7
 10
-231.52542903992489
 20
154.13307167764191
 30
0.0
 40
3.0
 50
180.0
 51
270.0
  0
ARC
  5
20E
  8
1
 62
     7
 10
-273.52542903992497
 20
166.712938796076
 30
0.0
 40
1.0
 50
0.0
 51
85.236358309273314
  0
ARC
  5
20F
  8
1
 62
     7
 10
-273.52542903992497
 20
197.5532045592079
 30
0.0
 40
1.0000000000000271
 50
274.76364169072662
 51
0.0
  0
ARC
  5
210
  8
1
 62
     7
 10
-268.52542903992497
 20
154.13307167764191
 30
0.0
 40
1.0
 50
0.0
 51
90.0
  0
ARC
  5
211
  8
1
 62
     7
 10
-214.025429039925
 20
293.56212839908989
 30
0.0
 40
3.249999999999988
 50
110.4165077899269
 51
63.7731346404302
  0
ARC
  5
212
  8
1
 62
     7
 10
-257.77542903992497
 20
173.38307167764191
 30
0.0
 40
1.48750000000001
 50
90.0
 51
180.0
  0
ARC
  5
213
  8
1
 62
     7
 10
-261.27542903992497
 20
173.38307167764191
 30
0.0
 40
1.4874999999999541
 50
0.0
 51
90.0
  0
ARC
  5
214
  8
1
 62
     7
 10
-261.27542903992497
 20
176.88307167764191
 30
0.0
 40
1.4874999999999821
 50
270.0
 51
0.0
  0
ARC
  5
215
  8
1
 62
     7
 10
-257.77542903992497
 20
176.88307167764191
 30
0.0
 40
1.4875000000001239
 50
180.0
 51
270.0
  0
CIRCLE
  5
216
  8
1
 62
     7
 10
-264.02542903992497
 20
328.56212839909
 30
0.0
 40
3.5
  0
CIRCLE
  5
217
  8
1
 62
     7
 10
-264.02542903992497
 20
329.76212839908999
 30
0.0
 40
0.9199999999998453
  0
CIRCLE
  5
218
  8
1
 62
     7
 10
-264.02542903992497
 20
327.3621283990899
 30
0.0
 40
0.9199999999998453
  0
CIRCLE
  5
219
  8
1
 62
     7
 10
-209.025429039925
 20
328.56212839909
 30
0.0
 40
3.5
  0
CIRCLE
  5
21A
  8
1
 62
     7
 10
-209.025429039925
 20
329.76212839908999
 30
0.0
 40
0.9199999999999022
  0
CIRCLE
  5
21B
  8
1
 62
     7
 10
-209.025429039925
 20
327.3621283990899
 30
0.0
 40
0.9199999999999022
  0
CIRCLE
  5
21C
  8
1
 62
     7
 10
-50.268033625591663
 20
201.93206155086531
 30
0.0
 40
2.9803847577293392
  0
CIRCLE
  5
21D
  8
1
 62
     7
 10
-50.268033625591663
 20
201.93206155086531
 30
0.0
 40
3.5
  0
CIRCLE
  5
21E
  8
1
 62
     7
 10
-50.268033625591663
 20
201.93206155086531
 30
0.0
 40
3.7999999999999901
  0
CIRCLE
  5
21F
  8
1
 62
     7
 10
-89.866013372038267
 20
201.93206155086531
 30
0.0
 40
3.7999999999999119
  0
CIRCLE
  5
220
  8
1
 62
     7
 10
-89.866013372038267
 20
201.93206155086531
 30
0.0
 40
3.5
  0
CIRCLE
  5
221
  8
1
 62
     7
 10
-89.866013372038267
 20
201.93206155086531
 30
0.0
 40
2.9803847577293099
  0
CIRCLE
  5
222
  8
1
 62
     7
 10
-89.866013372038267
 20
162.33408180441859
 30
0.0
 40
2.9803847577293099
  0
CIRCLE
  5
223
  8
1
 62
     7
 10
-89.866013372038267
 20
162.33408180441859
 30
0.0
 40
3.5
  0
CIRCLE
  5
224
  8
1
 62
     7
 10
-89.866013372038267
 20
162.33408180441859
 30
0.0
 40
3.7999999999999119
  0
CIRCLE
  5
225
  8
1
 62
     7
 10
-50.268033625591663
 20
162.33408180441859
 30
0.0
 40
3.7999999999999901
  0
CIRCLE
  5
226
  8
1
 62
     7
 10
-50.268033625591663
 20
162.33408180441859
 30
0.0
 40
3.5
  0
CIRCLE
  5
227
  8
1
 62
     7
 10
-50.268033625591663
 20
162.33408180441859
 30
0.0
 40
2.9803847577293392
  0
CIRCLE
  5
228
  8
1
 62
     7
 10
-70.06702349881499
 20
182.13307167764191
 30
0.0
 40
12.0
  0
CIRCLE
  5
229
  8
1
 62
     7
 10
-70.06702349881499
 20
182.13307167764191
 30
0.0
 40
14.0
  0
CIRCLE
  5
22A
  8
1
 62
     7
 10
-70.06702349881499
 20
182.13307167764191
 30
0.0
 40
14.5
  0
CIRCLE
  5
22B
  8
1
 62
     7
 10
-70.06702349881499
 20
199.63307167764191
 30
0.0
 40
1.900000000000005
  0
CIRCLE
  5
22C
  8
1
 62
     7
 10
-87.567023498814976
 20
182.13307167764191
 30
0.0
 40
1.900000000000005
  0
CIRCLE
  5
22D
  8
1
 62
     7
 10
-70.067023498815018
 20
164.63307167764199
 30
0.0
 40
1.900000000000005
  0
CIRCLE
  5
22E
  8
1
 62
     7
 10
-52.567023498814969
 20
182.13307167764191
 30
0.0
 40
1.900000000000005
  0
CIRCLE
  5
22F
  8
1
 62
     7
 10
-213.525429039925
 20
175.13307167764199
 30
0.0
 40
4.0
  0
CIRCLE
  5
230
  8
1
 62
     7
 10
-213.525429039925
 20
175.13307167764199
 30
0.0
 40
2.75
  0
CIRCLE
  5
231
  8
1
 62
     7
 10
-259.52542903992497
 20
175.13307167764199
 30
0.0
 40
3.9999999999999711
  0
CIRCLE
  5
232
  8
1
 62
     7
 10
-259.52542903992497
 20
175.13307167764199
 30
0.0
 40
2.75
  0
TEXT
  5
234
  8
1
 62
     7
 10
-245.23862711309201
 20
253.66007095784391
 30
0.0
 40
3.5
  1
AMU 10C
 41
0.9
  7
SIMPLEX
  0
TEXT
  5
235
  8
1
 62
     3
 10
-81.317023498814976
 20
145.13307167764199
 30
0.0
 40
5.0
  1
INPUT
 41
0.8732690999999999
  7
COMPLEX
  0
ENDSEC
  0
EOF
