  0
SECTION
  2
HEADER
  9
$ACADVER
  1
AC1009
  9
$INSBASE
 10
0.0
 20
0.0
 30
0.0
  9
$EXTMIN
 10
-432.05076496913182
 20
165.70273614891289
 30
0.0
  9
$EXTMAX
 10
-134.89833210717279
 20
419.2381137012033
 30
0.0
  9
$LIMMIN
 10
-432.05076496913182
 20
165.70273614891289
  9
$LIMMAX
 10
-135.3125456695459
 20
418.40968657645709
  9
$ORTHOMODE
 70
     0
  9
$REGENMODE
 70
     1
  9
$FILLMODE
 70
     1
  9
$QTEXTMODE
 70
     0
  9
$MIRRTEXT
 70
     1
  9
$DRAGMODE
 70
     2
  9
$LTSCALE
 40
1.0
  9
$OSMODE
 70
    37
  9
$ATTMODE
 70
     1
  9
$TEXTSIZE
 40
3.5
  9
$TRACEWID
 40
0.5
  9
$TEXTSTYLE
  7
STANDARD
  9
$CLAYER
  8
0
  9
$CELTYPE
  6
BYLAYER
  9
$CECOLOR
 62
   256
  9
$DIMSCALE
 40
1.0
  9
$DIMASZ
 40
0.18
  9
$DIMEXO
 40
0.0625
  9
$DIMDLI
 40
0.38
  9
$DIMRND
 40
0.0
  9
$DIMDLE
 40
0.0
  9
$DIMEXE
 40
0.18
  9
$DIMTP
 40
0.0
  9
$DIMTM
 40
0.0
  9
$DIMTXT
 40
0.18
  9
$DIMCEN
 40
0.09
  9
$DIMTSZ
 40
0.0
  9
$DIMTOL
 70
     0
  9
$DIMLIM
 70
     0
  9
$DIMTIH
 70
     1
  9
$DIMTOH
 70
     1
  9
$DIMSE1
 70
     0
  9
$DIMSE2
 70
     0
  9
$DIMTAD
 70
     0
  9
$DIMZIN
 70
     0
  9
$DIMBLK
  1

  9
$DIMASO
 70
     1
  9
$DIMSHO
 70
     1
  9
$DIMPOST
  1

  9
$DIMAPOST
  1

  9
$DIMALT
 70
     0
  9
$DIMALTD
 70
     2
  9
$DIMALTF
 40
25.399999999999999
  9
$DIMLFAC
 40
1.0
  9
$DIMTOFL
 70
     0
  9
$DIMTVP
 40
0.0
  9
$DIMTIX
 70
     0
  9
$DIMSOXD
 70
     0
  9
$DIMSAH
 70
     0
  9
$DIMBLK1
  1

  9
$DIMBLK2
  1

  9
$DIMSTYLE
  2
STANDARD
  9
$DIMCLRD
 70
     0
  9
$DIMCLRE
 70
     0
  9
$DIMCLRT
 70
     0
  9
$DIMTFAC
 40
1.0
  9
$DIMGAP
 40
0.09
  9
$LUNITS
 70
     2
  9
$LUPREC
 70
     4
  9
$SKETCHINC
 40
0.1
  9
$FILLETRAD
 40
2.0
  9
$AUNITS
 70
     0
  9
$AUPREC
 70
     0
  9
$MENU
  1
ACAD
  9
$ELEVATION
 40
0.0
  9
$PELEVATION
 40
0.0
  9
$THICKNESS
 40
0.0
  9
$LIMCHECK
 70
     0
  9
$BLIPMODE
 70
     0
  9
$CHAMFERA
 40
0.0
  9
$CHAMFERB
 40
0.0
  9
$SKPOLY
 70
     0
  9
$TDCREATE
 40
2452093.9102901621
  9
$TDUPDATE
 40
2452093.9109888878
  9
$TDINDWG
 40
0.0007018519
  9
$TDUSRTIMER
 40
0.0007018519
  9
$USRTIMER
 70
     1
  9
$ANGBASE
 50
0.0
  9
$ANGDIR
 70
     0
  9
$PDMODE
 70
     0
  9
$PDSIZE
 40
0.0
  9
$PLINEWID
 40
0.0
  9
$COORDS
 70
     1
  9
$SPLFRAME
 70
     0
  9
$SPLINETYPE
 70
     6
  9
$SPLINESEGS
 70
     8
  9
$ATTDIA
 70
     0
  9
$ATTREQ
 70
     1
  9
$HANDLING
 70
 10241
  9
$HANDSEED
  5
238
  9
$SURFTAB1
 70
     6
  9
$SURFTAB2
 70
     6
  9
$SURFTYPE
 70
     6
  9
$SURFU
 70
     6
  9
$SURFV
 70
     6
  9
$UCSNAME
  2

  9
$UCSORG
 10
0.0
 20
0.0
 30
0.0
  9
$UCSXDIR
 10
1.0
 20
0.0
 30
0.0
  9
$UCSYDIR
 10
0.0
 20
1.0
 30
0.0
  9
$PUCSNAME
  2

  9
$PUCSORG
 10
0.0
 20
0.0
 30
0.0
  9
$PUCSXDIR
 10
1.0
 20
0.0
 30
0.0
  9
$PUCSYDIR
 10
0.0
 20
1.0
 30
0.0
  9
$USERI1
 70
     0
  9
$USERI2
 70
     0
  9
$USERI3
 70
     0
  9
$USERI4
 70
     0
  9
$USERI5
 70
     0
  9
$USERR1
 40
0.0
  9
$USERR2
 40
0.0
  9
$USERR3
 40
0.0
  9
$USERR4
 40
0.0
  9
$USERR5
 40
0.0
  9
$WORLDVIEW
 70
     1
  9
$SHADEDGE
 70
     3
  9
$SHADEDIF
 70
    70
  9
$TILEMODE
 70
     1
  9
$MAXACTVP
 70
    64
  9
$PLIMCHECK
 70
     0
  9
$PEXTMIN
 10
1.0000000000000000E+020
 20
1.0000000000000000E+020
 30
1.0000000000000000E+020
  9
$PEXTMAX
 10
-1.0000000000000000E+020
 20
-1.0000000000000000E+020
 30
-1.0000000000000000E+020
  9
$PLIMMIN
 10
0.0
 20
0.0
  9
$PLIMMAX
 10
12.0
 20
9.0
  9
$UNITMODE
 70
     0
  9
$VISRETAIN
 70
     1
  9
$PLINEGEN
 70
     0
  9
$PSLTSCALE
 70
     1
  0
ENDSEC
  0
SECTION
  2
TABLES
  0
TABLE
  2
VPORT
 70
     2
  0
VPORT
  2
*ACTIVE
 70
     0
 10
0.0
 20
0.0
 11
1.0
 21
1.0
 12
-356.33452521176758
 22
286.6048979320891
 13
0.0
 23
0.0
 14
1.0
 24
1.0
 15
0.0
 25
0.0
 16
0.0
 26
0.0
 36
1.0
 17
0.0
 27
0.0
 37
0.0
 40
8.9999995233078778
 41
2.5693779904306222
 42
50.0
 43
0.0
 44
0.0
 50
0.0
 51
0.0
 71
     0
 72
   100
 73
     1
 74
     1
 75
     0
 76
     0
 77
     0
 78
     0
  0
ENDTAB
  0
TABLE
  2
LTYPE
 70
     9
  0
LTYPE
  2
CONTINUOUS
 70
     0
  3
Solid line
 72
    65
 73
     0
 40
0.0
  0
LTYPE
  2
BORDER
 70
     0
  3
__ __ . __ __ .
 72
    65
 73
     6
 40
13.66557588879672
 49
3.9044502539419188
 49
-1.952225126970959
 49
3.9044502539419188
 49
-1.952225126970959
 49
0.0
 49
-1.952225126970959
  0
LTYPE
  2
CENTER
 70
     0
  3
____ _ ____ _
 72
    65
 73
     4
 40
15.617801015767681
 49
9.7611256348547961
 49
-1.952225126970959
 49
1.952225126970959
 49
-1.952225126970959
  0
LTYPE
  2
DASHDOT
 70
     0
  3
__ . __ . __ .
 72
    65
 73
     4
 40
7.8089005078838376
 49
3.9044502539419188
 49
-1.952225126970959
 49
0.0
 49
-1.952225126970959
  0
LTYPE
  2
DASHED
 70
     0
  3
__ __ __ __ __
 72
    65
 73
     2
 40
5.8566753809128782
 49
3.9044502539419188
 49
-1.952225126970959
  0
LTYPE
  2
DIVIDE
 70
     0
  3
__ . . __ . . 
 72
    65
 73
     6
 40
9.7611256348547961
 49
3.9044502539419188
 49
-1.952225126970959
 49
0.0
 49
-1.952225126970959
 49
0.0
 49
-1.952225126970959
  0
LTYPE
  2
DOT
 70
     0
  3
..............
 72
    65
 73
     4
 40
3.9044502539419188
 49
0.0
 49
-1.952225126970959
 49
0.0
 49
-1.952225126970959
  0
LTYPE
  2
HIDDEN
 70
     0
  3
_ _ _ _ _ _ _
 72
    65
 73
     2
 40
2.9283376904564391
 49
1.952225126970959
 49
-0.9761125634854797
  0
LTYPE
  2
PHANTOM
 70
     0
  3
_____ _ _ _____ _ _ 
 72
    65
 73
     6
 40
19.522251269709599
 49
9.7611256348547961
 49
-1.952225126970959
 49
1.952225126970959
 49
-1.952225126970959
 49
1.952225126970959
 49
-1.952225126970959
  0
ENDTAB
  0
TABLE
  2
LAYER
 70
     2
  0
LAYER
  2
0
 70
     0
 62
     7
  6
CONTINUOUS
  0
LAYER
  2
1
 70
     0
 62
     7
  6
CONTINUOUS
  0
ENDTAB
  0
TABLE
  2
STYLE
 70
     4
  0
STYLE
  2
STANDARD
 70
     0
 40
0.0
 41
1.0
 50
0.0
 71
     0
 42
3.5
  3
txt
  4

  0
STYLE
  2
SIMPLEX
 70
     0
 40
0.0
 41
1.0
 50
0.0
 71
     0
 42
3.5
  3
simplex
  4

  0
STYLE
  2
COMPLEX
 70
     0
 40
0.0
 41
1.0
 50
0.0
 71
     0
 42
3.5
  3
complex
  4

  0
STYLE
  2
ITALIC
 70
     0
 40
0.0
 41
1.0
 50
0.0
 71
     0
 42
3.5
  3
italic
  4

  0
ENDTAB
  0
TABLE
  2
VIEW
 70
     0
  0
ENDTAB
  0
TABLE
  2
UCS
 70
     0
  0
ENDTAB
  0
TABLE
  2
APPID
 70
     1
  0
APPID
  2
ACAD
 70
     0
  0
ENDTAB
  0
TABLE
  2
DIMSTYLE
 70
     1
  0
DIMSTYLE
  2
STANDARD
 70
     0
  3

  4

  5

  6

  7

 40
1.0
 41
0.18
 42
0.0625
 43
0.38
 44
0.18
 45
0.0
 46
0.0
 47
0.0
 48
0.0
140
0.18
141
0.09
142
0.0
143
25.399999999999999
144
1.0
145
0.0
146
1.0
147
0.09
 71
     0
 72
     0
 73
     1
 74
     1
 75
     0
 76
     0
 77
     0
 78
     0
170
     0
171
     2
172
     0
173
     0
174
     0
175
     0
176
     0
177
     0
178
     0
  0
ENDTAB
  0
ENDSEC
  0
SECTION
  2
BLOCKS
  0
BLOCK
  8
0
  2
$MODEL_SPACE
 70
     0
 10
0.0
 20
0.0
 30
0.0
  3
$MODEL_SPACE
  1

  0
ENDBLK
  5
20
  8
0
  0
BLOCK
 67
     1
  8
0
  2
$PAPER_SPACE
 70
     0
 10
0.0
 20
0.0
 30
0.0
  3
$PAPER_SPACE
  1

  0
ENDBLK
  5
1C
 67
     1
  8
0
  0
ENDSEC
  0
SECTION
  2
ENTITIES
  0
LINE
  5
33
  8
1
 62
     7
 10
-391.05076496913188
 20
370.40968657645692
 30
0.0
 11
-391.05076496913188
 21
376.40968657645692
 31
0.0
  0
LINE
  5
34
  8
1
 62
     7
 10
-320.05076496913188
 20
376.40968657645692
 30
0.0
 11
-320.05076496913188
 21
370.40968657645692
 31
0.0
  0
LINE
  5
35
  8
1
 62
     7
 10
-323.85076496913177
 20
374.60968657645691
 30
0.0
 11
-323.85076496913177
 21
372.20968657645682
 31
0.0
  0
LINE
  5
36
  8
1
 62
     7
 10
-326.25076496913192
 20
372.20968657645682
 30
0.0
 11
-326.25076496913192
 21
374.60968657645691
 31
0.0
  0
LINE
  5
37
  8
1
 62
     7
 10
-323.24798933139999
 20
370.40968657645692
 30
0.0
 11
-318.55076496913199
 21
370.40968657645692
 31
0.0
  0
LINE
  5
38
  8
1
 62
     7
 10
-321.05076496913199
 20
370.40968657645692
 30
0.0
 11
-321.05076496913199
 21
343.40968657645709
 31
0.0
  0
LINE
  5
39
  8
1
 62
     7
 10
-318.55076496913199
 20
376.40968657645692
 30
0.0
 11
-323.24798933139999
 21
376.40968657645692
 31
0.0
  0
LINE
  5
3A
  8
1
 62
     7
 10
-316.05076496913188
 20
350.26979756529641
 30
0.0
 11
-315.05076496913199
 21
350.84714783448618
 31
0.0
  0
LINE
  5
3B
  8
1
 62
     7
 10
-316.05076496913188
 20
351.42449810367572
 30
0.0
 11
-315.05076496913199
 21
352.00184837286531
 31
0.0
  0
LINE
  5
3C
  8
1
 62
     7
 10
-311.350764969132
 20
354.63582296908078
 30
0.0
 11
-311.350764969132
 21
347.63582296908078
 31
0.0
  0
LINE
  5
3D
  8
1
 62
     7
 10
-315.05076496913199
 20
354.63582296908078
 30
0.0
 11
-311.350764969132
 21
354.63582296908078
 31
0.0
  0
LINE
  5
3E
  8
1
 62
     7
 10
-311.350764969132
 20
354.63582296908078
 30
0.0
 11
-311.05076496913188
 21
354.1162077268101
 31
0.0
  0
LINE
  5
3F
  8
1
 62
     7
 10
-311.05076496913188
 20
354.1162077268101
 30
0.0
 11
-311.05076496913188
 21
348.1554382113514
 31
0.0
  0
LINE
  5
40
  8
1
 62
     7
 10
-311.05076496913188
 20
348.1554382113514
 30
0.0
 11
-311.350764969132
 21
347.63582296908078
 31
0.0
  0
LINE
  5
41
  8
1
 62
     7
 10
-311.350764969132
 20
347.63582296908078
 30
0.0
 11
-315.05076496913199
 21
347.63582296908078
 31
0.0
  0
LINE
  5
42
  8
1
 62
     7
 10
-316.05076496913188
 20
354.93582296908062
 30
0.0
 11
-315.05076496913199
 21
354.93582296908062
 31
0.0
  0
LINE
  5
43
  8
1
 62
     7
 10
-315.05076496913199
 20
354.93582296908062
 30
0.0
 11
-315.05076496913199
 21
347.33582296908082
 31
0.0
  0
LINE
  5
44
  8
1
 62
     7
 10
-315.05076496913199
 20
347.33582296908082
 30
0.0
 11
-316.05076496913188
 21
347.33582296908082
 31
0.0
  0
LINE
  5
45
  8
1
 62
     7
 10
-310.44389439414999
 20
356.31017733181289
 30
0.0
 11
-314.65763554411382
 21
356.00919582110112
 31
0.0
  0
LINE
  5
46
  8
1
 62
     7
 10
-317.55076496913188
 20
343.40968657645709
 30
0.0
 11
-319.58666335399431
 21
343.40968657645709
 31
0.0
  0
LINE
  5
47
  8
1
 62
     7
 10
-323.05076496913199
 20
341.40968657645709
 30
0.0
 11
-325.05076496913199
 21
341.40968657645709
 31
0.0
  0
LINE
  5
48
  8
1
 62
     7
 10
-286.55076496913188
 20
375.40968657645692
 30
0.0
 11
-286.55076496913188
 21
378.40968657645692
 31
0.0
  0
LINE
  5
49
  8
1
 62
     7
 10
-304.05076496913199
 20
371.40968657645692
 30
0.0
 11
-286.05076496913188
 21
371.40968657645692
 31
0.0
  0
LINE
  5
4A
  8
1
 62
     7
 10
-286.05076496913188
 20
375.40968657645692
 30
0.0
 11
-304.05076496913199
 21
375.40968657645692
 31
0.0
  0
LINE
  5
4B
  8
1
 62
     7
 10
-309.05076496913188
 20
389.01300777135492
 30
0.0
 11
-309.05076496913188
 21
357.80636538155909
 31
0.0
  0
LINE
  5
4C
  8
1
 62
     7
 10
-316.05076496913188
 20
401.90968657645692
 30
0.0
 11
-316.05076496913188
 21
344.90968657645709
 31
0.0
  0
LINE
  5
4D
  8
1
 62
     7
 10
-318.55076496913199
 20
403.40968657645698
 30
0.0
 11
-318.55076496913199
 21
343.40968657645709
 31
0.0
  0
LINE
  5
4E
  8
1
 62
     7
 10
-316.05076496913188
 20
394.81752478004893
 30
0.0
 11
-315.05076496913199
 21
395.39487504923852
 31
0.0
  0
LINE
  5
4F
  8
1
 62
     7
 10
-316.05076496913188
 20
395.97222531842812
 30
0.0
 11
-315.05076496913199
 21
396.5495755876176
 31
0.0
  0
LINE
  5
50
  8
1
 62
     7
 10
-311.350764969132
 20
399.18355018383329
 30
0.0
 11
-311.350764969132
 21
392.18355018383318
 31
0.0
  0
LINE
  5
51
  8
1
 62
     7
 10
-311.350764969132
 20
392.18355018383318
 30
0.0
 11
-315.05076496913199
 21
392.18355018383318
 31
0.0
  0
LINE
  5
52
  8
1
 62
     7
 10
-311.05076496913188
 20
392.70316542610391
 30
0.0
 11
-311.350764969132
 21
392.18355018383318
 31
0.0
  0
LINE
  5
53
  8
1
 62
     7
 10
-311.05076496913188
 20
398.66393494156267
 30
0.0
 11
-311.05076496913188
 21
392.70316542610391
 31
0.0
  0
LINE
  5
54
  8
1
 62
     7
 10
-311.350764969132
 20
399.18355018383329
 30
0.0
 11
-311.05076496913188
 21
398.66393494156267
 31
0.0
  0
LINE
  5
55
  8
1
 62
     7
 10
-315.05076496913199
 20
399.18355018383329
 30
0.0
 11
-311.350764969132
 21
399.18355018383329
 31
0.0
  0
LINE
  5
56
  8
1
 62
     7
 10
-315.05076496913199
 20
391.88355018383339
 30
0.0
 11
-316.05076496913188
 21
391.88355018383339
 31
0.0
  0
LINE
  5
57
  8
1
 62
     7
 10
-315.05076496913199
 20
399.48355018383307
 30
0.0
 11
-315.05076496913199
 21
391.88355018383339
 31
0.0
  0
LINE
  5
58
  8
1
 62
     7
 10
-316.05076496913188
 20
399.48355018383307
 30
0.0
 11
-315.05076496913199
 21
399.48355018383307
 31
0.0
  0
LINE
  5
59
  8
1
 62
     7
 10
-286.55076496913188
 20
368.40968657645692
 30
0.0
 11
-286.55076496913188
 21
371.40968657645692
 31
0.0
  0
LINE
  5
5A
  8
1
 62
     7
 10
-286.55076496913188
 20
368.40968657645692
 30
0.0
 11
-286.05076496913188
 21
368.90968657645692
 31
0.0
  0
LINE
  5
5B
  8
1
 62
     7
 10
-286.05076496913188
 20
377.90968657645692
 30
0.0
 11
-286.55076496913188
 21
378.40968657645692
 31
0.0
  0
LINE
  5
5C
  8
1
 62
     7
 10
-286.55076496913188
 20
368.40968657645692
 30
0.0
 11
-309.05076496913188
 21
368.40968657645692
 31
0.0
  0
LINE
  5
5D
  8
1
 62
     7
 10
-286.05076496913188
 20
368.90968657645692
 30
0.0
 11
-286.05076496913188
 21
377.90968657645692
 31
0.0
  0
LINE
  5
5E
  8
1
 62
     7
 10
-309.05076496913188
 20
378.40968657645692
 30
0.0
 11
-286.55076496913188
 21
378.40968657645692
 31
0.0
  0
LINE
  5
5F
  8
1
 62
     7
 10
-314.65763554411382
 20
390.81017733181278
 30
0.0
 11
-310.44389439414999
 21
390.50919582110112
 31
0.0
  0
LINE
  5
60
  8
1
 62
     7
 10
-321.05076496913199
 20
403.40968657645698
 30
0.0
 11
-321.05076496913199
 21
376.40968657645692
 31
0.0
  0
LINE
  5
61
  8
1
 62
     7
 10
-319.58666335399431
 20
403.40968657645698
 30
0.0
 11
-317.55076496913188
 21
403.40968657645698
 31
0.0
  0
LINE
  5
62
  8
1
 62
     7
 10
-325.05076496913199
 20
405.40968657645692
 30
0.0
 11
-323.05076496913199
 21
405.40968657645692
 31
0.0
  0
LINE
  5
63
  8
1
 62
     7
 10
-182.1525456695459
 20
260.67495157625041
 30
0.0
 11
-182.1525456695459
 21
246.278216003464
 31
0.0
  0
LINE
  5
64
  8
1
 62
     7
 10
-180.31254566954601
 20
260.67495157625041
 30
0.0
 11
-180.31254566954601
 21
246.278216003464
 31
0.0
  0
LINE
  5
65
  8
1
 62
     7
 10
-178.47254566954601
 20
260.67495157625041
 30
0.0
 11
-178.47254566954601
 21
246.278216003464
 31
0.0
  0
LINE
  5
66
  8
1
 62
     7
 10
-183.81254566954601
 20
245.278216003464
 30
0.0
 11
-183.81254566954601
 21
246.278216003464
 31
0.0
  0
LINE
  5
67
  8
1
 62
     7
 10
-176.81254566954601
 20
245.278216003464
 30
0.0
 11
-176.81254566954601
 21
246.278216003464
 31
0.0
  0
LINE
  5
68
  8
1
 62
     7
 10
-183.81254566954601
 20
246.278216003464
 30
0.0
 11
-176.81254566954601
 21
246.278216003464
 31
0.0
  0
LINE
  5
69
  8
1
 62
     7
 10
-183.81254566954601
 20
245.278216003464
 30
0.0
 11
-176.81254566954601
 21
245.278216003464
 31
0.0
  0
LINE
  5
6A
  8
1
 62
     7
 10
-177.31254566954601
 20
245.278216003464
 30
0.0
 11
-177.31254566954601
 21
243.2313295537808
 31
0.0
  0
LINE
  5
6B
  8
1
 62
     7
 10
-395.05076496913188
 20
191.8703777998721
 30
0.0
 11
-396.05076496913182
 21
191.29302753068239
 31
0.0
  0
LINE
  5
6C
  8
1
 62
     7
 10
-395.05076496913188
 20
190.71567726149291
 30
0.0
 11
-396.05076496913182
 21
190.13832699230329
 31
0.0
  0
LINE
  5
6D
  8
1
 62
     7
 10
-399.75076496913181
 20
187.5043523960876
 30
0.0
 11
-399.75076496913181
 21
194.5043523960876
 31
0.0
  0
LINE
  5
6E
  8
1
 62
     7
 10
-399.75076496913181
 20
194.5043523960876
 30
0.0
 11
-396.05076496913182
 21
194.5043523960876
 31
0.0
  0
LINE
  5
6F
  8
1
 62
     7
 10
-400.05076496913188
 20
193.98473715381689
 30
0.0
 11
-399.75076496913181
 21
194.5043523960876
 31
0.0
  0
LINE
  5
70
  8
1
 62
     7
 10
-400.05076496913188
 20
188.02396763835841
 30
0.0
 11
-400.05076496913188
 21
193.98473715381689
 31
0.0
  0
LINE
  5
71
  8
1
 62
     7
 10
-399.75076496913181
 20
187.5043523960876
 30
0.0
 11
-400.05076496913188
 21
188.02396763835841
 31
0.0
  0
LINE
  5
72
  8
1
 62
     7
 10
-396.05076496913182
 20
187.5043523960876
 30
0.0
 11
-399.75076496913181
 21
187.5043523960876
 31
0.0
  0
LINE
  5
73
  8
1
 62
     7
 10
-396.05076496913182
 20
194.80435239608761
 30
0.0
 11
-395.05076496913188
 21
194.80435239608761
 31
0.0
  0
LINE
  5
74
  8
1
 62
     7
 10
-396.05076496913182
 20
187.2043523960877
 30
0.0
 11
-396.05076496913182
 21
194.80435239608761
 31
0.0
  0
LINE
  5
75
  8
1
 62
     7
 10
-395.05076496913188
 20
187.2043523960877
 30
0.0
 11
-396.05076496913182
 21
187.2043523960877
 31
0.0
  0
LINE
  5
76
  8
1
 62
     7
 10
-396.05076496913182
 20
239.35207961084009
 30
0.0
 11
-395.05076496913188
 21
239.35207961084009
 31
0.0
  0
LINE
  5
77
  8
1
 62
     7
 10
-396.05076496913182
 20
231.75207961084041
 30
0.0
 11
-396.05076496913182
 21
239.35207961084009
 31
0.0
  0
LINE
  5
78
  8
1
 62
     7
 10
-395.05076496913188
 20
231.75207961084041
 30
0.0
 11
-396.05076496913182
 21
231.75207961084041
 31
0.0
  0
LINE
  5
79
  8
1
 62
     7
 10
-399.75076496913181
 20
239.05207961084031
 30
0.0
 11
-396.05076496913182
 21
239.05207961084031
 31
0.0
  0
LINE
  5
7A
  8
1
 62
     7
 10
-400.05076496913188
 20
238.53246436856961
 30
0.0
 11
-399.75076496913181
 21
239.05207961084031
 31
0.0
  0
LINE
  5
7B
  8
1
 62
     7
 10
-400.05076496913188
 20
232.5716948531109
 30
0.0
 11
-400.05076496913188
 21
238.53246436856961
 31
0.0
  0
LINE
  5
7C
  8
1
 62
     7
 10
-399.75076496913181
 20
232.05207961084031
 30
0.0
 11
-400.05076496913188
 21
232.5716948531109
 31
0.0
  0
LINE
  5
7D
  8
1
 62
     7
 10
-396.05076496913182
 20
232.05207961084031
 30
0.0
 11
-399.75076496913181
 21
232.05207961084031
 31
0.0
  0
LINE
  5
7E
  8
1
 62
     7
 10
-399.75076496913181
 20
232.05207961084031
 30
0.0
 11
-399.75076496913181
 21
239.05207961084031
 31
0.0
  0
LINE
  5
7F
  8
1
 62
     7
 10
-395.05076496913188
 20
235.26340447624551
 30
0.0
 11
-396.05076496913182
 21
234.68605420705589
 31
0.0
  0
LINE
  5
80
  8
1
 62
     7
 10
-395.05076496913188
 20
236.41810501462459
 30
0.0
 11
-396.05076496913182
 21
235.84075474543511
 31
0.0
  0
LINE
  5
81
  8
1
 62
     7
 10
-315.05076496913199
 20
187.2043523960877
 30
0.0
 11
-316.05076496913188
 21
187.2043523960877
 31
0.0
  0
LINE
  5
82
  8
1
 62
     7
 10
-315.05076496913199
 20
194.80435239608761
 30
0.0
 11
-315.05076496913199
 21
187.2043523960877
 31
0.0
  0
LINE
  5
83
  8
1
 62
     7
 10
-316.05076496913188
 20
194.80435239608761
 30
0.0
 11
-315.05076496913199
 21
194.80435239608761
 31
0.0
  0
LINE
  5
84
  8
1
 62
     7
 10
-311.350764969132
 20
187.5043523960876
 30
0.0
 11
-315.05076496913199
 21
187.5043523960876
 31
0.0
  0
LINE
  5
85
  8
1
 62
     7
 10
-311.05076496913188
 20
188.02396763835841
 30
0.0
 11
-311.350764969132
 21
187.5043523960876
 31
0.0
  0
LINE
  5
86
  8
1
 62
     7
 10
-311.05076496913188
 20
193.98473715381689
 30
0.0
 11
-311.05076496913188
 21
188.02396763835841
 31
0.0
  0
LINE
  5
87
  8
1
 62
     7
 10
-311.350764969132
 20
194.5043523960876
 30
0.0
 11
-311.05076496913188
 21
193.98473715381689
 31
0.0
  0
LINE
  5
88
  8
1
 62
     7
 10
-315.05076496913199
 20
194.5043523960876
 30
0.0
 11
-311.350764969132
 21
194.5043523960876
 31
0.0
  0
LINE
  5
89
  8
1
 62
     7
 10
-311.350764969132
 20
194.5043523960876
 30
0.0
 11
-311.350764969132
 21
187.5043523960876
 31
0.0
  0
LINE
  5
8A
  8
1
 62
     7
 10
-316.05076496913188
 20
191.29302753068239
 30
0.0
 11
-315.05076496913199
 21
191.87037779987199
 31
0.0
  0
LINE
  5
8B
  8
1
 62
     7
 10
-316.05076496913188
 20
190.13832699230321
 30
0.0
 11
-315.05076496913199
 21
190.7156772614928
 31
0.0
  0
LINE
  5
8C
  8
1
 62
     7
 10
-316.05076496913188
 20
234.68605420705589
 30
0.0
 11
-315.05076496913199
 21
235.26340447624551
 31
0.0
  0
LINE
  5
8D
  8
1
 62
     7
 10
-316.05076496913188
 20
235.84075474543511
 30
0.0
 11
-315.05076496913199
 21
236.41810501462459
 31
0.0
  0
LINE
  5
8E
  8
1
 62
     7
 10
-311.350764969132
 20
239.05207961084031
 30
0.0
 11
-311.350764969132
 21
232.05207961084031
 31
0.0
  0
LINE
  5
8F
  8
1
 62
     7
 10
-311.350764969132
 20
232.05207961084031
 30
0.0
 11
-315.05076496913199
 21
232.05207961084031
 31
0.0
  0
LINE
  5
90
  8
1
 62
     7
 10
-311.05076496913188
 20
232.5716948531109
 30
0.0
 11
-311.350764969132
 21
232.05207961084031
 31
0.0
  0
LINE
  5
91
  8
1
 62
     7
 10
-311.05076496913188
 20
238.53246436856961
 30
0.0
 11
-311.05076496913188
 21
232.5716948531109
 31
0.0
  0
LINE
  5
92
  8
1
 62
     7
 10
-311.350764969132
 20
239.05207961084031
 30
0.0
 11
-311.05076496913188
 21
238.53246436856961
 31
0.0
  0
LINE
  5
93
  8
1
 62
     7
 10
-315.05076496913199
 20
239.05207961084031
 30
0.0
 11
-311.350764969132
 21
239.05207961084031
 31
0.0
  0
LINE
  5
94
  8
1
 62
     7
 10
-315.05076496913199
 20
231.75207961084041
 30
0.0
 11
-316.05076496913188
 21
231.75207961084041
 31
0.0
  0
LINE
  5
95
  8
1
 62
     7
 10
-315.05076496913199
 20
239.35207961084009
 30
0.0
 11
-315.05076496913199
 21
231.75207961084041
 31
0.0
  0
LINE
  5
96
  8
1
 62
     7
 10
-316.05076496913188
 20
239.35207961084009
 30
0.0
 11
-315.05076496913199
 21
239.35207961084009
 31
0.0
  0
LINE
  5
97
  8
1
 62
     7
 10
-425.05076496913199
 20
219.778216003464
 30
0.0
 11
-405.05076496913188
 21
219.778216003464
 31
0.0
  0
LINE
  5
98
  8
1
 62
     7
 10
-405.05076496913188
 20
219.778216003464
 30
0.0
 11
-405.05076496913188
 21
218.278216003464
 31
0.0
  0
LINE
  5
99
  8
1
 62
     7
 10
-424.55076496913199
 20
218.278216003464
 30
0.0
 11
-424.55076496913199
 21
208.278216003464
 31
0.0
  0
LINE
  5
9A
  8
1
 62
     7
 10
-425.05076496913199
 20
208.778216003464
 30
0.0
 11
-424.55076496913199
 21
208.278216003464
 31
0.0
  0
LINE
  5
9B
  8
1
 62
     7
 10
-424.55076496913199
 20
218.278216003464
 30
0.0
 11
-425.05076496913199
 21
217.778216003464
 31
0.0
  0
LINE
  5
9C
  8
1
 62
     7
 10
-402.05076496913188
 20
208.278216003464
 30
0.0
 11
-424.55076496913199
 21
208.278216003464
 31
0.0
  0
LINE
  5
9D
  8
1
 62
     7
 10
-425.05076496913199
 20
219.778216003464
 30
0.0
 11
-425.05076496913199
 21
208.778216003464
 31
0.0
  0
LINE
  5
9E
  8
1
 62
     7
 10
-424.55076496913199
 20
218.278216003464
 30
0.0
 11
-402.05076496913188
 21
218.278216003464
 31
0.0
  0
LINE
  5
9F
  8
1
 62
     7
 10
-402.05076496913188
 20
228.88153719836191
 30
0.0
 11
-402.05076496913188
 21
197.6748948085658
 31
0.0
  0
LINE
  5
A0
  8
1
 62
     7
 10
-396.44389439415011
 20
195.87772524810811
 30
0.0
 11
-400.65763554411382
 21
196.1787067588198
 31
0.0
  0
LINE
  5
A1
  8
1
 62
     7
 10
-400.65763554411382
 20
230.37772524810811
 30
0.0
 11
-396.44389439415011
 21
230.67870675881991
 31
0.0
  0
LINE
  5
A2
  8
1
 62
     7
 10
-395.05076496913188
 20
241.778216003464
 30
0.0
 11
-395.05076496913188
 21
184.778216003464
 31
0.0
  0
LINE
  5
A3
  8
1
  6
DASHDOT
 62
     3
 10
-380.55076496913188
 20
165.70273614891289
 30
0.0
 11
-380.55076496913188
 21
181.03873770815889
 31
0.0
  0
LINE
  5
A4
  8
1
 62
     7
 10
-392.55076496913188
 20
243.278216003464
 30
0.0
 11
-392.55076496913188
 21
183.278216003464
 31
0.0
  0
LINE
  5
A5
  8
1
 62
     7
 10
-390.05076496913199
 20
168.278216003464
 30
0.0
 11
-390.05076496913199
 21
243.278216003464
 31
0.0
  0
LINE
  5
A6
  8
1
 62
     7
 10
-393.55076496913199
 20
243.278216003464
 30
0.0
 11
-391.51486658426973
 21
243.278216003464
 31
0.0
  0
LINE
  5
A7
  8
1
 62
     7
 10
-393.55076496913199
 20
183.278216003464
 30
0.0
 11
-392.05076496913199
 21
183.278216003464
 31
0.0
  0
LINE
  5
A8
  8
1
 62
     7
 10
-391.05076496913188
 20
178.278216003464
 30
0.0
 11
-390.05076496913199
 21
178.278216003464
 31
0.0
  0
LINE
  5
A9
  8
1
 62
     7
 10
-391.05076496913188
 20
172.278216003464
 30
0.0
 11
-391.05076496913188
 21
178.278216003464
 31
0.0
  0
LINE
  5
AA
  8
1
 62
     7
 10
-390.05076496913199
 20
172.278216003464
 30
0.0
 11
-391.05076496913188
 21
172.278216003464
 31
0.0
  0
LINE
  5
AB
  8
1
 62
     7
 10
-386.05076496913188
 20
201.16911708197009
 30
0.0
 11
-386.05076496913188
 21
246.278216003464
 31
0.0
  0
LINE
  5
AC
  8
1
 62
     7
 10
-384.05076496913188
 20
201.16911708197009
 30
0.0
 11
-386.05076496913188
 21
201.16911708197009
 31
0.0
  0
LINE
  5
AD
  8
1
 62
     7
 10
-380.3007649691321
 20
205.01571600346401
 30
0.0
 11
-380.3007649691321
 21
205.5407160034639
 31
0.0
  0
LINE
  5
AE
  8
1
 62
     7
 10
-382.31326496913209
 20
203.528216003464
 30
0.0
 11
-381.78826496913211
 21
203.528216003464
 31
0.0
  0
LINE
  5
AF
  8
1
 62
     7
 10
-383.8007649691321
 20
205.5407160034639
 30
0.0
 11
-383.8007649691321
 21
205.01571600346401
 31
0.0
  0
LINE
  5
B0
  8
1
 62
     7
 10
-381.78826496913211
 20
207.028216003464
 30
0.0
 11
-382.31326496913209
 21
207.028216003464
 31
0.0
  0
LINE
  5
B1
  8
1
 62
     7
 10
-380.05076496913188
 20
201.16911708197009
 30
0.0
 11
-380.05076496913188
 21
201.81411438832609
 31
0.0
  0
LINE
  5
B2
  8
1
 62
     7
 10
-384.05076496913188
 20
201.16911708197009
 30
0.0
 11
-384.05076496913188
 21
201.81411438832609
 31
0.0
  0
LINE
  5
B3
  8
1
 62
     7
 10
-306.05076496913199
 20
219.778216003464
 30
0.0
 11
-286.05076496913188
 21
219.778216003464
 31
0.0
  0
LINE
  5
B4
  8
1
 62
     7
 10
-306.05076496913199
 20
218.278216003464
 30
0.0
 11
-306.05076496913199
 21
219.778216003464
 31
0.0
  0
LINE
  5
B5
  8
1
 62
     7
 10
-286.55076496913188
 20
208.278216003464
 30
0.0
 11
-286.55076496913188
 21
218.278216003464
 31
0.0
  0
LINE
  5
B6
  8
1
 62
     7
 10
-286.55076496913188
 20
208.278216003464
 30
0.0
 11
-286.05076496913188
 21
208.778216003464
 31
0.0
  0
LINE
  5
B7
  8
1
 62
     7
 10
-286.05076496913188
 20
217.778216003464
 30
0.0
 11
-286.55076496913188
 21
218.278216003464
 31
0.0
  0
LINE
  5
B8
  8
1
 62
     7
 10
-286.55076496913188
 20
208.278216003464
 30
0.0
 11
-309.05076496913188
 21
208.278216003464
 31
0.0
  0
LINE
  5
B9
  8
1
 62
     7
 10
-286.05076496913188
 20
208.778216003464
 30
0.0
 11
-286.05076496913188
 21
219.778216003464
 31
0.0
  0
LINE
  5
BA
  8
1
 62
     7
 10
-309.05076496913188
 20
218.278216003464
 30
0.0
 11
-286.55076496913188
 21
218.278216003464
 31
0.0
  0
LINE
  5
BB
  8
1
 62
     7
 10
-309.05076496913188
 20
197.6748948085658
 30
0.0
 11
-309.05076496913188
 21
228.88153719836191
 31
0.0
  0
LINE
  5
BC
  8
1
 62
     7
 10
-310.44389439414999
 20
196.1787067588198
 30
0.0
 11
-314.65763554411382
 21
195.87772524810811
 31
0.0
  0
LINE
  5
BD
  8
1
 62
     7
 10
-314.65763554411382
 20
230.67870675881991
 30
0.0
 11
-310.44389439414999
 21
230.37772524810811
 31
0.0
  0
LINE
  5
BE
  8
1
 62
     7
 10
-316.05076496913188
 20
184.778216003464
 30
0.0
 11
-316.05076496913188
 21
241.778216003464
 31
0.0
  0
LINE
  5
BF
  8
1
  6
DASHDOT
 62
     3
 10
-330.55076496913188
 20
181.03873770815889
 30
0.0
 11
-330.55076496913188
 21
165.70273614891289
 31
0.0
  0
LINE
  5
C0
  8
1
 62
     7
 10
-183.31254566954601
 20
243.2313295537808
 30
0.0
 11
-183.31254566954601
 21
245.278216003464
 31
0.0
  0
LINE
  5
C1
  8
1
 62
     7
 10
-147.9694902197171
 20
201.2099334085008
 30
0.0
 11
-147.4711589769793
 21
201.16911708197009
 31
0.0
  0
LINE
  5
C2
  8
1
 62
     7
 10
-147.4711589769793
 20
201.16911708197009
 30
0.0
 11
-146.81809775248959
 21
209.1424169657742
 31
0.0
  0
LINE
  5
C3
  8
1
 62
     7
 10
-147.9694902197171
 20
201.2099334085008
 30
0.0
 11
-147.3164289952274
 21
209.18323329230469
 31
0.0
  0
LINE
  5
C4
  8
1
 62
     7
 10
-146.63246484323639
 20
202.35460885072291
 30
0.0
 11
-147.0701194150102
 21
202.3904553928964
 31
0.0
  0
LINE
  5
C5
  8
1
 62
     7
 10
-146.62113982317351
 20
207.87209906301129
 30
0.0
 11
-146.18348525139979
 21
207.836252520838
 31
0.0
  0
LINE
  5
C6
  8
1
 62
     7
 10
-147.3164289952274
 20
209.18323329230469
 30
0.0
 11
-146.81809775248959
 21
209.1424169657742
 31
0.0
  0
LINE
  5
C7
  8
1
 62
     7
 10
-149.0351361721155
 20
201.39942812467601
 30
0.0
 11
-148.04250954459081
 21
201.278216003464
 31
0.0
  0
LINE
  5
C8
  8
1
 62
     7
 10
-213.15393236211261
 20
201.16911708197009
 30
0.0
 11
-212.65560111937481
 21
201.2099334085008
 31
0.0
  0
LINE
  5
C9
  8
1
 62
     7
 10
-213.80699358660229
 20
209.1424169657742
 30
0.0
 11
-213.15393236211261
 21
201.16911708197009
 31
0.0
  0
LINE
  5
CA
  8
1
 62
     7
 10
-213.3086623438646
 20
209.18323329230469
 30
0.0
 11
-212.65560111937481
 21
201.2099334085008
 31
0.0
  0
LINE
  5
CB
  8
1
 62
     7
 10
-213.5549719240818
 20
202.3904553928964
 30
0.0
 11
-213.99262649585549
 21
202.35460885072291
 31
0.0
  0
LINE
  5
CC
  8
1
 62
     7
 10
-214.44160608769209
 20
207.836252520838
 30
0.0
 11
-214.00395151591849
 21
207.87209906301129
 31
0.0
  0
LINE
  5
CD
  8
1
 62
     7
 10
-213.80699358660229
 20
209.1424169657742
 30
0.0
 11
-213.3086623438646
 21
209.18323329230469
 31
0.0
  0
LINE
  5
CE
  8
1
 62
     7
 10
-212.58258179450121
 20
201.278216003464
 30
0.0
 11
-211.5899551669763
 21
201.39942812467601
 31
0.0
  0
LINE
  5
CF
  8
1
 62
     7
 10
-176.31254566954601
 20
246.19737491618409
 30
0.0
 11
-176.31254566954601
 21
245.19654932261309
 31
0.0
  0
LINE
  5
D0
  8
1
 62
     7
 10
-184.31254566954601
 20
245.19654932261309
 30
0.0
 11
-184.31254566954601
 21
246.19737491618409
 31
0.0
  0
LINE
  5
D1
  8
1
 62
     7
 10
-204.3125456695459
 20
169.27821600346391
 30
0.0
 11
-156.3125456695459
 21
169.27821600346391
 31
0.0
  0
LINE
  5
D2
  8
1
 62
     7
 10
-225.31254566954601
 20
168.278216003464
 30
0.0
 11
-205.31254566954601
 21
168.278216003464
 31
0.0
  0
LINE
  5
D3
  8
1
 62
     7
 10
-225.31254566954601
 20
168.278216003464
 30
0.0
 11
-225.31254566954601
 21
176.278216003464
 31
0.0
  0
LINE
  5
D4
  8
1
 62
     7
 10
-223.31254566954601
 20
178.278216003464
 30
0.0
 11
-211.48764536077351
 21
178.278216003464
 31
0.0
  0
LINE
  5
D5
  8
1
 62
     7
 10
-155.3125456695459
 20
168.278216003464
 30
0.0
 11
-135.3125456695459
 21
168.278216003464
 31
0.0
  0
LINE
  5
D6
  8
1
 62
     7
 10
-135.3125456695459
 20
176.278216003464
 30
0.0
 11
-135.3125456695459
 21
168.278216003464
 31
0.0
  0
LINE
  5
D7
  8
1
 62
     7
 10
-149.13744597831851
 20
178.278216003464
 30
0.0
 11
-137.3125456695459
 21
178.278216003464
 31
0.0
  0
LINE
  5
D8
  8
1
 62
     7
 10
-156.53868206216961
 20
236.41810501462459
 30
0.0
 11
-158.0386820621697
 21
237.28413041840909
 31
0.0
  0
LINE
  5
D9
  8
1
 62
     7
 10
-158.0386820621697
 20
237.28413041840909
 30
0.0
 11
-159.5386820621697
 21
236.41810501462459
 31
0.0
  0
LINE
  5
DA
  8
1
 62
     7
 10
-159.5386820621697
 20
236.41810501462459
 30
0.0
 11
-159.5386820621697
 21
234.6860542070558
 31
0.0
  0
LINE
  5
DB
  8
1
 62
     7
 10
-159.5386820621697
 20
234.6860542070558
 30
0.0
 11
-158.0386820621697
 21
233.82002880327121
 31
0.0
  0
LINE
  5
DC
  8
1
 62
     7
 10
-158.0386820621697
 20
233.82002880327121
 30
0.0
 11
-156.53868206216961
 21
234.6860542070558
 31
0.0
  0
LINE
  5
DD
  8
1
 62
     7
 10
-156.53868206216961
 20
234.6860542070558
 30
0.0
 11
-156.53868206216961
 21
236.41810501462459
 31
0.0
  0
LINE
  5
DE
  8
1
 62
     7
 10
-156.53868206216961
 20
190.13832699230329
 30
0.0
 11
-156.53868206216961
 21
191.8703777998721
 31
0.0
  0
LINE
  5
DF
  8
1
 62
     7
 10
-156.53868206216961
 20
191.8703777998721
 30
0.0
 11
-158.0386820621697
 21
192.73640320365669
 31
0.0
  0
LINE
  5
E0
  8
1
 62
     7
 10
-158.0386820621697
 20
192.73640320365669
 30
0.0
 11
-159.5386820621697
 21
191.8703777998721
 31
0.0
  0
LINE
  5
E1
  8
1
 62
     7
 10
-159.5386820621697
 20
191.8703777998721
 30
0.0
 11
-159.5386820621697
 21
190.13832699230329
 31
0.0
  0
LINE
  5
E2
  8
1
 62
     7
 10
-159.5386820621697
 20
190.13832699230329
 30
0.0
 11
-158.0386820621697
 21
189.2723015885189
 31
0.0
  0
LINE
  5
E3
  8
1
 62
     7
 10
-158.0386820621697
 20
189.2723015885189
 30
0.0
 11
-156.53868206216961
 21
190.13832699230329
 31
0.0
  0
LINE
  5
E4
  8
1
 62
     7
 10
-204.08640927692221
 20
190.13832699230329
 30
0.0
 11
-202.58640927692221
 21
189.2723015885189
 31
0.0
  0
LINE
  5
E5
  8
1
 62
     7
 10
-202.58640927692221
 20
189.2723015885189
 30
0.0
 11
-201.0864092769223
 21
190.13832699230329
 31
0.0
  0
LINE
  5
E6
  8
1
 62
     7
 10
-201.0864092769223
 20
190.13832699230329
 30
0.0
 11
-201.0864092769223
 21
191.8703777998721
 31
0.0
  0
LINE
  5
E7
  8
1
 62
     7
 10
-201.0864092769223
 20
191.8703777998721
 30
0.0
 11
-202.58640927692221
 21
192.73640320365669
 31
0.0
  0
LINE
  5
E8
  8
1
 62
     7
 10
-202.58640927692221
 20
192.73640320365669
 30
0.0
 11
-204.08640927692221
 21
191.8703777998721
 31
0.0
  0
LINE
  5
E9
  8
1
 62
     7
 10
-204.08640927692221
 20
191.8703777998721
 30
0.0
 11
-204.08640927692221
 21
190.13832699230329
 31
0.0
  0
LINE
  5
EA
  8
1
 62
     7
 10
-204.08640927692221
 20
236.41810501462459
 30
0.0
 11
-204.08640927692221
 21
234.6860542070558
 31
0.0
  0
LINE
  5
EB
  8
1
 62
     7
 10
-204.08640927692221
 20
234.6860542070558
 30
0.0
 11
-202.58640927692221
 21
233.82002880327121
 31
0.0
  0
LINE
  5
EC
  8
1
 62
     7
 10
-202.58640927692221
 20
233.82002880327121
 30
0.0
 11
-201.0864092769223
 21
234.6860542070558
 31
0.0
  0
LINE
  5
ED
  8
1
 62
     7
 10
-201.0864092769223
 20
234.6860542070558
 30
0.0
 11
-201.0864092769223
 21
236.41810501462459
 31
0.0
  0
LINE
  5
EE
  8
1
 62
     7
 10
-201.0864092769223
 20
236.41810501462459
 30
0.0
 11
-202.58640927692221
 21
237.28413041840909
 31
0.0
  0
LINE
  5
EF
  8
1
 62
     7
 10
-202.58640927692221
 20
237.28413041840909
 30
0.0
 11
-204.08640927692221
 21
236.41810501462459
 31
0.0
  0
LINE
  5
F0
  8
1
 62
     7
 10
-182.31254566954601
 20
215.778216003464
 30
0.0
 11
-182.31254566954601
 21
219.778216003464
 31
0.0
  0
LINE
  5
F1
  8
1
 62
     7
 10
-182.31254566954601
 20
219.778216003464
 30
0.0
 11
-178.31254566954601
 21
219.778216003464
 31
0.0
  0
LINE
  5
F2
  8
1
 62
     7
 10
-178.31254566954601
 20
219.778216003464
 30
0.0
 11
-178.31254566954601
 21
215.778216003464
 31
0.0
  0
LINE
  5
F3
  8
1
 62
     7
 10
-178.31254566954601
 20
215.778216003464
 30
0.0
 11
-182.31254566954601
 21
215.778216003464
 31
0.0
  0
LINE
  5
F4
  8
1
 62
     7
 10
-176.71254566954599
 20
208.14971709167591
 30
0.0
 11
-176.71254566954599
 21
206.9143465450675
 31
0.0
  0
LINE
  5
F5
  8
1
 62
     7
 10
-179.71254566954599
 20
205.6143465450676
 30
0.0
 11
-178.012545669546
 21
205.6143465450676
 31
0.0
  0
LINE
  5
F6
  8
1
 62
     7
 10
-179.71254566954599
 20
205.6143465450676
 30
0.0
 11
-179.71254566954599
 21
208.31434654506759
 31
0.0
  0
LINE
  5
F7
  8
1
 62
     7
 10
-180.91254566954589
 20
208.31434654506759
 30
0.0
 11
-180.91254566954589
 21
205.6143465450676
 31
0.0
  0
LINE
  5
F8
  8
1
 62
     7
 10
-182.61254566954599
 20
205.6143465450676
 30
0.0
 11
-180.91254566954589
 21
205.6143465450676
 31
0.0
  0
LINE
  5
F9
  8
1
 62
     7
 10
-183.91254566954601
 20
206.9143465450675
 30
0.0
 11
-183.91254566954601
 21
208.14971709167591
 31
0.0
  0
LINE
  5
FA
  8
1
  6
DASHDOT
 62
     3
 10
-219.31254566954601
 20
181.03873770815889
 30
0.0
 11
-219.31254566954601
 21
165.70273614891289
 31
0.0
  0
LINE
  5
FB
  8
1
  6
DASHDOT
 62
     3
 10
-141.3125456695459
 20
181.03873770815889
 30
0.0
 11
-141.3125456695459
 21
165.70273614891289
 31
0.0
  0
LINE
  5
FC
  8
1
  6
DASHDOT
 62
     3
 10
-178.071714084766
 20
213.278216003464
 30
0.0
 11
-182.55337725432591
 21
213.278216003464
 31
0.0
  0
LINE
  5
FD
  8
1
  6
DASHDOT
 62
     3
 10
-180.31254566954601
 20
215.51904758824401
 30
0.0
 11
-180.31254566954601
 21
211.03738441868401
 31
0.0
  0
LINE
  5
FE
  8
1
 62
     7
 10
-390.05076496913199
 20
168.278216003464
 30
0.0
 11
-321.05076496913199
 21
168.278216003464
 31
0.0
  0
LINE
  5
FF
  8
1
 62
     7
 10
-388.05076496913199
 20
178.278216003464
 30
0.0
 11
-323.05076496913199
 21
178.278216003464
 31
0.0
  0
LINE
  5
100
  8
1
 62
     7
 10
-212.68318538188441
 20
201.54671285400241
 30
0.0
 11
-212.62788833838499
 21
201.6552475397379
 31
0.0
  0
LINE
  5
101
  8
1
 62
     7
 10
-212.86344350911989
 20
201.19290986648849
 30
0.0
 11
-225.09458622045889
 21
177.18614302415611
 31
0.0
  0
LINE
  5
102
  8
1
 62
     7
 10
-135.53050511863299
 20
177.18614302415611
 30
0.0
 11
-147.76164782997191
 21
201.19290986648849
 31
0.0
  0
LINE
  5
103
  8
1
 62
     7
 10
-147.997203000707
 20
201.6552475397379
 30
0.0
 11
-147.94190595720761
 21
201.54671285400241
 31
0.0
  0
LINE
  5
104
  8
1
 62
     7
 10
-318.55076496913199
 20
183.278216003464
 30
0.0
 11
-318.55076496913199
 21
243.278216003464
 31
0.0
  0
LINE
  5
105
  8
1
 62
     7
 10
-321.05076496913199
 20
243.278216003464
 30
0.0
 11
-321.05076496913199
 21
168.278216003464
 31
0.0
  0
LINE
  5
106
  8
1
 62
     7
 10
-319.58666335399431
 20
243.278216003464
 30
0.0
 11
-317.55076496913188
 21
243.278216003464
 31
0.0
  0
LINE
  5
107
  8
1
 62
     7
 10
-319.05076496913199
 20
183.278216003464
 30
0.0
 11
-317.55076496913188
 21
183.278216003464
 31
0.0
  0
LINE
  5
108
  8
1
 62
     7
 10
-321.05076496913199
 20
178.278216003464
 30
0.0
 11
-320.05076496913188
 21
178.278216003464
 31
0.0
  0
LINE
  5
109
  8
1
 62
     7
 10
-320.05076496913188
 20
178.278216003464
 30
0.0
 11
-320.05076496913188
 21
172.278216003464
 31
0.0
  0
LINE
  5
10A
  8
1
 62
     7
 10
-320.05076496913188
 20
172.278216003464
 30
0.0
 11
-321.05076496913199
 21
172.278216003464
 31
0.0
  0
LINE
  5
10B
  8
1
 62
     7
 10
-325.05076496913199
 20
246.278216003464
 30
0.0
 11
-325.05076496913199
 21
201.16911708197009
 31
0.0
  0
LINE
  5
10C
  8
1
 62
     7
 10
-325.05076496913199
 20
201.16911708197009
 30
0.0
 11
-327.05076496913199
 21
201.16911708197009
 31
0.0
  0
LINE
  5
10D
  8
1
 62
     7
 10
-325.05076496913199
 20
245.278216003464
 30
0.0
 11
-321.55076496913188
 21
245.278216003464
 31
0.0
  0
LINE
  5
10E
  8
1
 62
     7
 10
-353.05076496913188
 20
182.278216003464
 30
0.0
 11
-353.05076496913188
 21
201.16911708197009
 31
0.0
  0
LINE
  5
10F
  8
1
 62
     7
 10
-358.05076496913182
 20
201.16911708197009
 30
0.0
 11
-358.05076496913182
 21
182.278216003464
 31
0.0
  0
LINE
  5
110
  8
1
 62
     7
 10
-330.80076496913182
 20
205.5407160034639
 30
0.0
 11
-330.80076496913182
 21
205.01571600346401
 31
0.0
  0
LINE
  5
111
  8
1
 62
     7
 10
-329.31326496913181
 20
203.528216003464
 30
0.0
 11
-328.78826496913189
 21
203.528216003464
 31
0.0
  0
LINE
  5
112
  8
1
 62
     7
 10
-327.30076496913182
 20
205.01571600346401
 30
0.0
 11
-327.30076496913182
 21
205.5407160034639
 31
0.0
  0
LINE
  5
113
  8
1
 62
     7
 10
-328.78826496913177
 20
207.028216003464
 30
0.0
 11
-329.31326496913181
 21
207.028216003464
 31
0.0
  0
LINE
  5
114
  8
1
 62
     7
 10
-331.05076496913199
 20
201.81411438832609
 30
0.0
 11
-331.05076496913199
 21
201.16911708197009
 31
0.0
  0
LINE
  5
115
  8
1
 62
     7
 10
-327.05076496913199
 20
201.81411438832609
 30
0.0
 11
-327.05076496913199
 21
201.16911708197009
 31
0.0
  0
LINE
  5
116
  8
1
 62
     7
 10
-331.05076496913199
 20
201.16911708197009
 30
0.0
 11
-380.05076496913188
 21
201.16911708197009
 31
0.0
  0
LINE
  5
117
  8
1
 62
     7
 10
-321.55076496913188
 20
246.278216003464
 30
0.0
 11
-321.55076496913188
 21
245.278216003464
 31
0.0
  0
LINE
  5
118
  8
1
 62
     7
 10
-322.05076496913188
 20
245.278216003464
 30
0.0
 11
-322.05076496913188
 21
245.01026681103289
 31
0.0
  0
LINE
  5
119
  8
1
 62
     7
 10
-389.55076496913199
 20
245.278216003464
 30
0.0
 11
-389.55076496913199
 21
246.278216003464
 31
0.0
  0
LINE
  5
11A
  8
1
 62
     7
 10
-389.05076496913188
 20
245.01026681103289
 30
0.0
 11
-389.05076496913188
 21
245.278216003464
 31
0.0
  0
LINE
  5
11B
  8
1
 62
     7
 10
-389.55076496913199
 20
246.278216003464
 30
0.0
 11
-321.55076496913188
 21
246.278216003464
 31
0.0
  0
LINE
  5
11C
  8
1
 62
     7
 10
-389.55076496913199
 20
245.278216003464
 30
0.0
 11
-386.05076496913188
 21
245.278216003464
 31
0.0
  0
LINE
  5
11D
  8
1
 62
     3
 10
-324.66076496913178
 20
263.63575672088808
 30
0.0
 11
-324.66076496913178
 21
260.67495157625041
 31
0.0
  0
LINE
  5
11E
  8
1
 62
     3
 10
-325.44076496913192
 20
260.67495157625041
 30
0.0
 11
-325.44076496913181
 21
263.63575672088808
 31
0.0
  0
LINE
  5
11F
  8
1
 62
     7
 10
-325.97076496913189
 20
260.67495157625041
 30
0.0
 11
-324.13076496913197
 21
260.67495157625041
 31
0.0
  0
LINE
  5
120
  8
1
 62
     7
 10
-325.97076496913189
 20
260.67495157625041
 30
0.0
 11
-325.97076496913189
 21
246.278216003464
 31
0.0
  0
LINE
  5
121
  8
1
 62
     7
 10
-324.13076496913197
 20
260.67495157625041
 30
0.0
 11
-324.13076496913197
 21
246.278216003464
 31
0.0
  0
LINE
  5
122
  8
1
 62
     7
 10
-385.13076496913209
 20
246.278216003464
 30
0.0
 11
-385.13076496913209
 21
260.67495157625041
 31
0.0
  0
LINE
  5
123
  8
1
 62
     7
 10
-386.97076496913212
 20
246.278216003464
 30
0.0
 11
-386.97076496913212
 21
260.67495157625041
 31
0.0
  0
LINE
  5
124
  8
1
 62
     7
 10
-387.25076496913209
 20
372.20968657645682
 30
0.0
 11
-387.25076496913209
 21
374.60968657645691
 31
0.0
  0
LINE
  5
125
  8
1
 62
     7
 10
-384.85076496913211
 20
374.60968657645691
 30
0.0
 11
-384.85076496913211
 21
372.20968657645682
 31
0.0
  0
LINE
  5
126
  8
1
 62
     7
 10
-392.55076496913188
 20
370.40968657645692
 30
0.0
 11
-387.85354060686387
 21
370.40968657645692
 31
0.0
  0
LINE
  5
127
  8
1
 62
     7
 10
-390.05076496913199
 20
343.40968657645709
 30
0.0
 11
-390.05076496913199
 21
370.40968657645692
 31
0.0
  0
LINE
  5
128
  8
1
 62
     7
 10
-387.85354060686387
 20
376.40968657645692
 30
0.0
 11
-392.55076496913188
 21
376.40968657645692
 31
0.0
  0
LINE
  5
129
  8
1
 62
     7
 10
-386.05076496913188
 20
340.40968657645709
 30
0.0
 11
-325.05076496913199
 21
340.40968657645709
 31
0.0
  0
LINE
  5
12A
  8
1
 62
     7
 10
-395.05076496913188
 20
352.00184837286491
 30
0.0
 11
-396.05076496913199
 21
351.42449810367532
 31
0.0
  0
LINE
  5
12B
  8
1
 62
     7
 10
-395.05076496913188
 20
350.84714783448578
 30
0.0
 11
-396.05076496913199
 21
350.26979756529607
 31
0.0
  0
LINE
  5
12C
  8
1
 62
     7
 10
-399.75076496913192
 20
347.63582296908078
 30
0.0
 11
-399.75076496913192
 21
354.63582296908078
 31
0.0
  0
LINE
  5
12D
  8
1
 62
     7
 10
-399.75076496913192
 20
354.63582296908078
 30
0.0
 11
-396.05076496913199
 21
354.63582296908078
 31
0.0
  0
LINE
  5
12E
  8
1
 62
     7
 10
-400.05076496913199
 20
354.1162077268101
 30
0.0
 11
-399.75076496913192
 21
354.63582296908078
 31
0.0
  0
LINE
  5
12F
  8
1
 62
     7
 10
-400.05076496913199
 20
348.1554382113514
 30
0.0
 11
-400.05076496913199
 21
354.1162077268101
 31
0.0
  0
LINE
  5
130
  8
1
 62
     7
 10
-399.75076496913192
 20
347.63582296908078
 30
0.0
 11
-400.05076496913199
 21
348.1554382113514
 31
0.0
  0
LINE
  5
131
  8
1
 62
     7
 10
-396.05076496913199
 20
347.63582296908078
 30
0.0
 11
-399.75076496913192
 21
347.63582296908078
 31
0.0
  0
LINE
  5
132
  8
1
 62
     7
 10
-396.05076496913199
 20
354.93582296908062
 30
0.0
 11
-395.05076496913188
 21
354.93582296908062
 31
0.0
  0
LINE
  5
133
  8
1
 62
     7
 10
-396.05076496913199
 20
347.33582296908082
 30
0.0
 11
-396.05076496913199
 21
354.93582296908062
 31
0.0
  0
LINE
  5
134
  8
1
 62
     7
 10
-395.05076496913188
 20
347.33582296908082
 30
0.0
 11
-396.05076496913199
 21
347.33582296908082
 31
0.0
  0
LINE
  5
135
  8
1
 62
     7
 10
-396.44389439415011
 20
356.00919582110112
 30
0.0
 11
-400.65763554411382
 21
356.31017733181289
 31
0.0
  0
LINE
  5
136
  8
1
 62
     7
 10
-391.51486658426973
 20
343.40968657645709
 30
0.0
 11
-393.55076496913199
 21
343.40968657645709
 31
0.0
  0
LINE
  5
137
  8
1
 62
     7
 10
-386.05076496913188
 20
341.40968657645709
 30
0.0
 11
-388.05076496913199
 21
341.40968657645709
 31
0.0
  0
LINE
  5
138
  8
1
 62
     7
 10
-424.55076496913199
 20
378.40968657645692
 30
0.0
 11
-424.55076496913199
 21
375.40968657645692
 31
0.0
  0
LINE
  5
139
  8
1
 62
     7
 10
-425.05076496913199
 20
371.40968657645692
 30
0.0
 11
-407.05076496913199
 21
371.40968657645692
 31
0.0
  0
LINE
  5
13A
  8
1
 62
     7
 10
-407.05076496913199
 20
375.40968657645692
 30
0.0
 11
-425.05076496913199
 21
375.40968657645692
 31
0.0
  0
LINE
  5
13B
  8
1
 62
     7
 10
-402.05076496913188
 20
357.80636538155909
 30
0.0
 11
-402.05076496913188
 21
389.01300777135492
 31
0.0
  0
LINE
  5
13C
  8
1
 62
     7
 10
-395.05076496913188
 20
344.90968657645709
 30
0.0
 11
-395.05076496913188
 21
401.90968657645692
 31
0.0
  0
LINE
  5
13D
  8
1
 62
     7
 10
-392.55076496913188
 20
343.40968657645709
 30
0.0
 11
-392.55076496913188
 21
403.40968657645698
 31
0.0
  0
LINE
  5
13E
  8
1
 62
     7
 10
-386.05076496913188
 20
406.40968657645692
 30
0.0
 11
-325.05076496913199
 21
406.40968657645692
 31
0.0
  0
LINE
  5
13F
  8
1
 62
     7
 10
-395.05076496913188
 20
396.54957558761743
 30
0.0
 11
-396.05076496913199
 21
395.97222531842789
 31
0.0
  0
LINE
  5
140
  8
1
 62
     7
 10
-395.05076496913188
 20
395.39487504923829
 30
0.0
 11
-396.05076496913199
 21
394.81752478004881
 31
0.0
  0
LINE
  5
141
  8
1
 62
     7
 10
-399.75076496913192
 20
392.18355018383318
 30
0.0
 11
-399.75076496913192
 21
399.18355018383329
 31
0.0
  0
LINE
  5
142
  8
1
 62
     7
 10
-396.05076496913199
 20
392.18355018383318
 30
0.0
 11
-399.75076496913192
 21
392.18355018383318
 31
0.0
  0
LINE
  5
143
  8
1
 62
     7
 10
-399.75076496913192
 20
392.18355018383318
 30
0.0
 11
-400.05076496913199
 21
392.70316542610391
 31
0.0
  0
LINE
  5
144
  8
1
 62
     7
 10
-400.05076496913199
 20
392.70316542610391
 30
0.0
 11
-400.05076496913199
 21
398.66393494156267
 31
0.0
  0
LINE
  5
145
  8
1
 62
     7
 10
-400.05076496913199
 20
398.66393494156267
 30
0.0
 11
-399.75076496913192
 21
399.18355018383329
 31
0.0
  0
LINE
  5
146
  8
1
 62
     7
 10
-399.75076496913192
 20
399.18355018383329
 30
0.0
 11
-396.05076496913199
 21
399.18355018383329
 31
0.0
  0
LINE
  5
147
  8
1
 62
     7
 10
-395.05076496913188
 20
391.88355018383339
 30
0.0
 11
-396.05076496913199
 21
391.88355018383339
 31
0.0
  0
LINE
  5
148
  8
1
 62
     7
 10
-396.05076496913199
 20
391.88355018383339
 30
0.0
 11
-396.05076496913199
 21
399.48355018383307
 31
0.0
  0
LINE
  5
149
  8
1
 62
     7
 10
-396.05076496913199
 20
399.48355018383307
 30
0.0
 11
-395.05076496913188
 21
399.48355018383307
 31
0.0
  0
LINE
  5
14A
  8
1
 62
     7
 10
-424.55076496913199
 20
371.40968657645692
 30
0.0
 11
-424.55076496913199
 21
368.40968657645692
 31
0.0
  0
LINE
  5
14B
  8
1
 62
     7
 10
-425.05076496913199
 20
368.90968657645692
 30
0.0
 11
-424.55076496913199
 21
368.40968657645692
 31
0.0
  0
LINE
  5
14C
  8
1
 62
     7
 10
-424.55076496913199
 20
378.40968657645692
 30
0.0
 11
-425.05076496913199
 21
377.90968657645692
 31
0.0
  0
LINE
  5
14D
  8
1
 62
     7
 10
-402.05076496913188
 20
368.40968657645692
 30
0.0
 11
-424.55076496913199
 21
368.40968657645692
 31
0.0
  0
LINE
  5
14E
  8
1
 62
     7
 10
-425.05076496913199
 20
377.90968657645692
 30
0.0
 11
-425.05076496913199
 21
368.90968657645692
 31
0.0
  0
LINE
  5
14F
  8
1
 62
     7
 10
-424.55076496913199
 20
378.40968657645692
 30
0.0
 11
-402.05076496913188
 21
378.40968657645692
 31
0.0
  0
LINE
  5
150
  8
1
 62
     7
 10
-400.65763554411382
 20
390.50919582110112
 30
0.0
 11
-396.44389439415011
 21
390.81017733181278
 31
0.0
  0
LINE
  5
151
  8
1
 62
     7
 10
-390.05076496913199
 20
376.40968657645692
 30
0.0
 11
-390.05076496913199
 21
403.40968657645698
 31
0.0
  0
LINE
  5
152
  8
1
 62
     7
 10
-393.55076496913199
 20
403.40968657645698
 30
0.0
 11
-391.51486658426973
 21
403.40968657645698
 31
0.0
  0
LINE
  5
153
  8
1
 62
     7
 10
-388.05076496913199
 20
405.40968657645692
 30
0.0
 11
-386.05076496913188
 21
405.40968657645692
 31
0.0
  0
LINE
  5
154
  8
1
 62
     7
 10
-390.05076496913199
 20
342.77218665372351
 30
0.0
 11
-390.05076496913199
 21
330.40968657645692
 31
0.0
  0
LINE
  5
155
  8
1
 62
     7
 10
-388.05076496913199
 20
328.40968657645692
 30
0.0
 11
-323.05076496913199
 21
328.40968657645692
 31
0.0
  0
LINE
  5
156
  8
1
 62
     7
 10
-321.05076496913199
 20
330.40968657645692
 30
0.0
 11
-321.05076496913199
 21
342.77218665372351
 31
0.0
  0
LINE
  5
157
  8
1
 62
     7
 10
-321.05076496913199
 20
404.04718649919039
 30
0.0
 11
-321.05076496913199
 21
416.40968657645692
 31
0.0
  0
LINE
  5
158
  8
1
 62
     7
 10
-390.05076496913199
 20
416.40968657645692
 30
0.0
 11
-390.05076496913199
 21
404.04718649919039
 31
0.0
  0
LINE
  5
159
  8
1
 62
     7
 10
-323.05076496913199
 20
418.40968657645692
 30
0.0
 11
-388.05076496913199
 21
418.40968657645692
 31
0.0
  0
LINE
  5
15A
  8
1
 62
     7
 10
-353.05076496913188
 20
340.40968657645709
 30
0.0
 11
-353.05076496913188
 21
332.40968657645692
 31
0.0
  0
LINE
  5
15B
  8
1
 62
     7
 10
-358.05076496913182
 20
332.40968657645692
 30
0.0
 11
-358.05076496913182
 21
340.40968657645709
 31
0.0
  0
LINE
  5
15C
  8
1
 62
     7
 10
-353.05076496913188
 20
414.40968657645709
 30
0.0
 11
-353.05076496913188
 21
406.40968657645692
 31
0.0
  0
LINE
  5
15D
  8
1
 62
     7
 10
-358.05076496913182
 20
406.40968657645692
 30
0.0
 11
-358.05076496913182
 21
414.40968657645709
 31
0.0
  0
LINE
  5
15E
  8
1
 62
     7
 10
-325.05076496913182
 20
406.594291453891
 30
0.0
 11
-325.05076496913199
 21
377.40968657645692
 31
0.0
  0
LINE
  5
15F
  8
1
  6
DASHDOT
 62
     3
 10
-325.78028542648599
 20
412.40968657645698
 30
0.0
 11
-335.32124451177799
 21
412.40968657645698
 31
0.0
  0
LINE
  5
160
  8
1
  6
DASHDOT
 62
     3
 10
-330.55076496913188
 20
417.18016611910298
 30
0.0
 11
-330.55076496913188
 21
407.63920703381098
 31
0.0
  0
LINE
  5
161
  8
1
 62
     7
 10
-333.05076496913199
 20
406.40968657645692
 30
0.0
 11
-333.0507649691321
 21
406.59429145389078
 31
0.0
  0
LINE
  5
162
  8
1
 62
     7
 10
-331.80076496913182
 20
406.89429145389101
 30
0.0
 11
-331.80076496913199
 21
407.33341159551532
 31
0.0
  0
LINE
  5
163
  8
1
 62
     7
 10
-326.3007649691321
 20
407.33341159551532
 30
0.0
 11
-326.30076496913222
 21
406.89429145389101
 31
0.0
  0
LINE
  5
164
  8
1
 62
     7
 10
-325.05076496913182
 20
406.594291453891
 30
0.0
 11
-333.0507649691321
 21
406.59429145389078
 31
0.0
  0
LINE
  5
165
  8
1
 62
     7
 10
-378.05076496913171
 20
406.59429145389078
 30
0.0
 11
-386.05076496913182
 21
406.594291453891
 31
0.0
  0
LINE
  5
166
  8
1
 62
     7
 10
-384.80076496913159
 20
406.89429145389101
 30
0.0
 11
-384.80076496913171
 21
407.33341159551532
 31
0.0
  0
LINE
  5
167
  8
1
 62
     7
 10
-379.30076496913171
 20
407.33341159551532
 30
0.0
 11
-379.30076496913199
 21
406.89429145389101
 31
0.0
  0
LINE
  5
168
  8
1
 62
     7
 10
-378.05076496913171
 20
406.59429145389078
 30
0.0
 11
-378.05076496913171
 21
406.40968657645692
 31
0.0
  0
LINE
  5
169
  8
1
  6
DASHDOT
 62
     3
 10
-380.55076496913182
 20
407.63920703381098
 30
0.0
 11
-380.55076496913182
 21
417.18016611910298
 31
0.0
  0
LINE
  5
16A
  8
1
  6
DASHDOT
 62
     3
 10
-375.78028542648582
 20
412.40968657645698
 30
0.0
 11
-385.32124451177782
 21
412.40968657645698
 31
0.0
  0
LINE
  5
16B
  8
1
  6
DASHDOT
 62
     3
 10
-385.32124451177782
 20
334.40968657645709
 30
0.0
 11
-375.78028542648582
 21
334.40968657645709
 31
0.0
  0
LINE
  5
16C
  8
1
  6
DASHDOT
 62
     3
 10
-380.55076496913182
 20
329.63920703381098
 30
0.0
 11
-380.55076496913182
 21
339.18016611910309
 31
0.0
  0
LINE
  5
16D
  8
1
 62
     7
 10
-378.05076496913171
 20
340.40968657645709
 30
0.0
 11
-378.05076496913171
 21
340.22508169902312
 31
0.0
  0
LINE
  5
16E
  8
1
 62
     7
 10
-379.30076496913199
 20
339.92508169902311
 30
0.0
 11
-379.30076496913171
 21
339.4859615573987
 31
0.0
  0
LINE
  5
16F
  8
1
 62
     7
 10
-384.80076496913171
 20
339.4859615573987
 30
0.0
 11
-384.80076496913159
 21
339.92508169902311
 31
0.0
  0
LINE
  5
170
  8
1
 62
     7
 10
-386.05076496913182
 20
340.22508169902301
 30
0.0
 11
-378.05076496913171
 21
340.22508169902312
 31
0.0
  0
LINE
  5
171
  8
1
 62
     7
 10
-333.0507649691321
 20
340.22508169902312
 30
0.0
 11
-325.05076496913182
 21
340.22508169902301
 31
0.0
  0
LINE
  5
172
  8
1
 62
     7
 10
-326.30076496913222
 20
339.92508169902311
 30
0.0
 11
-326.3007649691321
 21
339.4859615573987
 31
0.0
  0
LINE
  5
173
  8
1
 62
     7
 10
-331.80076496913199
 20
339.4859615573987
 30
0.0
 11
-331.80076496913182
 21
339.92508169902311
 31
0.0
  0
LINE
  5
174
  8
1
 62
     7
 10
-333.0507649691321
 20
340.22508169902312
 30
0.0
 11
-333.05076496913199
 21
340.40968657645709
 31
0.0
  0
LINE
  5
175
  8
1
  6
DASHDOT
 62
     3
 10
-330.55076496913188
 20
339.18016611910309
 30
0.0
 11
-330.55076496913188
 21
329.63920703381098
 31
0.0
  0
LINE
  5
176
  8
1
  6
DASHDOT
 62
     3
 10
-335.32124451177799
 20
334.40968657645709
 30
0.0
 11
-325.78028542648599
 21
334.40968657645709
 31
0.0
  0
LINE
  5
177
  8
1
 62
     7
 10
-325.05076496913182
 20
340.22508169902301
 30
0.0
 11
-325.05076496913199
 21
369.40968657645692
 31
0.0
  0
LINE
  5
178
  8
1
 62
     7
 10
-386.05076496913182
 20
406.594291453891
 30
0.0
 11
-386.05076496913188
 21
377.40968657645692
 31
0.0
  0
LINE
  5
179
  8
1
 62
     7
 10
-386.05076496913182
 20
340.22508169902301
 30
0.0
 11
-386.05076496913188
 21
369.40968657645692
 31
0.0
  0
LINE
  5
17A
  8
1
  6
DASHDOT
 62
     3
 10
-286.05076496913188
 20
213.278216003464
 30
0.0
 11
-279.05076496913199
 21
213.278216003464
 31
0.0
  0
LINE
  5
17B
  8
1
  6
DASHDOT
 62
     3
 10
-432.05076496913182
 20
213.278216003464
 30
0.0
 11
-425.05076496913188
 21
213.278216003464
 31
0.0
  0
LINE
  5
17C
  8
1
  6
DASHDOT
 62
     3
 10
-286.05076496913188
 20
373.40968657645692
 30
0.0
 11
-279.05076496913199
 21
373.40968657645692
 31
0.0
  0
LINE
  5
17D
  8
1
  6
DASHDOT
 62
     3
 10
-432.05076496913182
 20
373.40968657645692
 30
0.0
 11
-425.05076496913188
 21
373.40968657645692
 31
0.0
  0
LINE
  5
17E
  8
1
 62
     3
 10
-325.05076496913199
 20
260.67495157625041
 30
0.0
 11
-325.05076496913182
 21
263.63575672088808
 31
0.0
  0
LINE
  5
17F
  8
1
 62
     3
 10
-385.66076496913212
 20
263.63575672088808
 30
0.0
 11
-385.66076496913212
 21
260.67495157625041
 31
0.0
  0
LINE
  5
180
  8
1
 62
     3
 10
-386.44076496913209
 20
260.67495157625041
 30
0.0
 11
-386.44076496913209
 21
263.63575672088808
 31
0.0
  0
LINE
  5
181
  8
1
 62
     7
 10
-386.97076496913212
 20
260.67495157625041
 30
0.0
 11
-385.13076496913209
 21
260.67495157625041
 31
0.0
  0
LINE
  5
182
  8
1
 62
     3
 10
-386.0507649691321
 20
260.67495157625041
 30
0.0
 11
-386.0507649691321
 21
263.63575672088808
 31
0.0
  0
LINE
  5
183
  8
1
 62
     3
 10
-180.84254566954581
 20
263.63575672088808
 30
0.0
 11
-180.84254566954581
 21
260.67495157625041
 31
0.0
  0
LINE
  5
184
  8
1
 62
     3
 10
-181.62254566954601
 20
260.67495157625041
 30
0.0
 11
-181.6225456695459
 21
263.63575672088808
 31
0.0
  0
LINE
  5
185
  8
1
 62
     3
 10
-181.23254566954591
 20
260.67495157625041
 30
0.0
 11
-181.2325456695458
 21
263.63575672088808
 31
0.0
  0
LINE
  5
186
  8
1
 62
     3
 10
-179.00254566954601
 20
263.63575672088808
 30
0.0
 11
-179.00254566954601
 21
260.67495157625041
 31
0.0
  0
LINE
  5
187
  8
1
 62
     3
 10
-179.7825456695461
 20
260.67495157625041
 30
0.0
 11
-179.78254566954601
 21
263.63575672088808
 31
0.0
  0
LINE
  5
188
  8
1
 62
     7
 10
-178.47254566954601
 20
260.67495157625041
 30
0.0
 11
-182.1525456695459
 21
260.67495157625041
 31
0.0
  0
LINE
  5
189
  8
1
 62
     3
 10
-179.392545669546
 20
260.67495157625041
 30
0.0
 11
-179.392545669546
 21
263.63575672088808
 31
0.0
  0
ARC
  5
18A
  8
1
 62
     7
 10
-310.55076496913199
 20
357.80636538155892
 30
0.0
 40
1.49999999999998
 50
274.08561677997551
 51
0.0
  0
ARC
  5
18B
  8
1
 62
     7
 10
-317.55076496913188
 20
344.90968657645709
 30
0.0
 40
1.5
 50
270.0
 51
0.0
  0
ARC
  5
18C
  8
1
 62
     7
 10
-323.05076496913199
 20
343.40968657645709
 30
0.0
 40
2.0
 50
270.0
 51
0.0
  0
ARC
  5
18D
  8
1
 62
     7
 10
-310.55076496913199
 20
389.01300777135492
 30
0.0
 40
1.5
 50
0.0
 51
85.914383220024504
  0
ARC
  5
18E
  8
1
 62
     7
 10
-317.55076496913188
 20
401.90968657645692
 30
0.0
 40
1.5
 50
0.0
 51
90.0
  0
ARC
  5
18F
  8
1
 62
     7
 10
-323.05076496913199
 20
403.40968657645698
 30
0.0
 40
2.0
 50
0.0
 51
90.0
  0
ARC
  5
190
  8
1
 62
     7
 10
-400.55076496913199
 20
197.6748948085658
 30
0.0
 40
1.5
 50
180.0
 51
265.91438322002438
  0
ARC
  5
191
  8
1
 62
     7
 10
-400.55076496913199
 20
228.881537198362
 30
0.0
 40
1.49999999999998
 50
94.085616779975638
 51
180.0
  0
ARC
  5
192
  8
1
 62
     7
 10
-393.55076496913199
 20
184.778216003464
 30
0.0
 40
1.5
 50
180.0
 51
270.0
  0
ARC
  5
193
  8
1
 62
     7
 10
-393.55076496913199
 20
241.778216003464
 30
0.0
 40
1.5
 50
90.0
 51
180.0
  0
ARC
  5
194
  8
1
 62
     7
 10
-388.05076496913199
 20
176.278216003464
 30
0.0
 40
2.0
 50
90.0
 51
180.0
  0
ARC
  5
195
  8
1
 62
     7
 10
-388.05076496913199
 20
243.278216003464
 30
0.0
 40
2.0
 50
90.0
 51
180.0
  0
ARC
  5
196
  8
1
 62
     7
 10
-310.55076496913199
 20
197.6748948085658
 30
0.0
 40
1.5000000000000071
 50
274.08561677997551
 51
0.0
  0
ARC
  5
197
  8
1
 62
     7
 10
-310.55076496913199
 20
228.881537198362
 30
0.0
 40
1.5
 50
0.0
 51
85.914383220024376
  0
ARC
  5
198
  8
1
 62
     7
 10
-317.55076496913188
 20
184.778216003464
 30
0.0
 40
1.5
 50
270.0
 51
0.0
  0
ARC
  5
199
  8
1
 62
     7
 10
-317.55076496913188
 20
241.778216003464
 30
0.0
 40
1.5
 50
0.0
 51
90.0
  0
ARC
  5
19A
  8
1
 62
     7
 10
-147.0946092109285
 20
202.09145664725361
 30
0.0
 40
0.3000000000001467
 50
85.317583137723915
 51
175.31758313776709
  0
ARC
  5
19B
  8
1
 62
     7
 10
-146.5508321901751
 20
203.35127133619829
 30
0.0
 40
0.9999999999998877
 50
265.31758313773253
 51
338.35981983772632
  0
ARC
  5
19C
  8
1
 62
     7
 10
-146.26511790446091
 20
206.83959003536231
 30
0.0
 40
0.9999999999999104
 50
12.275346437749061
 51
85.317583137736847
  0
ARC
  5
19D
  8
1
 62
     7
 10
-146.59665002725509
 20
208.17109780865411
 30
0.0
 40
0.2999999999999554
 50
175.31758313770459
 51
265.31758313774611
  0
ARC
  5
19E
  8
1
 62
     7
 10
-213.53048212816341
 20
202.09145664725361
 30
0.0
 40
0.2999999999999582
 50
4.6824168622354598
 51
94.682416862270657
  0
ARC
  5
19F
  8
1
 62
     7
 10
-214.07425914891681
 20
203.35127133619829
 30
0.0
 40
1.000000000000109
 50
201.6401801622745
 51
274.68241686226912
  0
ARC
  5
1A0
  8
1
 62
     7
 10
-214.359973434631
 20
206.83959003536231
 30
0.0
 40
1.000000000000109
 50
94.682416862263167
 51
167.72465356225331
  0
ARC
  5
1A1
  8
1
 62
     7
 10
-214.02844131183679
 20
208.17109780865411
 30
0.0
 40
0.3000000000001658
 50
274.68241686225377
 51
4.6824168622923121
  0
ARC
  5
1A2
  8
1
 62
     7
 10
-202.55292944808249
 20
235.51859978200039
 30
0.0
 40
4.9999999999999876
 50
104.14636784352361
 51
165.85363215647681
  0
ARC
  5
1A3
  8
1
 62
     7
 10
-202.55292944808249
 20
191.0378322249274
 30
0.0
 40
5.0000000000000497
 50
194.14636784352101
 51
255.85363215647629
  0
ARC
  5
1A4
  8
1
 62
     7
 10
-202.55292944808249
 20
235.51859978200039
 30
0.0
 40
6.9999999999999813
 50
104.1463678435214
 51
165.85363215647871
  0
ARC
  5
1A5
  8
1
 62
     7
 10
-158.0721618910095
 20
235.51859978200039
 30
0.0
 40
4.9999999999999876
 50
14.14636784352229
 51
75.853632156477644
  0
ARC
  5
1A6
  8
1
 62
     7
 10
-158.0721618910095
 20
191.0378322249274
 30
0.0
 40
5.0000000000000089
 50
284.14636784352319
 51
345.85363215647652
  0
ARC
  5
1A7
  8
1
 62
     7
 10
-158.0721618910095
 20
235.51859978200039
 30
0.0
 40
7.0000000000000018
 50
14.146367843522061
 51
75.853632156477943
  0
ARC
  5
1A8
  8
1
 62
     7
 10
-174.91254566954609
 20
208.14971709167591
 30
0.0
 40
1.799999999999969
 50
133.81306146040271
 51
180.0
  0
ARC
  5
1A9
  8
1
 62
     7
 10
-178.012545669546
 20
206.9143465450675
 30
0.0
 40
1.299999999999897
 50
270.0
 51
0.0
  0
ARC
  5
1AA
  8
1
 62
     7
 10
-182.61254566954599
 20
206.9143465450675
 30
0.0
 40
1.30000000000001
 50
180.0
 51
270.0
  0
ARC
  5
1AB
  8
1
 62
     7
 10
-185.71254566954599
 20
208.14971709167591
 30
0.0
 40
1.7999999999999821
 50
0.0
 51
46.186938539597882
  0
ARC
  5
1AC
  8
1
 62
     7
 10
-323.05076496913199
 20
176.278216003464
 30
0.0
 40
2.0
 50
0.0
 51
90.0
  0
ARC
  5
1AD
  8
1
 62
     7
 10
-323.05076496913199
 20
243.278216003464
 30
0.0
 40
2.0
 50
0.0
 51
90.0
  0
ARC
  5
1AE
  8
1
 62
     7
 10
-400.55076496913199
 20
357.80636538155892
 30
0.0
 40
1.5
 50
180.0
 51
265.91438322002438
  0
ARC
  5
1AF
  8
1
 62
     7
 10
-393.55076496913199
 20
344.90968657645709
 30
0.0
 40
1.5
 50
180.0
 51
270.0
  0
ARC
  5
1B0
  8
1
 62
     7
 10
-388.05076496913199
 20
343.40968657645709
 30
0.0
 40
2.0
 50
180.0
 51
270.0
  0
ARC
  5
1B1
  8
1
 62
     7
 10
-400.55076496913199
 20
389.01300777135492
 30
0.0
 40
1.500000000000036
 50
94.085616779975496
 51
180.0
  0
ARC
  5
1B2
  8
1
 62
     7
 10
-393.55076496913199
 20
401.90968657645692
 30
0.0
 40
1.5
 50
90.0
 51
180.0
  0
ARC
  5
1B3
  8
1
 62
     7
 10
-388.05076496913199
 20
403.40968657645698
 30
0.0
 40
2.0
 50
90.0
 51
180.0
  0
ARC
  5
1B4
  8
1
 62
     7
 10
-323.05076496913199
 20
416.40968657645692
 30
0.0
 40
2.0
 50
0.0
 51
90.0
  0
ARC
  5
1B5
  8
1
 62
     7
 10
-388.05076496913199
 20
416.40968657645692
 30
0.0
 40
2.0
 50
90.0
 51
180.0
  0
ARC
  5
1B6
  8
1
 62
     7
 10
-388.05076496913199
 20
330.40968657645692
 30
0.0
 40
2.0
 50
180.0
 51
270.0
  0
ARC
  5
1B7
  8
1
 62
     7
 10
-323.05076496913199
 20
330.40968657645692
 30
0.0
 40
2.0
 50
270.0
 51
0.0
  0
ARC
  5
1B8
  8
1
 62
     7
 10
-332.10076496913211
 20
406.89429145389079
 30
0.0
 40
0.2999999999998977
 50
270.0
 51
0.0
  0
ARC
  5
1B9
  8
1
 62
     7
 10
-330.80076496913182
 20
407.33341159551549
 30
0.0
 40
0.9999999999999728
 50
106.9577633000126
 51
180.0
  0
ARC
  5
1BA
  8
1
 62
     7
 10
-327.30076496913199
 20
407.33341159551532
 30
0.0
 40
0.9999999999998864
 50
0.0
 51
73.042236700002064
  0
ARC
  5
1BB
  8
1
 62
     7
 10
-326.00076496913209
 20
406.89429145389079
 30
0.0
 40
0.3000000000001251
 50
180.0
 51
270.0
  0
ARC
  5
1BC
  8
1
 62
     7
 10
-385.10076496913172
 20
406.89429145389079
 30
0.0
 40
0.299999999999784
 50
270.0
 51
0.0
  0
ARC
  5
1BD
  8
1
 62
     7
 10
-383.80076496913171
 20
407.33341159551532
 30
0.0
 40
1.000000000000375
 50
106.9577632999987
 51
180.0
  0
ARC
  5
1BE
  8
1
 62
     7
 10
-380.30076496913182
 20
407.33341159551549
 30
0.0
 40
1.0000000000000571
 50
0.0
 51
73.042236699986219
  0
ARC
  5
1BF
  8
1
 62
     7
 10
-379.00076496913169
 20
406.89429145389079
 30
0.0
 40
0.3000000000001819
 50
180.0
 51
270.0
  0
ARC
  5
1C0
  8
1
 62
     7
 10
-379.00076496913169
 20
339.92508169902328
 30
0.0
 40
0.2999999999998408
 50
90.0
 51
180.0
  0
ARC
  5
1C1
  8
1
 62
     7
 10
-380.30076496913182
 20
339.48596155739858
 30
0.0
 40
0.9999999999998639
 50
286.95776330001451
 51
0.0
  0
ARC
  5
1C2
  8
1
 62
     7
 10
-383.80076496913171
 20
339.48596155739881
 30
0.0
 40
1.0
 50
180.0
 51
253.04223670000809
  0
ARC
  5
1C3
  8
1
 62
     7
 10
-385.10076496913172
 20
339.92508169902311
 30
0.0
 40
0.3000000000001819
 50
0.0
 51
90.0
  0
ARC
  5
1C4
  8
1
 62
     7
 10
-326.00076496913209
 20
339.92508169902311
 30
0.0
 40
0.2999999999998977
 50
90.0
 51
180.0
  0
ARC
  5
1C5
  8
1
 62
     7
 10
-327.30076496913199
 20
339.48596155739881
 30
0.0
 40
1.0000000000002871
 50
286.95776329999347
 51
0.0
  0
ARC
  5
1C6
  8
1
 62
     7
 10
-330.80076496913182
 20
339.48596155739858
 30
0.0
 40
1.000000000000113
 50
180.0
 51
253.042236699982
  0
ARC
  5
1C7
  8
1
 62
     7
 10
-332.10076496913211
 20
339.92508169902328
 30
0.0
 40
0.3000000000002387
 50
0.0
 51
90.0
  0
ARC
  5
1C8
  8
1
 62
     7
 10
-325.05076496913199
 20
374.60968657645691
 30
0.0
 40
1.2000000000001021
 50
0.0
 51
180.0
  0
ARC
  5
1C9
  8
1
 62
     7
 10
-325.05076496913199
 20
372.20968657645682
 30
0.0
 40
1.1999999999999891
 50
180.0
 51
0.0
  0
ARC
  5
1CA
  8
1
 62
     7
 10
-325.05076496913199
 20
373.40968657645692
 30
0.0
 40
4.0
 50
90.0
 51
270.0
  0
ARC
  5
1CB
  8
1
 62
     7
 10
-314.55076496913199
 20
354.51300777135509
 30
0.0
 40
1.49999999999998
 50
94.085616779975638
 51
163.627750108177
  0
ARC
  5
1CC
  8
1
 62
     7
 10
-319.58666335399431
 20
341.40968657645709
 30
0.0
 40
2.0
 50
90.0
 51
149.9999999999975
  0
ARC
  5
1CD
  8
1
 62
     7
 10
-304.05076496913199
 20
373.40968657645692
 30
0.0
 40
2.0
 50
90.0
 51
270.0
  0
ARC
  5
1CE
  8
1
 62
     7
 10
-314.55076496913199
 20
392.30636538155892
 30
0.0
 40
1.5000000000000511
 50
196.372249891823
 51
265.9143832200246
  0
ARC
  5
1CF
  8
1
 62
     7
 10
-319.58666335399431
 20
405.40968657645692
 30
0.0
 40
1.9999999999999181
 50
210.00000000000139
 51
270.0
  0
ARC
  5
1D0
  8
1
 62
     7
 10
-180.31254566954601
 20
147.278216003464
 30
0.0
 40
98.0
 50
75.853632156477843
 51
88.24577350941513
  0
ARC
  5
1D1
  8
1
 62
     7
 10
-180.31254566954601
 20
147.278216003464
 30
0.0
 40
99.0
 50
75.853632156477815
 51
87.973969437185573
  0
ARC
  5
1D2
  8
1
 62
     7
 10
-396.55076496913188
 20
232.17489480856599
 30
0.0
 40
1.49999999999998
 50
274.08561677997551
 51
343.62775010817631
  0
ARC
  5
1D3
  8
1
 62
     7
 10
-314.55076496913199
 20
194.38153719836191
 30
0.0
 40
1.5000000000000071
 50
94.085616779975567
 51
163.627750108176
  0
ARC
  5
1D4
  8
1
 62
     7
 10
-396.55076496913188
 20
194.38153719836191
 30
0.0
 40
1.500000000000004
 50
16.372249891824652
 51
85.914383220024433
  0
ARC
  5
1D5
  8
1
 62
     7
 10
-391.51486658426973
 20
245.278216003464
 30
0.0
 40
2.0
 50
270.0
 51
329.99999999999932
  0
ARC
  5
1D6
  8
1
 62
     7
 10
-392.05076496913199
 20
181.278216003464
 30
0.0
 40
2.0
 50
0.0
 51
90.0
  0
ARC
  5
1D7
  8
1
 62
     7
 10
-380.3007649691321
 20
203.528216003464
 30
0.0
 40
1.48750000000001
 50
90.0
 51
180.0
  0
ARC
  5
1D8
  8
1
 62
     7
 10
-383.8007649691321
 20
203.528216003464
 30
0.0
 40
1.48750000000001
 50
0.0
 51
90.0
  0
ARC
  5
1D9
  8
1
 62
     7
 10
-383.8007649691321
 20
207.028216003464
 30
0.0
 40
1.4874999999999821
 50
270.0
 51
0.0
  0
ARC
  5
1DA
  8
1
 62
     7
 10
-380.3007649691321
 20
207.028216003464
 30
0.0
 40
1.48750000000001
 50
180.0
 51
270.0
  0
ARC
  5
1DB
  8
1
 62
     7
 10
-314.55076496913199
 20
232.17489480856599
 30
0.0
 40
1.5000000000000511
 50
196.372249891823
 51
265.91438322002438
  0
ARC
  5
1DC
  8
1
 62
     7
 10
-152.12794079211201
 20
205.56393028917799
 30
0.0
 40
6.999999999999849
 50
338.35981983772803
 51
12.27534643773728
  0
ARC
  5
1DD
  8
1
 62
     7
 10
-208.49715054698001
 20
205.56393028917799
 30
0.0
 40
7.0000000000001279
 50
167.724653562263
 51
201.64018016227209
  0
ARC
  5
1DE
  8
1
 62
     7
 10
-158.0721618910095
 20
235.51859978200039
 30
0.0
 40
8.0000000000000124
 50
14.14636784352219
 51
75.853632156477616
  0
ARC
  5
1DF
  8
1
 62
     7
 10
-246.31254566954601
 20
213.278216003464
 30
0.0
 40
99.0
 50
353.03793730891562
 51
14.14636784352216
  0
ARC
  5
1E0
  8
1
 62
     7
 10
-202.55292944808249
 20
235.51859978200039
 30
0.0
 40
8.0000000000000409
 50
104.146367843523
 51
165.85363215647709
  0
ARC
  5
1E1
  8
1
 62
     7
 10
-180.31254566954601
 20
147.278216003464
 30
0.0
 40
99.0
 50
92.026030562814427
 51
104.1463678435222
  0
ARC
  5
1E2
  8
1
 62
     7
 10
-114.312545669546
 20
213.278216003464
 30
0.0
 40
99.000000000000057
 50
165.8536321564776
 51
186.96206269108441
  0
ARC
  5
1E3
  8
1
 62
     7
 10
-114.312545669546
 20
213.278216003464
 30
0.0
 40
97.999999999999943
 50
165.85363215647789
 51
197.69329466030209
  0
ARC
  5
1E4
  8
1
 62
     7
 10
-114.312545669546
 20
213.278216003464
 30
0.0
 40
96.0
 50
165.8536321564776
 51
194.14636784352211
  0
ARC
  5
1E5
  8
1
 62
     7
 10
-180.31254566954601
 20
279.27821600346402
 30
0.0
 40
96.0
 50
255.8536321564778
 51
284.14636784352211
  0
ARC
  5
1E6
  8
1
 62
     7
 10
-180.31254566954601
 20
147.278216003464
 30
0.0
 40
97.999999999999972
 50
91.754226490584912
 51
104.146367843522
  0
ARC
  5
1E7
  8
1
 62
     7
 10
-180.31254566954601
 20
147.278216003464
 30
0.0
 40
95.999999999999957
 50
75.853632156477815
 51
104.1463678435222
  0
ARC
  5
1E8
  8
1
 62
     7
 10
-204.3125456695459
 20
168.278216003464
 30
0.0
 40
1.0
 50
90.0
 51
180.0
  0
ARC
  5
1E9
  8
1
 62
     7
 10
-223.31254566954601
 20
176.278216003464
 30
0.0
 40
2.0
 50
90.0
 51
180.0
  0
ARC
  5
1EA
  8
1
 62
     7
 10
-211.48764536077351
 20
182.278216003464
 30
0.0
 40
4.0
 50
270.0
 51
17.693294660303181
  0
ARC
  5
1EB
  8
1
 62
     7
 10
-246.31254566954601
 20
213.278216003464
 30
0.0
 40
98.0
 50
342.30670533969783
 51
14.14636784352216
  0
ARC
  5
1EC
  8
1
 62
     7
 10
-246.31254566954601
 20
213.278216003464
 30
0.0
 40
96.0
 50
345.85363215647777
 51
14.146367843522169
  0
ARC
  5
1ED
  8
1
 62
     7
 10
-156.3125456695459
 20
168.278216003464
 30
0.0
 40
1.0
 50
0.0
 51
90.0
  0
ARC
  5
1EE
  8
1
 62
     7
 10
-137.3125456695459
 20
176.278216003464
 30
0.0
 40
2.0
 50
0.0
 51
90.0
  0
ARC
  5
1EF
  8
1
 62
     7
 10
-149.13744597831851
 20
182.278216003464
 30
0.0
 40
4.0000000000000062
 50
162.30670533969791
 51
270.0
  0
ARC
  5
1F0
  8
1
 62
     7
 10
-180.31254566954601
 20
213.278216003464
 30
0.0
 40
4.9999999999999689
 50
113.57817847820201
 51
66.421821521798023
  0
ARC
  5
1F1
  8
1
 62
     7
 10
-180.31254566954601
 20
213.778216003464
 30
0.0
 40
5.999999999999952
 50
313.81306146040282
 51
70.528779365509095
  0
ARC
  5
1F2
  8
1
 62
     7
 10
-180.31254566954601
 20
213.778216003464
 30
0.0
 40
6.0000000000000169
 50
109.47122063449051
 51
226.18693853959641
  0
ARC
  5
1F3
  8
1
 62
     7
 10
-319.58666335399431
 20
245.278216003464
 30
0.0
 40
1.9999999999999181
 50
210.00000000000139
 51
270.0
  0
ARC
  5
1F4
  8
1
 62
     7
 10
-319.05076496913199
 20
181.278216003464
 30
0.0
 40
2.0
 50
90.0
 51
180.0
  0
ARC
  5
1F5
  8
1
 62
     7
 10
-349.05076496913188
 20
182.278216003464
 30
0.0
 40
4.0
 50
180.0
 51
270.0
  0
ARC
  5
1F6
  8
1
 62
     7
 10
-362.05076496913182
 20
182.278216003464
 30
0.0
 40
4.0
 50
270.0
 51
0.0
  0
ARC
  5
1F7
  8
1
 62
     7
 10
-330.80076496913182
 20
203.528216003464
 30
0.0
 40
1.487500000000068
 50
0.0
 51
90.0
  0
ARC
  5
1F8
  8
1
 62
     7
 10
-327.30076496913182
 20
203.528216003464
 30
0.0
 40
1.48750000000001
 50
90.0
 51
180.0
  0
ARC
  5
1F9
  8
1
 62
     7
 10
-327.30076496913182
 20
207.028216003464
 30
0.0
 40
1.4874999999998979
 50
180.0
 51
270.0
  0
ARC
  5
1FA
  8
1
 62
     7
 10
-330.80076496913182
 20
207.028216003464
 30
0.0
 40
1.4874999999999821
 50
270.0
 51
0.0
  0
ARC
  5
1FB
  8
1
 62
     7
 10
-386.05076496913188
 20
374.60968657645691
 30
0.0
 40
1.1999999999998741
 50
0.0
 51
180.0
  0
ARC
  5
1FC
  8
1
 62
     7
 10
-386.05076496913188
 20
372.20968657645682
 30
0.0
 40
1.2000000000001021
 50
180.0
 51
0.0
  0
ARC
  5
1FD
  8
1
 62
     7
 10
-386.05076496913188
 20
373.40968657645692
 30
0.0
 40
4.0
 50
270.0
 51
90.0
  0
ARC
  5
1FE
  8
1
 62
     7
 10
-396.55076496913188
 20
354.51300777135509
 30
0.0
 40
1.499999999999996
 50
16.372249891823589
 51
85.914383220028682
  0
ARC
  5
1FF
  8
1
 62
     7
 10
-391.51486658426973
 20
341.40968657645709
 30
0.0
 40
1.999999999999966
 50
30.00000000000054
 51
90.0
  0
ARC
  5
200
  8
1
 62
     7
 10
-407.05076496913199
 20
373.40968657645692
 30
0.0
 40
2.0
 50
270.0
 51
90.0
  0
ARC
  5
201
  8
1
 62
     7
 10
-396.55076496913188
 20
392.30636538155892
 30
0.0
 40
1.500000000000085
 50
274.08561677997102
 51
343.62775010817631
  0
ARC
  5
202
  8
1
 62
     7
 10
-391.51486658426973
 20
405.40968657645692
 30
0.0
 40
2.0
 50
270.0
 51
329.99999999999932
  0
ARC
  5
203
  8
1
 62
     7
 10
-349.05076496913188
 20
332.40968657645692
 30
0.0
 40
4.0
 50
180.0
 51
270.0
  0
ARC
  5
204
  8
1
 62
     7
 10
-362.05076496913182
 20
332.40968657645692
 30
0.0
 40
4.0
 50
270.0
 51
0.0
  0
ARC
  5
205
  8
1
 62
     7
 10
-349.05076496913188
 20
414.40968657645709
 30
0.0
 40
4.0
 50
90.0
 51
180.0
  0
ARC
  5
206
  8
1
 62
     7
 10
-362.05076496913182
 20
414.40968657645709
 30
0.0
 40
4.0
 50
0.0
 51
90.0
  0
ARC
  5
207
  8
1
 62
     7
 10
-329.05076496913182
 20
401.59429145389078
 30
0.0
 40
6.9999999999998419
 50
73.04223669999773
 51
106.9577633000047
  0
ARC
  5
208
  8
1
 62
     7
 10
-382.05076496913199
 20
401.59429145389078
 30
0.0
 40
7.0000000000003331
 50
73.042236699994092
 51
106.9577633000019
  0
ARC
  5
209
  8
1
 62
     7
 10
-382.05076496913199
 20
345.22508169902318
 30
0.0
 40
6.9999999999998082
 50
253.04223669999871
 51
286.95776330000621
  0
ARC
  5
20A
  8
1
 62
     7
 10
-329.05076496913182
 20
345.22508169902318
 30
0.0
 40
7.0000000000001528
 50
253.04223669999419
 51
286.957763300002
  0
CIRCLE
  5
20B
  8
1
 62
     7
 10
-325.05076496913199
 20
372.20968657645682
 30
0.0
 40
0.9199999999999022
  0
CIRCLE
  5
20C
  8
1
 62
     7
 10
-325.05076496913199
 20
374.60968657645691
 30
0.0
 40
0.9199999999999022
  0
CIRCLE
  5
20D
  8
1
 62
     7
 10
-325.05076496913199
 20
373.40968657645692
 30
0.0
 40
3.5
  0
CIRCLE
  5
20E
  8
1
 62
     7
 10
-382.0507649691321
 20
205.278216003464
 30
0.0
 40
4.0
  0
CIRCLE
  5
20F
  8
1
 62
     7
 10
-382.0507649691321
 20
205.278216003464
 30
0.0
 40
2.75
  0
CIRCLE
  5
210
  8
1
 62
     7
 10
-158.0386820621697
 20
235.55207961084031
 30
0.0
 40
3.8000000000000109
  0
CIRCLE
  5
211
  8
1
 62
     7
 10
-158.0386820621697
 20
235.55207961084031
 30
0.0
 40
3.5
  0
CIRCLE
  5
212
  8
1
 62
     7
 10
-158.0386820621697
 20
235.55207961084031
 30
0.0
 40
2.9803847577294111
  0
CIRCLE
  5
213
  8
1
 62
     7
 10
-158.0386820621697
 20
191.00435239608771
 30
0.0
 40
2.9803847577294111
  0
CIRCLE
  5
214
  8
1
 62
     7
 10
-158.0386820621697
 20
191.00435239608771
 30
0.0
 40
3.5
  0
CIRCLE
  5
215
  8
1
 62
     7
 10
-158.0386820621697
 20
191.00435239608771
 30
0.0
 40
3.8000000000000109
  0
CIRCLE
  5
216
  8
1
 62
     7
 10
-202.58640927692221
 20
191.00435239608771
 30
0.0
 40
3.7999999999999821
  0
CIRCLE
  5
217
  8
1
 62
     7
 10
-202.58640927692221
 20
191.00435239608771
 30
0.0
 40
3.5
  0
CIRCLE
  5
218
  8
1
 62
     7
 10
-202.58640927692221
 20
191.00435239608771
 30
0.0
 40
2.9803847577292961
  0
CIRCLE
  5
219
  8
1
 62
     7
 10
-202.58640927692221
 20
235.55207961084031
 30
0.0
 40
2.9803847577292961
  0
CIRCLE
  5
21A
  8
1
 62
     7
 10
-202.58640927692221
 20
235.55207961084031
 30
0.0
 40
3.5
  0
CIRCLE
  5
21B
  8
1
 62
     7
 10
-202.58640927692221
 20
235.55207961084031
 30
0.0
 40
3.7999999999999821
  0
CIRCLE
  5
21C
  8
1
 62
     7
 10
-180.31254566954601
 20
213.278216003464
 30
0.0
 40
15.0
  0
CIRCLE
  5
21D
  8
1
 62
     7
 10
-180.31254566954601
 20
213.278216003464
 30
0.0
 40
17.0
  0
CIRCLE
  5
21E
  8
1
 62
     7
 10
-180.31254566954601
 20
213.278216003464
 30
0.0
 40
17.5
  0
CIRCLE
  5
21F
  8
1
 62
     7
 10
-178.4041083956964
 20
206.8949568829498
 30
0.0
 40
0.8000000000000113
  0
CIRCLE
  5
220
  8
1
 62
     7
 10
-182.22098294339551
 20
206.8949568829498
 30
0.0
 40
0.8000000000000113
  0
CIRCLE
  5
221
  8
1
 62
     7
 10
-180.31254566954601
 20
234.278216003464
 30
0.0
 40
2.4000000000000061
  0
CIRCLE
  5
222
  8
1
 62
     7
 10
-201.31254566954601
 20
213.278216003464
 30
0.0
 40
2.4000000000000061
  0
CIRCLE
  5
223
  8
1
 62
     7
 10
-180.31254566954601
 20
192.278216003464
 30
0.0
 40
2.4000000000000061
  0
CIRCLE
  5
224
  8
1
 62
     7
 10
-159.3125456695459
 20
213.278216003464
 30
0.0
 40
2.4000000000000061
  0
CIRCLE
  5
225
  8
1
 62
     7
 10
-329.05076496913182
 20
205.278216003464
 30
0.0
 40
4.0
  0
CIRCLE
  5
226
  8
1
 62
     7
 10
-329.05076496913182
 20
205.278216003464
 30
0.0
 40
2.75
  0
CIRCLE
  5
227
  8
1
 62
     7
 10
-386.05076496913188
 20
372.20968657645682
 30
0.0
 40
0.9199999999999022
  0
CIRCLE
  5
228
  8
1
 62
     7
 10
-386.05076496913188
 20
374.60968657645691
 30
0.0
 40
0.9199999999999022
  0
CIRCLE
  5
229
  8
1
 62
     7
 10
-386.05076496913188
 20
373.40968657645692
 30
0.0
 40
3.5
  0
CIRCLE
  5
22A
  8
1
 62
     7
 10
-330.55076496913188
 20
412.40968657645698
 30
0.0
 40
3.25
  0
CIRCLE
  5
22B
  8
1
 62
     7
 10
-380.55076496913182
 20
412.40968657645698
 30
0.0
 40
3.25
  0
CIRCLE
  5
22C
  8
1
 62
     7
 10
-380.55076496913182
 20
334.40968657645709
 30
0.0
 40
3.25
  0
CIRCLE
  5
22D
  8
1
 62
     7
 10
-330.55076496913188
 20
334.40968657645709
 30
0.0
 40
3.25
  0
TEXT
  5
22E
  8
1
 62
     3
 10
-193.81254566954601
 20
172.278216003464
 30
0.0
 40
6.0
  1
INPUT
 41
0.8732691000000002
  7
COMPLEX
  0
TEXT
  5
230
  8
1
 62
     7
 10
-365.90983674940998
 20
291.82974389955189
 30
0.0
 40
4.0
  1
AMU 20C
 41
0.9
  7
SIMPLEX
  0
ENDSEC
  0
EOF
