  0
SECTION
  2
HEADER
  9
$ACADVER
  1
AC1009
  9
$INSBASE
 10
0.0
 20
0.0
 30
0.0
  9
$EXTMIN
 10
-89.116035989389246
 20
82.691881169230314
 30
0.0
  9
$EXTMAX
 10
133.16848072136079
 20
274.04652069019011
 30
0.0
  9
$LIMMIN
 10
-89.116035989389246
 20
82.691881169230314
  9
$LIMMAX
 10
132.9613739401743
 20
274.04652069019011
  9
$ORTHOMODE
 70
     0
  9
$REGENMODE
 70
     1
  9
$FILLMODE
 70
     1
  9
$QTEXTMODE
 70
     0
  9
$MIRRTEXT
 70
     1
  9
$DRAGMODE
 70
     2
  9
$LTSCALE
 40
1.0
  9
$OSMODE
 70
    37
  9
$ATTMODE
 70
     1
  9
$TEXTSIZE
 40
3.5
  9
$TRACEWID
 40
0.5
  9
$TEXTSTYLE
  7
STANDARD
  9
$CLAYER
  8
0
  9
$CELTYPE
  6
BYLAYER
  9
$CECOLOR
 62
   256
  9
$DIMSCALE
 40
1.0
  9
$DIMASZ
 40
0.18
  9
$DIMEXO
 40
0.0625
  9
$DIMDLI
 40
0.38
  9
$DIMRND
 40
0.0
  9
$DIMDLE
 40
0.0
  9
$DIMEXE
 40
0.18
  9
$DIMTP
 40
0.0
  9
$DIMTM
 40
0.0
  9
$DIMTXT
 40
0.18
  9
$DIMCEN
 40
0.09
  9
$DIMTSZ
 40
0.0
  9
$DIMTOL
 70
     0
  9
$DIMLIM
 70
     0
  9
$DIMTIH
 70
     1
  9
$DIMTOH
 70
     1
  9
$DIMSE1
 70
     0
  9
$DIMSE2
 70
     0
  9
$DIMTAD
 70
     0
  9
$DIMZIN
 70
     0
  9
$DIMBLK
  1

  9
$DIMASO
 70
     1
  9
$DIMSHO
 70
     1
  9
$DIMPOST
  1

  9
$DIMAPOST
  1

  9
$DIMALT
 70
     0
  9
$DIMALTD
 70
     2
  9
$DIMALTF
 40
25.399999999999999
  9
$DIMLFAC
 40
1.0
  9
$DIMTOFL
 70
     0
  9
$DIMTVP
 40
0.0
  9
$DIMTIX
 70
     0
  9
$DIMSOXD
 70
     0
  9
$DIMSAH
 70
     0
  9
$DIMBLK1
  1

  9
$DIMBLK2
  1

  9
$DIMSTYLE
  2
STANDARD
  9
$DIMCLRD
 70
     0
  9
$DIMCLRE
 70
     0
  9
$DIMCLRT
 70
     0
  9
$DIMTFAC
 40
1.0
  9
$DIMGAP
 40
0.09
  9
$LUNITS
 70
     2
  9
$LUPREC
 70
     4
  9
$SKETCHINC
 40
0.1
  9
$FILLETRAD
 40
2.0
  9
$AUNITS
 70
     0
  9
$AUPREC
 70
     0
  9
$MENU
  1
ACAD
  9
$ELEVATION
 40
0.0
  9
$PELEVATION
 40
0.0
  9
$THICKNESS
 40
0.0
  9
$LIMCHECK
 70
     0
  9
$BLIPMODE
 70
     0
  9
$CHAMFERA
 40
0.0
  9
$CHAMFERB
 40
0.0
  9
$SKPOLY
 70
     0
  9
$TDCREATE
 40
2452093.9066297449
  9
$TDUPDATE
 40
2452093.9075394678
  9
$TDINDWG
 40
0.0009135417
  9
$TDUSRTIMER
 40
0.0009135417
  9
$USRTIMER
 70
     1
  9
$ANGBASE
 50
0.0
  9
$ANGDIR
 70
     0
  9
$PDMODE
 70
     0
  9
$PDSIZE
 40
0.0
  9
$PLINEWID
 40
0.0
  9
$COORDS
 70
     1
  9
$SPLFRAME
 70
     0
  9
$SPLINETYPE
 70
     6
  9
$SPLINESEGS
 70
     8
  9
$ATTDIA
 70
     0
  9
$ATTREQ
 70
     1
  9
$HANDLING
 70
 10241
  9
$HANDSEED
  5
246
  9
$SURFTAB1
 70
     6
  9
$SURFTAB2
 70
     6
  9
$SURFTYPE
 70
     6
  9
$SURFU
 70
     6
  9
$SURFV
 70
     6
  9
$UCSNAME
  2

  9
$UCSORG
 10
0.0
 20
0.0
 30
0.0
  9
$UCSXDIR
 10
1.0
 20
0.0
 30
0.0
  9
$UCSYDIR
 10
0.0
 20
1.0
 30
0.0
  9
$PUCSNAME
  2

  9
$PUCSORG
 10
0.0
 20
0.0
 30
0.0
  9
$PUCSXDIR
 10
1.0
 20
0.0
 30
0.0
  9
$PUCSYDIR
 10
0.0
 20
1.0
 30
0.0
  9
$USERI1
 70
     0
  9
$USERI2
 70
     0
  9
$USERI3
 70
     0
  9
$USERI4
 70
     0
  9
$USERI5
 70
     0
  9
$USERR1
 40
0.0
  9
$USERR2
 40
0.0
  9
$USERR3
 40
0.0
  9
$USERR4
 40
0.0
  9
$USERR5
 40
0.0
  9
$WORLDVIEW
 70
     1
  9
$SHADEDGE
 70
     3
  9
$SHADEDIF
 70
    70
  9
$TILEMODE
 70
     1
  9
$MAXACTVP
 70
    64
  9
$PLIMCHECK
 70
     0
  9
$PEXTMIN
 10
1.0000000000000000E+020
 20
1.0000000000000000E+020
 30
1.0000000000000000E+020
  9
$PEXTMAX
 10
-1.0000000000000000E+020
 20
-1.0000000000000000E+020
 30
-1.0000000000000000E+020
  9
$PLIMMIN
 10
0.0
 20
0.0
  9
$PLIMMAX
 10
12.0
 20
9.0
  9
$UNITMODE
 70
     0
  9
$VISRETAIN
 70
     1
  9
$PLINEGEN
 70
     0
  9
$PSLTSCALE
 70
     1
  0
ENDSEC
  0
SECTION
  2
TABLES
  0
TABLE
  2
VPORT
 70
     2
  0
VPORT
  2
*ACTIVE
 70
     0
 10
0.0
 20
0.0
 11
1.0
 21
1.0
 12
-35.629121805760512
 22
177.4766839600708
 13
0.0
 23
0.0
 14
1.0
 24
1.0
 15
0.0
 25
0.0
 16
0.0
 26
0.0
 36
1.0
 17
0.0
 27
0.0
 37
0.0
 40
9.0000000164645826
 41
2.5693779904306222
 42
50.0
 43
0.0
 44
0.0
 50
0.0
 51
0.0
 71
     0
 72
   100
 73
     1
 74
     1
 75
     0
 76
     0
 77
     0
 78
     0
  0
ENDTAB
  0
TABLE
  2
LTYPE
 70
     9
  0
LTYPE
  2
CONTINUOUS
 70
     0
  3
Solid line
 72
    65
 73
     0
 40
0.0
  0
LTYPE
  2
BORDER
 70
     0
  3
__ __ . __ __ .
 72
    65
 73
     6
 40
10.22724914149306
 49
2.9220711832837312
 49
-1.4610355916418649
 49
2.9220711832837312
 49
-1.4610355916418649
 49
0.0
 49
-1.4610355916418649
  0
LTYPE
  2
CENTER
 70
     0
  3
____ _ ____ _
 72
    65
 73
     4
 40
11.688284733134919
 49
7.3051779582093266
 49
-1.4610355916418649
 49
1.4610355916418649
 49
-1.4610355916418649
  0
LTYPE
  2
DASHDOT
 70
     0
  3
__ . __ . __ .
 72
    65
 73
     4
 40
5.8441423665674614
 49
2.9220711832837312
 49
-1.4610355916418649
 49
0.0
 49
-1.4610355916418649
  0
LTYPE
  2
DASHED
 70
     0
  3
__ __ __ __ __
 72
    65
 73
     2
 40
4.3831067749255963
 49
2.9220711832837312
 49
-1.4610355916418649
  0
LTYPE
  2
DIVIDE
 70
     0
  3
__ . . __ . . 
 72
    65
 73
     6
 40
7.3051779582093266
 49
2.9220711832837312
 49
-1.4610355916418649
 49
0.0
 49
-1.4610355916418649
 49
0.0
 49
-1.4610355916418649
  0
LTYPE
  2
DOT
 70
     0
  3
..............
 72
    65
 73
     4
 40
2.9220711832837312
 49
0.0
 49
-1.4610355916418649
 49
0.0
 49
-1.4610355916418649
  0
LTYPE
  2
HIDDEN
 70
     0
  3
_ _ _ _ _ _ _
 72
    65
 73
     2
 40
2.1915533874627982
 49
1.4610355916418649
 49
-0.7305177958209327
  0
LTYPE
  2
PHANTOM
 70
     0
  3
_____ _ _ _____ _ _ 
 72
    65
 73
     6
 40
14.61035591641865
 49
7.3051779582093266
 49
-1.4610355916418649
 49
1.4610355916418649
 49
-1.4610355916418649
 49
1.4610355916418649
 49
-1.4610355916418649
  0
ENDTAB
  0
TABLE
  2
LAYER
 70
     2
  0
LAYER
  2
0
 70
     0
 62
     7
  6
CONTINUOUS
  0
LAYER
  2
1
 70
     0
 62
     7
  6
CONTINUOUS
  0
ENDTAB
  0
TABLE
  2
STYLE
 70
     4
  0
STYLE
  2
STANDARD
 70
     0
 40
0.0
 41
1.0
 50
0.0
 71
     0
 42
3.5
  3
txt
  4

  0
STYLE
  2
SIMPLEX
 70
     0
 40
0.0
 41
1.0
 50
0.0
 71
     0
 42
3.5
  3
simplex
  4

  0
STYLE
  2
COMPLEX
 70
     0
 40
0.0
 41
1.0
 50
0.0
 71
     0
 42
3.5
  3
complex
  4

  0
STYLE
  2
ITALIC
 70
     0
 40
0.0
 41
1.0
 50
0.0
 71
     0
 42
3.5
  3
italic
  4

  0
ENDTAB
  0
TABLE
  2
VIEW
 70
     0
  0
ENDTAB
  0
TABLE
  2
UCS
 70
     0
  0
ENDTAB
  0
TABLE
  2
APPID
 70
     1
  0
APPID
  2
ACAD
 70
     0
  0
ENDTAB
  0
TABLE
  2
DIMSTYLE
 70
     1
  0
DIMSTYLE
  2
STANDARD
 70
     0
  3

  4

  5

  6

  7

 40
1.0
 41
0.18
 42
0.0625
 43
0.38
 44
0.18
 45
0.0
 46
0.0
 47
0.0
 48
0.0
140
0.18
141
0.09
142
0.0
143
25.399999999999999
144
1.0
145
0.0
146
1.0
147
0.09
 71
     0
 72
     0
 73
     1
 74
     1
 75
     0
 76
     0
 77
     0
 78
     0
170
     0
171
     2
172
     0
173
     0
174
     0
175
     0
176
     0
177
     0
178
     0
  0
ENDTAB
  0
ENDSEC
  0
SECTION
  2
BLOCKS
  0
BLOCK
  8
0
  2
$MODEL_SPACE
 70
     0
 10
0.0
 20
0.0
 30
0.0
  3
$MODEL_SPACE
  1

  0
ENDBLK
  5
20
  8
0
  0
BLOCK
 67
     1
  8
0
  2
$PAPER_SPACE
 70
     0
 10
0.0
 20
0.0
 30
0.0
  3
$PAPER_SPACE
  1

  0
ENDBLK
  5
1C
 67
     1
  8
0
  0
ENDSEC
  0
SECTION
  2
ENTITIES
  0
LINE
  5
33
  8
1
 62
     7
 10
-57.116035989389253
 20
234.7999261864239
 30
0.0
 11
-57.116035989389211
 21
214.67387402509411
 31
0.0
  0
LINE
  5
34
  8
1
 62
     7
 10
-57.116035989389232
 20
242.7999261864239
 30
0.0
 11
-57.116035989389211
 21
262.92597834775358
 31
0.0
  0
LINE
  5
35
  8
1
 62
     7
 10
-60.116035989389218
 20
235.79992618642399
 30
0.0
 11
-60.116035989389218
 21
241.79992618642399
 31
0.0
  0
LINE
  5
36
  8
1
 62
     7
 10
-8.1160359893892462
 20
235.79992618642399
 30
0.0
 11
-8.1160359893892462
 21
241.79992618642399
 31
0.0
  0
LINE
  5
37
  8
1
 62
     7
 10
95.961373940174298
 20
139.55011728927269
 30
0.0
 11
95.961373940174298
 21
140.55217173471311
 31
0.0
  0
LINE
  5
38
  8
1
 62
     7
 10
103.9613739401743
 20
139.55011728927261
 30
0.0
 11
103.9613739401743
 21
140.55217173471311
 31
0.0
  0
LINE
  5
39
  8
1
 62
     7
 10
-57.116035989389211
 20
214.67387402509411
 30
0.0
 11
-49.116035989389211
 21
214.67387402509439
 31
0.0
  0
LINE
  5
3A
  8
1
 62
     7
 10
-49.116035989389211
 20
214.79992618642399
 30
0.0
 11
-49.116035989389211
 21
214.67387402509439
 31
0.0
  0
LINE
  5
3B
  8
1
 62
     7
 10
-50.366035989389211
 20
214.37387402509441
 30
0.0
 11
-50.366035989389211
 21
213.93475388346991
 31
0.0
  0
LINE
  5
3C
  8
1
 62
     7
 10
-55.866035989389211
 20
213.93475388346991
 30
0.0
 11
-55.866035989389211
 21
214.3738740250943
 31
0.0
  0
LINE
  5
3D
  8
1
 62
     7
 10
-64.116035989389232
 20
224.20334817356229
 30
0.0
 11
-64.816035989389221
 21
223.7992029851294
 31
0.0
  0
LINE
  5
3E
  8
1
 62
     7
 10
-64.116035989389232
 20
223.39505779669679
 30
0.0
 11
-64.816035989389221
 21
222.99091260826401
 31
0.0
  0
LINE
  5
3F
  8
1
 62
     7
 10
-64.816035989389221
 20
226.547130390913
 30
0.0
 11
-64.116035989389232
 21
226.547130390913
 31
0.0
  0
LINE
  5
40
  8
1
 62
     7
 10
-64.816035989389221
 20
220.64713039091299
 30
0.0
 11
-64.816035989389221
 21
226.547130390913
 31
0.0
  0
LINE
  5
41
  8
1
 62
     7
 10
-64.116035989389232
 20
220.64713039091299
 30
0.0
 11
-64.816035989389221
 21
220.64713039091299
 31
0.0
  0
LINE
  5
42
  8
1
 62
     7
 10
-67.616035989389218
 20
220.84713039091309
 30
0.0
 11
-67.616035989389218
 21
226.34713039091321
 31
0.0
  0
LINE
  5
43
  8
1
 62
     7
 10
-64.816035989389235
 20
220.84713039091309
 30
0.0
 11
-67.616035989389218
 21
220.84713039091309
 31
0.0
  0
LINE
  5
44
  8
1
 62
     7
 10
-67.616035989389218
 20
220.84713039091309
 30
0.0
 11
-67.816035989389221
 21
221.1935405524269
 31
0.0
  0
LINE
  5
45
  8
1
 62
     7
 10
-67.816035989389221
 20
221.1935405524269
 30
0.0
 11
-67.816035989389221
 21
226.00072022939921
 31
0.0
  0
LINE
  5
46
  8
1
 62
     7
 10
-67.816035989389221
 20
226.00072022939921
 30
0.0
 11
-67.616035989389218
 21
226.34713039091321
 31
0.0
  0
LINE
  5
47
  8
1
 62
     7
 10
-67.616035989389218
 20
226.34713039091321
 30
0.0
 11
-64.816035989389235
 21
226.34713039091321
 31
0.0
  0
LINE
  5
48
  8
1
 62
     7
 10
-58.116035989389218
 20
215.7999261864241
 30
0.0
 11
-57.116035989389253
 21
215.7999261864241
 31
0.0
  0
LINE
  5
49
  8
1
  6
DASHDOT
 62
     3
 10
-46.869441485622978
 20
210.79992618642399
 30
0.0
 11
-61.36263049315545
 21
210.79992618642399
 31
0.0
  0
LINE
  5
4A
  8
1
  6
DASHDOT
 62
     3
 10
-54.116035989389211
 20
203.55333168265781
 30
0.0
 11
-54.116035989389211
 21
218.04652069019019
 31
0.0
  0
LINE
  5
4B
  8
1
 62
     7
 10
-64.554018622094617
 20
227.85467401551219
 30
0.0
 11
-67.678053356683833
 21
228.24517835733579
 31
0.0
  0
LINE
  5
4C
  8
1
 62
     7
 10
-60.116035989389218
 20
217.7999261864241
 30
0.0
 11
-63.116035989389232
 21
217.7999261864241
 31
0.0
  0
LINE
  5
4D
  8
1
 62
     7
 10
-49.116035989389211
 20
262.92597834775353
 30
0.0
 11
-57.116035989389211
 21
262.92597834775358
 31
0.0
  0
LINE
  5
4E
  8
1
 62
     7
 10
-49.116035989389211
 20
262.92597834775353
 30
0.0
 11
-49.116035989389211
 21
262.79992618642387
 31
0.0
  0
LINE
  5
4F
  8
1
 62
     7
 10
-50.366035989389211
 20
263.66509848937801
 30
0.0
 11
-50.366035989389211
 21
263.2259783477536
 31
0.0
  0
LINE
  5
50
  8
1
 62
     7
 10
-55.866035989389211
 20
263.2259783477536
 30
0.0
 11
-55.866035989389211
 21
263.66509848937801
 31
0.0
  0
LINE
  5
51
  8
1
 62
     7
 10
-64.116035989389232
 20
254.60893976458379
 30
0.0
 11
-64.816035989389221
 21
254.2047945761511
 31
0.0
  0
LINE
  5
52
  8
1
 62
     7
 10
-64.116035989389232
 20
253.80064938771829
 30
0.0
 11
-64.816035989389221
 21
253.3965041992856
 31
0.0
  0
LINE
  5
53
  8
1
 62
     7
 10
-64.116035989389232
 20
251.05272198193481
 30
0.0
 11
-64.816035989389221
 21
251.05272198193481
 31
0.0
  0
LINE
  5
54
  8
1
 62
     7
 10
-64.816035989389221
 20
251.05272198193481
 30
0.0
 11
-64.816035989389221
 21
256.95272198193481
 31
0.0
  0
LINE
  5
55
  8
1
 62
     7
 10
-64.816035989389221
 20
256.95272198193481
 30
0.0
 11
-64.116035989389232
 21
256.95272198193481
 31
0.0
  0
LINE
  5
56
  8
1
 62
     7
 10
-67.616035989389218
 20
251.2527219819348
 30
0.0
 11
-67.616035989389218
 21
256.75272198193483
 31
0.0
  0
LINE
  5
57
  8
1
 62
     7
 10
-67.616035989389218
 20
256.75272198193483
 30
0.0
 11
-64.816035989389235
 21
256.75272198193483
 31
0.0
  0
LINE
  5
58
  8
1
 62
     7
 10
-67.816035989389221
 20
256.40631182042091
 30
0.0
 11
-67.616035989389218
 21
256.75272198193483
 31
0.0
  0
LINE
  5
59
  8
1
 62
     7
 10
-67.816035989389221
 20
251.5991321434486
 30
0.0
 11
-67.816035989389221
 21
256.40631182042091
 31
0.0
  0
LINE
  5
5A
  8
1
 62
     7
 10
-67.616035989389218
 20
251.2527219819348
 30
0.0
 11
-67.816035989389221
 21
251.5991321434486
 31
0.0
  0
LINE
  5
5B
  8
1
 62
     7
 10
-64.816035989389235
 20
251.2527219819348
 30
0.0
 11
-67.616035989389218
 21
251.2527219819348
 31
0.0
  0
LINE
  5
5C
  8
1
 62
     7
 10
-54.916035989389208
 20
239.99992618642389
 30
0.0
 11
-54.916035989389208
 21
237.599926186424
 31
0.0
  0
LINE
  5
5D
  8
1
 62
     7
 10
-57.316035989389214
 20
237.599926186424
 30
0.0
 11
-57.316035989389214
 21
239.99992618642389
 31
0.0
  0
LINE
  5
5E
  8
1
 62
     7
 10
-61.616035989389211
 20
235.79992618642399
 30
0.0
 11
-57.918811627121222
 21
235.79992618642399
 31
0.0
  0
LINE
  5
5F
  8
1
 62
     7
 10
-57.116035989389253
 20
234.7999261864239
 30
0.0
 11
-56.616035989389211
 21
234.7999261864239
 31
0.0
  0
LINE
  5
60
  8
1
 62
     7
 10
-56.616035989389211
 20
242.7999261864239
 30
0.0
 11
-57.116035989389232
 21
242.7999261864239
 31
0.0
  0
LINE
  5
61
  8
1
 62
     7
 10
-59.116035989389211
 20
206.7999261864239
 30
0.0
 11
-59.116035989389211
 21
235.79992618642399
 31
0.0
  0
LINE
  5
62
  8
1
 62
     7
 10
-57.918811627121222
 20
241.79992618642399
 30
0.0
 11
-61.616035989389211
 21
241.79992618642399
 31
0.0
  0
LINE
  5
63
  8
1
 62
     7
 10
-57.116035989389253
 20
261.79992618642382
 30
0.0
 11
-58.116035989389218
 21
261.79992618642382
 31
0.0
  0
LINE
  5
64
  8
1
  6
DASHDOT
 62
     3
 10
-61.36263049315545
 20
266.79992618642387
 30
0.0
 11
-46.869441485622978
 21
266.79992618642387
 31
0.0
  0
LINE
  5
65
  8
1
  6
DASHDOT
 62
     3
 10
-54.116035989389211
 20
259.5533316826577
 30
0.0
 11
-54.116035989389211
 21
274.04652069019011
 31
0.0
  0
LINE
  5
66
  8
1
 62
     7
 10
-67.678053356683833
 20
249.3546740155121
 30
0.0
 11
-64.554018622094617
 21
249.74517835733579
 31
0.0
  0
LINE
  5
67
  8
1
 62
     7
 10
-63.116035989389232
 20
259.79992618642387
 30
0.0
 11
-60.116035989389218
 21
259.79992618642387
 31
0.0
  0
LINE
  5
68
  8
1
 62
     7
 10
-59.116035989389211
 20
241.79992618642399
 30
0.0
 11
-59.116035989389211
 21
270.79992618642387
 31
0.0
  0
LINE
  5
69
  8
1
 62
     7
 10
-61.616035989389211
 20
217.7999261864239
 30
0.0
 11
-61.616035989389211
 21
259.79992618642387
 31
0.0
  0
LINE
  5
6A
  8
1
 62
     7
 10
-64.116035989389232
 20
218.79992618642399
 30
0.0
 11
-64.116035989389204
 21
258.79992618642387
 31
0.0
  0
LINE
  5
6B
  8
1
 62
     7
 10
-68.116035989389232
 20
228.7413172956926
 30
0.0
 11
-68.116035989389232
 21
248.8585350771553
 31
0.0
  0
LINE
  5
6C
  8
1
 62
     7
 10
-83.616035989389218
 20
241.79992618642399
 30
0.0
 11
-68.116035989389232
 21
241.79992618642399
 31
0.0
  0
LINE
  5
6D
  8
1
 62
     7
 10
-84.116035989389218
 20
236.2999261864239
 30
0.0
 11
-84.116035989389218
 21
241.2999261864239
 31
0.0
  0
LINE
  5
6E
  8
1
 62
     7
 10
-84.116035989389218
 20
241.2999261864239
 30
0.0
 11
-83.616035989389218
 21
241.79992618642399
 31
0.0
  0
LINE
  5
6F
  8
1
 62
     7
 10
-84.116035989389218
 20
236.2999261864239
 30
0.0
 11
-83.616035989389218
 21
235.79992618642399
 31
0.0
  0
LINE
  5
70
  8
1
 62
     7
 10
-68.116035989389232
 20
235.79992618642399
 30
0.0
 11
-83.616035989389218
 21
235.79992618642399
 31
0.0
  0
LINE
  5
71
  8
1
 62
     7
 10
-83.616035989389218
 20
237.79992618642399
 30
0.0
 11
-83.616035989389218
 21
235.79992618642399
 31
0.0
  0
LINE
  5
72
  8
1
 62
     7
 10
-71.116035989389232
 20
239.79992618642399
 30
0.0
 11
-84.116035989389218
 21
239.79992618642399
 31
0.0
  0
LINE
  5
73
  8
1
 62
     7
 10
-84.116035989389218
 20
237.79992618642399
 30
0.0
 11
-71.116035989389232
 21
237.79992618642399
 31
0.0
  0
LINE
  5
74
  8
1
 62
     7
 10
-83.616035989389218
 20
241.79992618642399
 30
0.0
 11
-83.616035989389218
 21
239.79992618642399
 31
0.0
  0
LINE
  5
75
  8
1
  6
DASHDOT
 62
     3
 10
-89.116035989389218
 20
238.7999261864239
 30
0.0
 11
-84.116035989389218
 21
238.7999261864239
 31
0.0
  0
LINE
  5
76
  8
1
 62
     7
 10
-11.11603598938925
 20
214.67387402509411
 30
0.0
 11
-11.11603598938922
 21
234.7999261864239
 31
0.0
  0
LINE
  5
77
  8
1
 62
     7
 10
-19.116035989389239
 20
214.67387402509439
 30
0.0
 11
-11.11603598938925
 21
214.67387402509411
 31
0.0
  0
LINE
  5
78
  8
1
 62
     7
 10
-19.116035989389239
 20
214.67387402509439
 30
0.0
 11
-19.116035989389239
 21
214.79992618642399
 31
0.0
  0
LINE
  5
79
  8
1
 62
     7
 10
-17.86603598938926
 20
213.93475388346991
 30
0.0
 11
-17.86603598938926
 21
214.37387402509441
 31
0.0
  0
LINE
  5
7A
  8
1
 62
     7
 10
-12.36603598938925
 20
214.3738740250943
 30
0.0
 11
-12.36603598938925
 21
213.93475388346991
 31
0.0
  0
LINE
  5
7B
  8
1
 62
     7
 10
-4.1160359893892391
 20
222.9909126082639
 30
0.0
 11
-3.4160359893892398
 21
223.3950577966967
 31
0.0
  0
LINE
  5
7C
  8
1
 62
     7
 10
-4.1160359893892391
 20
223.7992029851294
 30
0.0
 11
-3.4160359893892398
 21
224.2033481735622
 31
0.0
  0
LINE
  5
7D
  8
1
 62
     7
 10
-4.1160359893892364
 20
226.547130390913
 30
0.0
 11
-3.4160359893892398
 21
226.547130390913
 31
0.0
  0
LINE
  5
7E
  8
1
 62
     7
 10
-3.4160359893892398
 20
226.547130390913
 30
0.0
 11
-3.4160359893892398
 21
220.64713039091299
 31
0.0
  0
LINE
  5
7F
  8
1
 62
     7
 10
-3.4160359893892398
 20
220.64713039091299
 30
0.0
 11
-4.1160359893892364
 21
220.64713039091299
 31
0.0
  0
LINE
  5
80
  8
1
 62
     7
 10
-0.6160359893892428
 20
226.34713039091321
 30
0.0
 11
-0.6160359893892428
 21
220.84713039091309
 31
0.0
  0
LINE
  5
81
  8
1
 62
     7
 10
-0.6160359893892428
 20
220.84713039091309
 30
0.0
 11
-3.4160359893892331
 21
220.84713039091309
 31
0.0
  0
LINE
  5
82
  8
1
 62
     7
 10
-0.4160359893892435
 20
221.1935405524269
 30
0.0
 11
-0.6160359893892428
 21
220.84713039091309
 31
0.0
  0
LINE
  5
83
  8
1
 62
     7
 10
-0.4160359893892435
 20
226.00072022939921
 30
0.0
 11
-0.4160359893892435
 21
221.1935405524269
 31
0.0
  0
LINE
  5
84
  8
1
 62
     7
 10
-0.6160359893892428
 20
226.34713039091321
 30
0.0
 11
-0.4160359893892435
 21
226.00072022939921
 31
0.0
  0
LINE
  5
85
  8
1
 62
     7
 10
-3.4160359893892331
 20
226.34713039091321
 30
0.0
 11
-0.6160359893892428
 21
226.34713039091321
 31
0.0
  0
LINE
  5
86
  8
1
 62
     7
 10
-11.11603598938922
 20
215.7999261864241
 30
0.0
 11
-10.116035989389241
 21
215.7999261864241
 31
0.0
  0
LINE
  5
87
  8
1
  6
DASHDOT
 62
     3
 10
-6.8694414856229988
 20
210.79992618642399
 30
0.0
 11
-21.362630493155478
 21
210.79992618642399
 31
0.0
  0
LINE
  5
88
  8
1
  6
DASHDOT
 62
     3
 10
-14.116035989389241
 20
218.04652069019019
 30
0.0
 11
-14.116035989389241
 21
203.55333168265781
 31
0.0
  0
LINE
  5
89
  8
1
 62
     7
 10
-0.5540186220946307
 20
228.24517835733579
 30
0.0
 11
-3.6780533566838458
 21
227.85467401551219
 31
0.0
  0
LINE
  5
8A
  8
1
 62
     7
 10
-5.1160359893892347
 20
217.7999261864241
 30
0.0
 11
-8.1160359893892462
 21
217.7999261864241
 31
0.0
  0
LINE
  5
8B
  8
1
 62
     7
 10
-11.11603598938925
 20
262.92597834775358
 30
0.0
 11
-11.11603598938923
 21
242.7999261864239
 31
0.0
  0
LINE
  5
8C
  8
1
 62
     7
 10
-11.11603598938925
 20
262.92597834775358
 30
0.0
 11
-19.116035989389239
 21
262.92597834775353
 31
0.0
  0
LINE
  5
8D
  8
1
 62
     7
 10
-19.116035989389239
 20
262.79992618642387
 30
0.0
 11
-19.116035989389239
 21
262.92597834775353
 31
0.0
  0
LINE
  5
8E
  8
1
 62
     7
 10
-17.86603598938926
 20
263.2259783477536
 30
0.0
 11
-17.86603598938926
 21
263.66509848937801
 31
0.0
  0
LINE
  5
8F
  8
1
 62
     7
 10
-12.36603598938925
 20
263.66509848937801
 30
0.0
 11
-12.36603598938925
 21
263.2259783477536
 31
0.0
  0
LINE
  5
90
  8
1
 62
     7
 10
75.41567893005066
 20
113.4843416466809
 30
0.0
 11
75.912481924607448
 21
113.54079325958411
 31
0.0
  0
LINE
  5
91
  8
1
 62
     7
 10
74.822413762916113
 20
112.15888511204091
 30
0.0
 11
75.2587261655746
 21
112.208463192547
 31
0.0
  0
LINE
  5
92
  8
1
 62
     7
 10
75.879693907510045
 20
106.74363025242199
 30
0.0
 11
75.443381504851558
 21
106.6940521719159
 31
0.0
  0
LINE
  5
93
  8
1
 62
     7
 10
75.41567893005066
 20
113.4843416466809
 30
0.0
 11
76.318904736502233
 21
105.5354937337718
 31
0.0
  0
LINE
  5
94
  8
1
 62
     7
 10
75.912481924607448
 20
113.54079325958411
 30
0.0
 11
76.815707731059064
 21
105.5919453466749
 31
0.0
  0
LINE
  5
95
  8
1
 62
     7
 10
76.318904736502233
 20
105.5354937337718
 30
0.0
 11
76.815707731059064
 21
105.5919453466749
 31
0.0
  0
LINE
  5
96
  8
1
 62
     7
 10
123.1070401492894
 20
105.5919453466749
 30
0.0
 11
123.6038431438464
 21
105.5354937337718
 31
0.0
  0
LINE
  5
97
  8
1
 62
     7
 10
123.1070401492894
 20
105.5919453466749
 30
0.0
 11
124.0102659557411
 21
113.54079325958411
 31
0.0
  0
LINE
  5
98
  8
1
 62
     7
 10
123.6038431438464
 20
105.5354937337718
 30
0.0
 11
124.50706895029801
 21
113.4843416466809
 31
0.0
  0
LINE
  5
99
  8
1
 62
     7
 10
124.47936637549709
 20
106.6940521719159
 30
0.0
 11
124.04305397283851
 21
106.74363025242199
 31
0.0
  0
LINE
  5
9A
  8
1
 62
     7
 10
124.6640217147739
 20
112.208463192547
 30
0.0
 11
125.1003341174324
 21
112.15888511204091
 31
0.0
  0
LINE
  5
9B
  8
1
 62
     7
 10
124.0102659557411
 20
113.54079325958411
 30
0.0
 11
124.50706895029801
 21
113.4843416466809
 31
0.0
  0
LINE
  5
9C
  8
1
 62
     7
 10
123.2371805848925
 20
106.73724757623791
 30
0.0
 11
123.1856727102796
 21
106.82349176032641
 31
0.0
  0
LINE
  5
9D
  8
1
 62
     7
 10
122.1753380979652
 20
106.8380142549708
 30
0.0
 11
123.16266010051019
 21
106.67928409624049
 31
0.0
  0
LINE
  5
9E
  8
1
 62
     7
 10
123.6599599961642
 20
106.0293506643859
 30
0.0
 11
132.81991312791979
 21
90.692032049045054
 31
0.0
  0
LINE
  5
9F
  8
1
 62
     7
 10
83.508578144663517
 20
100.75480046424261
 30
0.0
 11
84.758578144663517
 21
100.0331126277556
 31
0.0
  0
LINE
  5
A0
  8
1
 62
     7
 10
84.758578144663517
 20
100.0331126277556
 30
0.0
 11
86.008578144663531
 21
100.75480046424261
 31
0.0
  0
LINE
  5
A1
  8
1
 62
     7
 10
86.008578144663531
 20
100.75480046424261
 30
0.0
 11
86.008578144663531
 21
102.19817613721681
 31
0.0
  0
LINE
  5
A2
  8
1
 62
     7
 10
86.008578144663531
 20
102.19817613721681
 30
0.0
 11
84.758578144663517
 21
102.9198639737038
 31
0.0
  0
LINE
  5
A3
  8
1
 62
     7
 10
84.758578144663517
 20
102.9198639737038
 30
0.0
 11
83.508578144663517
 21
102.19817613721681
 31
0.0
  0
LINE
  5
A4
  8
1
 62
     7
 10
83.508578144663517
 20
102.19817613721681
 30
0.0
 11
83.508578144663517
 21
100.75480046424261
 31
0.0
  0
LINE
  5
A5
  8
1
 62
     7
 10
83.508578144663517
 20
132.60376772823841
 30
0.0
 11
83.508578144663517
 21
131.1603920552644
 31
0.0
  0
LINE
  5
A6
  8
1
 62
     7
 10
83.508578144663517
 20
131.1603920552644
 30
0.0
 11
84.758578144663517
 21
130.4387042187773
 31
0.0
  0
LINE
  5
A7
  8
1
 62
     7
 10
84.758578144663517
 20
130.4387042187773
 30
0.0
 11
86.008578144663531
 21
131.1603920552644
 31
0.0
  0
LINE
  5
A8
  8
1
 62
     7
 10
86.008578144663531
 20
131.1603920552644
 30
0.0
 11
86.008578144663531
 21
132.60376772823841
 31
0.0
  0
LINE
  5
A9
  8
1
 62
     7
 10
86.008578144663531
 20
132.60376772823841
 30
0.0
 11
84.758578144663517
 21
133.3254555647255
 31
0.0
  0
LINE
  5
AA
  8
1
 62
     7
 10
84.758578144663517
 20
133.3254555647255
 30
0.0
 11
83.508578144663517
 21
132.60376772823841
 31
0.0
  0
LINE
  5
AB
  8
1
 62
     7
 10
116.41416973568511
 20
100.75480046424261
 30
0.0
 11
116.41416973568511
 21
102.19817613721681
 31
0.0
  0
LINE
  5
AC
  8
1
 62
     7
 10
116.41416973568511
 20
102.19817613721681
 30
0.0
 11
115.16416973568511
 21
102.9198639737038
 31
0.0
  0
LINE
  5
AD
  8
1
 62
     7
 10
115.16416973568511
 20
102.9198639737038
 30
0.0
 11
113.91416973568511
 21
102.19817613721681
 31
0.0
  0
LINE
  5
AE
  8
1
 62
     7
 10
113.91416973568511
 20
102.19817613721681
 30
0.0
 11
113.91416973568511
 21
100.75480046424261
 31
0.0
  0
LINE
  5
AF
  8
1
 62
     7
 10
113.91416973568511
 20
100.75480046424261
 30
0.0
 11
115.16416973568511
 21
100.0331126277556
 31
0.0
  0
LINE
  5
B0
  8
1
 62
     7
 10
115.16416973568511
 20
100.0331126277556
 30
0.0
 11
116.41416973568511
 21
100.75480046424261
 31
0.0
  0
LINE
  5
B1
  8
1
 62
     7
 10
116.41416973568511
 20
132.60376772823841
 30
0.0
 11
115.16416973568511
 21
133.3254555647255
 31
0.0
  0
LINE
  5
B2
  8
1
 62
     7
 10
115.16416973568511
 20
133.3254555647255
 30
0.0
 11
113.91416973568511
 21
132.60376772823841
 31
0.0
  0
LINE
  5
B3
  8
1
 62
     7
 10
113.91416973568511
 20
132.60376772823841
 30
0.0
 11
113.91416973568511
 21
131.1603920552644
 31
0.0
  0
LINE
  5
B4
  8
1
 62
     7
 10
113.91416973568511
 20
131.1603920552644
 30
0.0
 11
115.16416973568511
 21
130.4387042187773
 31
0.0
  0
LINE
  5
B5
  8
1
 62
     7
 10
115.16416973568511
 20
130.4387042187773
 30
0.0
 11
116.41416973568511
 21
131.1603920552644
 31
0.0
  0
LINE
  5
B6
  8
1
 62
     7
 10
116.41416973568511
 20
131.1603920552644
 30
0.0
 11
116.41416973568511
 21
132.60376772823841
 31
0.0
  0
LINE
  5
B7
  8
1
 62
     7
 10
-4.1160359893892391
 20
253.3965041992856
 30
0.0
 11
-3.4160359893892398
 21
253.80064938771829
 31
0.0
  0
LINE
  5
B8
  8
1
 62
     7
 10
-4.1160359893892391
 20
254.2047945761511
 30
0.0
 11
-3.4160359893892398
 21
254.60893976458379
 31
0.0
  0
LINE
  5
B9
  8
1
 62
     7
 10
-3.4160359893892398
 20
251.05272198193481
 30
0.0
 11
-4.1160359893892364
 21
251.05272198193481
 31
0.0
  0
LINE
  5
BA
  8
1
 62
     7
 10
-3.4160359893892398
 20
256.95272198193481
 30
0.0
 11
-3.4160359893892398
 21
251.05272198193481
 31
0.0
  0
LINE
  5
BB
  8
1
 62
     7
 10
-4.1160359893892364
 20
256.95272198193481
 30
0.0
 11
-3.4160359893892398
 21
256.95272198193481
 31
0.0
  0
LINE
  5
BC
  8
1
 62
     7
 10
-0.6160359893892428
 20
256.75272198193483
 30
0.0
 11
-0.6160359893892428
 21
251.2527219819348
 31
0.0
  0
LINE
  5
BD
  8
1
 62
     7
 10
-3.4160359893892331
 20
256.75272198193483
 30
0.0
 11
-0.6160359893892428
 21
256.75272198193483
 31
0.0
  0
LINE
  5
BE
  8
1
 62
     7
 10
-0.6160359893892428
 20
256.75272198193483
 30
0.0
 11
-0.4160359893892435
 21
256.40631182042091
 31
0.0
  0
LINE
  5
BF
  8
1
 62
     7
 10
-0.4160359893892435
 20
256.40631182042091
 30
0.0
 11
-0.4160359893892435
 21
251.5991321434486
 31
0.0
  0
LINE
  5
C0
  8
1
 62
     7
 10
-0.4160359893892435
 20
251.5991321434486
 30
0.0
 11
-0.6160359893892428
 21
251.2527219819348
 31
0.0
  0
LINE
  5
C1
  8
1
 62
     7
 10
-0.6160359893892428
 20
251.2527219819348
 30
0.0
 11
-3.4160359893892331
 21
251.2527219819348
 31
0.0
  0
LINE
  5
C2
  8
1
 62
     7
 10
-64.116035989389246
 20
102.08270608337889
 30
0.0
 11
-64.816035989389235
 21
101.6785608949461
 31
0.0
  0
LINE
  5
C3
  8
1
 62
     7
 10
-64.116035989389246
 20
101.27441570651339
 30
0.0
 11
-64.816035989389235
 21
100.8702705180807
 31
0.0
  0
LINE
  5
C4
  8
1
 62
     7
 10
-64.116035989389246
 20
98.526488300729795
 30
0.0
 11
-64.816035989389235
 21
98.526488300729795
 31
0.0
  0
LINE
  5
C5
  8
1
 62
     7
 10
-64.816035989389235
 20
98.526488300729795
 30
0.0
 11
-64.816035989389235
 21
104.4264883007297
 31
0.0
  0
LINE
  5
C6
  8
1
 62
     7
 10
-64.816035989389235
 20
104.4264883007297
 30
0.0
 11
-64.116035989389246
 21
104.4264883007297
 31
0.0
  0
LINE
  5
C7
  8
1
 62
     7
 10
-67.616035989389232
 20
98.726488300729784
 30
0.0
 11
-67.616035989389232
 21
104.2264883007297
 31
0.0
  0
LINE
  5
C8
  8
1
 62
     7
 10
-67.616035989389232
 20
104.2264883007297
 30
0.0
 11
-64.816035989389235
 21
104.2264883007297
 31
0.0
  0
LINE
  5
C9
  8
1
 62
     7
 10
-67.816035989389235
 20
103.880078139216
 30
0.0
 11
-67.616035989389232
 21
104.2264883007297
 31
0.0
  0
LINE
  5
CA
  8
1
 62
     7
 10
-67.816035989389235
 20
99.072898462243558
 30
0.0
 11
-67.816035989389235
 21
103.880078139216
 31
0.0
  0
LINE
  5
CB
  8
1
 62
     7
 10
-67.616035989389232
 20
98.726488300729784
 30
0.0
 11
-67.816035989389235
 21
99.072898462243558
 31
0.0
  0
LINE
  5
CC
  8
1
 62
     7
 10
-64.816035989389235
 20
98.726488300729784
 30
0.0
 11
-67.616035989389232
 21
98.726488300729784
 31
0.0
  0
LINE
  5
CD
  8
1
 62
     7
 10
-64.116035989389246
 20
132.48829767440051
 30
0.0
 11
-64.816035989389235
 21
132.08415248596771
 31
0.0
  0
LINE
  5
CE
  8
1
 62
     7
 10
-64.116035989389246
 20
131.6800072975351
 30
0.0
 11
-64.816035989389235
 21
131.27586210910229
 31
0.0
  0
LINE
  5
CF
  8
1
 62
     7
 10
-64.116035989389246
 20
128.93207989175141
 30
0.0
 11
-64.816035989389235
 21
128.93207989175141
 31
0.0
  0
LINE
  5
D0
  8
1
 62
     7
 10
-64.816035989389235
 20
128.93207989175141
 30
0.0
 11
-64.816035989389235
 21
134.83207989175131
 31
0.0
  0
LINE
  5
D1
  8
1
 62
     7
 10
-64.816035989389235
 20
134.83207989175131
 30
0.0
 11
-64.116035989389246
 21
134.83207989175131
 31
0.0
  0
LINE
  5
D2
  8
1
 62
     7
 10
-67.616035989389232
 20
129.13207989175129
 30
0.0
 11
-67.616035989389232
 21
134.6320798917514
 31
0.0
  0
LINE
  5
D3
  8
1
 62
     7
 10
-67.616035989389232
 20
134.6320798917514
 30
0.0
 11
-64.816035989389235
 21
134.6320798917514
 31
0.0
  0
LINE
  5
D4
  8
1
 62
     7
 10
-67.816035989389235
 20
134.2856697302376
 30
0.0
 11
-67.616035989389232
 21
134.6320798917514
 31
0.0
  0
LINE
  5
D5
  8
1
 62
     7
 10
-67.816035989389235
 20
129.4784900532652
 30
0.0
 11
-67.816035989389235
 21
134.2856697302376
 31
0.0
  0
LINE
  5
D6
  8
1
 62
     7
 10
-67.616035989389232
 20
129.13207989175129
 30
0.0
 11
-67.816035989389235
 21
129.4784900532652
 31
0.0
  0
LINE
  5
D7
  8
1
 62
     7
 10
-64.816035989389235
 20
129.13207989175129
 30
0.0
 11
-67.616035989389232
 21
129.13207989175129
 31
0.0
  0
LINE
  5
D8
  8
1
 62
     7
 10
-55.761787300453818
 20
106.67928409624049
 30
0.0
 11
-57.11603598938926
 21
106.67928409624049
 31
0.0
  0
LINE
  5
D9
  8
1
 62
     7
 10
-57.11603598938926
 20
106.67928409624049
 30
0.0
 11
-57.11603598938926
 21
140.67928409624051
 31
0.0
  0
LINE
  5
DA
  8
1
 62
     7
 10
-54.866035989389232
 20
109.9417840962406
 30
0.0
 11
-54.866035989389232
 21
109.41678409624051
 31
0.0
  0
LINE
  5
DB
  8
1
 62
     7
 10
-53.378535989389228
 20
107.92928409624049
 30
0.0
 11
-52.853535989389229
 21
107.92928409624049
 31
0.0
  0
LINE
  5
DC
  8
1
 62
     7
 10
-51.366035989389232
 20
109.41678409624051
 30
0.0
 11
-51.366035989389232
 21
109.9417840962406
 31
0.0
  0
LINE
  5
DD
  8
1
 62
     7
 10
-52.853535989389229
 20
111.42928409624049
 30
0.0
 11
-53.378535989389228
 21
111.42928409624049
 31
0.0
  0
LINE
  5
DE
  8
1
 62
     7
 10
-59.616035989389232
 20
139.67928409624051
 30
0.0
 11
-57.11603598938926
 21
139.67928409624051
 31
0.0
  0
LINE
  5
DF
  8
1
 62
     7
 10
-61.616035989389239
 20
95.679284096240593
 30
0.0
 11
-61.616035989389239
 21
137.67928409624051
 31
0.0
  0
LINE
  5
E0
  8
1
 62
     7
 10
-63.116035989389239
 20
137.67928409624051
 30
0.0
 11
-60.116035989389232
 21
137.67928409624051
 31
0.0
  0
LINE
  5
E1
  8
1
 62
     7
 10
-63.116035989389239
 20
95.679284096240593
 30
0.0
 11
-60.116035989389239
 21
95.679284096240593
 31
0.0
  0
LINE
  5
E2
  8
1
 62
     7
 10
-59.916035989389229
 20
88.679284096240593
 30
0.0
 11
-59.116035989389239
 21
88.679284096240593
 31
0.0
  0
LINE
  5
E3
  8
1
 62
     7
 10
-59.916035989389229
 20
93.679284096240593
 30
0.0
 11
-59.916035989389229
 21
88.679284096240593
 31
0.0
  0
LINE
  5
E4
  8
1
 62
     7
 10
-59.116035989389239
 20
93.679284096240593
 30
0.0
 11
-59.916035989389229
 21
93.679284096240593
 31
0.0
  0
LINE
  5
E5
  8
1
  6
DASHDOT
 62
     3
 10
-54.116035989389239
 20
93.666687023250915
 30
0.0
 11
-54.116035989389239
 21
82.691881169230314
 31
0.0
  0
LINE
  5
E6
  8
1
 62
     7
 10
-64.116035989389246
 20
96.679284096240593
 30
0.0
 11
-64.116035989389232
 21
136.67928409624051
 31
0.0
  0
LINE
  5
E7
  8
1
 62
     7
 10
-68.116035989389246
 20
106.6206752055093
 30
0.0
 11
-68.116035989389246
 21
126.7378929869719
 31
0.0
  0
LINE
  5
E8
  8
1
 62
     7
 10
-64.554018622094631
 20
105.73403192532869
 30
0.0
 11
-67.678053356683861
 21
106.12453626715239
 31
0.0
  0
LINE
  5
E9
  8
1
 62
     7
 10
-67.678053356683861
 20
127.23403192532879
 30
0.0
 11
-64.554018622094631
 21
127.62453626715229
 31
0.0
  0
LINE
  5
EA
  8
1
 62
     7
 10
-59.616035989389232
 20
139.67928409624051
 30
0.0
 11
-59.61603598938926
 21
140.67928409624051
 31
0.0
  0
LINE
  5
EB
  8
1
 62
     7
 10
-59.116035989389239
 20
85.179284096240593
 30
0.0
 11
-59.116035989389232
 21
139.67928409624051
 31
0.0
  0
LINE
  5
EC
  8
1
 62
     7
 10
-57.036035989389248
 20
140.67928409624051
 30
0.0
 11
-57.036035989389248
 21
155.07601966902689
 31
0.0
  0
LINE
  5
ED
  8
1
 62
     7
 10
-55.196035989389252
 20
140.67928409624051
 30
0.0
 11
-55.196035989389252
 21
155.07601966902689
 31
0.0
  0
LINE
  5
EE
  8
1
 62
     7
 10
-83.616035989389232
 20
119.67928409624059
 30
0.0
 11
-68.116035989389246
 21
119.67928409624059
 31
0.0
  0
LINE
  5
EF
  8
1
 62
     7
 10
-84.116035989389218
 20
120.5792840962405
 30
0.0
 11
-84.116035989389218
 21
114.17928409624049
 31
0.0
  0
LINE
  5
F0
  8
1
 62
     7
 10
-68.116035989389246
 20
113.67928409624049
 30
0.0
 11
-83.616035989389232
 21
113.67928409624049
 31
0.0
  0
LINE
  5
F1
  8
1
 62
     7
 10
-83.616035989389232
 20
119.67928409624059
 30
0.0
 11
-84.116035989389218
 21
119.17928409624049
 31
0.0
  0
LINE
  5
F2
  8
1
 62
     7
 10
-84.116035989389218
 20
114.17928409624049
 30
0.0
 11
-83.616035989389232
 21
113.67928409624049
 31
0.0
  0
LINE
  5
F3
  8
1
 62
     7
 10
-83.616035989389232
 20
113.67928409624049
 30
0.0
 11
-83.616035989389232
 21
119.67928409624059
 31
0.0
  0
LINE
  5
F4
  8
1
 62
     7
 10
-70.116035989389246
 20
120.5792840962405
 30
0.0
 11
-70.116035989389246
 21
119.67928409624059
 31
0.0
  0
LINE
  5
F5
  8
1
 62
     7
 10
-84.116035989389218
 20
120.5792840962405
 30
0.0
 11
-70.116035989389246
 21
120.5792840962405
 31
0.0
  0
LINE
  5
F6
  8
1
  6
DASHDOT
 62
     3
 10
-89.116035989389246
 20
116.67928409624049
 30
0.0
 11
-84.116035989389246
 21
116.67928409624049
 31
0.0
  0
LINE
  5
F7
  8
1
 62
     7
 10
-4.1160359893892391
 20
100.8702705180807
 30
0.0
 11
-3.4160359893892398
 21
101.27441570651339
 31
0.0
  0
LINE
  5
F8
  8
1
 62
     7
 10
-4.1160359893892391
 20
101.6785608949461
 30
0.0
 11
-3.4160359893892398
 21
102.08270608337889
 31
0.0
  0
LINE
  5
F9
  8
1
 62
     7
 10
-3.4160359893892398
 20
98.526488300729795
 30
0.0
 11
-4.1160359893892364
 21
98.526488300729795
 31
0.0
  0
LINE
  5
FA
  8
1
 62
     7
 10
-3.4160359893892398
 20
104.4264883007297
 30
0.0
 11
-3.4160359893892398
 21
98.526488300729795
 31
0.0
  0
LINE
  5
FB
  8
1
 62
     7
 10
-4.1160359893892364
 20
104.4264883007297
 30
0.0
 11
-3.4160359893892398
 21
104.4264883007297
 31
0.0
  0
LINE
  5
FC
  8
1
 62
     7
 10
-0.6160359893892428
 20
104.2264883007297
 30
0.0
 11
-0.6160359893892428
 21
98.726488300729784
 31
0.0
  0
LINE
  5
FD
  8
1
 62
     7
 10
-3.4160359893892331
 20
104.2264883007297
 30
0.0
 11
-0.6160359893892428
 21
104.2264883007297
 31
0.0
  0
LINE
  5
FE
  8
1
 62
     7
 10
-0.6160359893892428
 20
104.2264883007297
 30
0.0
 11
-0.4160359893892435
 21
103.880078139216
 31
0.0
  0
LINE
  5
FF
  8
1
 62
     7
 10
-0.4160359893892435
 20
103.880078139216
 30
0.0
 11
-0.4160359893892435
 21
99.072898462243558
 31
0.0
  0
LINE
  5
100
  8
1
 62
     7
 10
-0.4160359893892435
 20
99.072898462243558
 30
0.0
 11
-0.6160359893892428
 21
98.726488300729784
 31
0.0
  0
LINE
  5
101
  8
1
 62
     7
 10
-0.6160359893892428
 20
98.726488300729784
 30
0.0
 11
-3.4160359893892331
 21
98.726488300729784
 31
0.0
  0
LINE
  5
102
  8
1
 62
     7
 10
-4.1160359893892391
 20
131.27586210910229
 30
0.0
 11
-3.4160359893892398
 21
131.68000729753501
 31
0.0
  0
LINE
  5
103
  8
1
 62
     7
 10
-4.1160359893892391
 20
132.08415248596771
 30
0.0
 11
-3.4160359893892398
 21
132.48829767440051
 31
0.0
  0
LINE
  5
104
  8
1
 62
     7
 10
-3.4160359893892398
 20
128.93207989175141
 30
0.0
 11
-4.1160359893892364
 21
128.93207989175141
 31
0.0
  0
LINE
  5
105
  8
1
 62
     7
 10
-3.4160359893892398
 20
134.83207989175131
 30
0.0
 11
-3.4160359893892398
 21
128.93207989175141
 31
0.0
  0
LINE
  5
106
  8
1
 62
     7
 10
-4.1160359893892364
 20
134.83207989175131
 30
0.0
 11
-3.4160359893892398
 21
134.83207989175131
 31
0.0
  0
LINE
  5
107
  8
1
 62
     7
 10
-0.6160359893892428
 20
134.6320798917514
 30
0.0
 11
-0.6160359893892428
 21
129.13207989175129
 31
0.0
  0
LINE
  5
108
  8
1
 62
     7
 10
-3.4160359893892331
 20
134.6320798917514
 30
0.0
 11
-0.6160359893892428
 21
134.6320798917514
 31
0.0
  0
LINE
  5
109
  8
1
 62
     7
 10
-0.6160359893892428
 20
134.6320798917514
 30
0.0
 11
-0.4160359893892435
 21
134.2856697302376
 31
0.0
  0
LINE
  5
10A
  8
1
 62
     7
 10
-0.4160359893892435
 20
134.2856697302376
 30
0.0
 11
-0.4160359893892435
 21
129.4784900532652
 31
0.0
  0
LINE
  5
10B
  8
1
 62
     7
 10
-0.4160359893892435
 20
129.4784900532652
 30
0.0
 11
-0.6160359893892428
 21
129.13207989175129
 31
0.0
  0
LINE
  5
10C
  8
1
 62
     7
 10
-0.6160359893892428
 20
129.13207989175129
 30
0.0
 11
-3.4160359893892331
 21
129.13207989175129
 31
0.0
  0
LINE
  5
10D
  8
1
 62
     7
 10
-13.316035989389251
 20
237.599926186424
 30
0.0
 11
-13.316035989389251
 21
239.99992618642389
 31
0.0
  0
LINE
  5
10E
  8
1
 62
     7
 10
-10.91603598938925
 20
239.99992618642389
 30
0.0
 11
-10.91603598938925
 21
237.599926186424
 31
0.0
  0
LINE
  5
10F
  8
1
 62
     7
 10
-10.313260351657251
 20
235.79992618642399
 30
0.0
 11
-6.6160359893892453
 21
235.79992618642399
 31
0.0
  0
LINE
  5
110
  8
1
 62
     7
 10
96.461373940174312
 20
139.67928409624051
 30
0.0
 11
103.4613739401742
 21
139.67928409624051
 31
0.0
  0
LINE
  5
111
  8
1
 62
     7
 10
96.461373940174312
 20
140.67928409624051
 30
0.0
 11
103.4613739401742
 21
140.67928409624051
 31
0.0
  0
LINE
  5
112
  8
1
 62
     7
 10
103.4613739401742
 20
139.67928409624051
 30
0.0
 11
103.4613739401742
 21
140.67928409624051
 31
0.0
  0
LINE
  5
113
  8
1
 62
     7
 10
102.9613739401743
 20
137.60423716255499
 30
0.0
 11
102.9613739401743
 21
139.67928409624051
 31
0.0
  0
LINE
  5
114
  8
1
 62
     7
 10
96.461373940174312
 20
139.67928409624051
 30
0.0
 11
96.461373940174312
 21
140.67928409624051
 31
0.0
  0
LINE
  5
115
  8
1
 62
     7
 10
96.961373940174326
 20
137.60423716255499
 30
0.0
 11
96.961373940174326
 21
139.67928409624051
 31
0.0
  0
LINE
  5
116
  8
1
 62
     7
 10
-11.61603598938925
 20
234.7999261864239
 30
0.0
 11
-11.11603598938922
 21
234.7999261864239
 31
0.0
  0
LINE
  5
117
  8
1
 62
     7
 10
-11.11603598938923
 20
242.7999261864239
 30
0.0
 11
-11.61603598938925
 21
242.7999261864239
 31
0.0
  0
LINE
  5
118
  8
1
 62
     7
 10
-9.1160359893892409
 20
235.79992618642399
 30
0.0
 11
-9.1160359893892409
 21
206.7999261864239
 31
0.0
  0
LINE
  5
119
  8
1
 62
     7
 10
-6.6160359893892453
 20
241.79992618642399
 30
0.0
 11
-10.313260351657251
 21
241.79992618642399
 31
0.0
  0
LINE
  5
11A
  8
1
 62
     7
 10
-10.116035989389241
 20
261.79992618642382
 30
0.0
 11
-11.11603598938922
 21
261.79992618642382
 31
0.0
  0
LINE
  5
11B
  8
1
 62
     7
 10
-11.11603598938922
 20
262.79992618642387
 30
0.0
 11
-57.116035989389211
 21
262.79992618642387
 31
0.0
  0
LINE
  5
11C
  8
1
 62
     7
 10
-10.116035989389241
 20
271.79992618642387
 30
0.0
 11
-58.116035989389239
 21
271.79992618642387
 31
0.0
  0
LINE
  5
11D
  8
1
 62
     7
 10
-32.116035989389232
 20
268.79992618642387
 30
0.0
 11
-32.116035989389232
 21
262.79992618642382
 31
0.0
  0
LINE
  5
11E
  8
1
 62
     7
 10
-36.116035989389239
 20
262.79992618642382
 30
0.0
 11
-36.116035989389239
 21
268.79992618642387
 31
0.0
  0
LINE
  5
11F
  8
1
  6
DASHDOT
 62
     3
 10
-21.362630493155478
 20
266.79992618642387
 30
0.0
 11
-6.8694414856229988
 21
266.79992618642387
 31
0.0
  0
LINE
  5
120
  8
1
  6
DASHDOT
 62
     3
 10
-14.116035989389241
 20
274.04652069019011
 30
0.0
 11
-14.116035989389241
 21
259.5533316826577
 31
0.0
  0
LINE
  5
121
  8
1
 62
     7
 10
-3.6780533566838458
 20
249.74517835733579
 30
0.0
 11
-0.5540186220946307
 21
249.3546740155121
 31
0.0
  0
LINE
  5
122
  8
1
 62
     7
 10
-8.1160359893892462
 20
259.79992618642387
 30
0.0
 11
-5.1160359893892347
 21
259.79992618642387
 31
0.0
  0
LINE
  5
123
  8
1
 62
     7
 10
67.102834752428663
 20
90.692032049045054
 30
0.0
 11
76.262787884184405
 21
106.0293506643859
 31
0.0
  0
LINE
  5
124
  8
1
 62
     7
 10
76.737075170068948
 20
106.82349176032641
 30
0.0
 11
76.685567295456096
 21
106.73724757623791
 31
0.0
  0
LINE
  5
125
  8
1
 62
     7
 10
76.760087779838372
 20
106.67928409624049
 30
0.0
 11
77.7474097823834
 21
106.8380142549708
 31
0.0
  0
LINE
  5
126
  8
1
 62
     7
 10
-57.116035989389211
 20
214.79992618642399
 30
0.0
 11
-11.11603598938922
 21
214.79992618642399
 31
0.0
  0
LINE
  5
127
  8
1
 62
     7
 10
-11.11603598938922
 20
106.67928409624049
 30
0.0
 11
-12.47028467832466
 21
106.67928409624049
 31
0.0
  0
LINE
  5
128
  8
1
 62
     7
 10
-11.11603598938922
 20
140.67928409624051
 30
0.0
 11
-11.11603598938922
 21
106.67928409624049
 31
0.0
  0
LINE
  5
129
  8
1
 62
     7
 10
-13.36603598938925
 20
109.41678409624051
 30
0.0
 11
-13.36603598938925
 21
109.9417840962406
 31
0.0
  0
LINE
  5
12A
  8
1
 62
     7
 10
-15.378535989389251
 20
107.92928409624049
 30
0.0
 11
-14.85353598938925
 21
107.92928409624049
 31
0.0
  0
LINE
  5
12B
  8
1
 62
     7
 10
-16.866035989389239
 20
109.9417840962406
 30
0.0
 11
-16.866035989389239
 21
109.41678409624051
 31
0.0
  0
LINE
  5
12C
  8
1
 62
     7
 10
-14.85353598938925
 20
111.42928409624049
 30
0.0
 11
-15.378535989389251
 21
111.42928409624049
 31
0.0
  0
LINE
  5
12D
  8
1
 62
     7
 10
-11.11603598938922
 20
139.67928409624051
 30
0.0
 11
-8.6160359893892462
 21
139.67928409624051
 31
0.0
  0
LINE
  5
12E
  8
1
 62
     7
 10
-32.116035989389232
 20
106.67928409624049
 30
0.0
 11
-32.116035989389232
 21
94.179284096240579
 31
0.0
  0
LINE
  5
12F
  8
1
 62
     7
 10
83.461373940174298
 20
86.179284096240593
 30
0.0
 11
116.4613739401743
 21
86.179284096240593
 31
0.0
  0
LINE
  5
130
  8
1
 62
     7
 10
66.961373940174298
 20
85.179284096240593
 30
0.0
 11
82.461373940174312
 21
85.179284096240593
 31
0.0
  0
LINE
  5
131
  8
1
 62
     7
 10
66.961373940174298
 20
85.179284096240593
 30
0.0
 11
66.961373940174298
 21
90.179284096240593
 31
0.0
  0
LINE
  5
132
  8
1
 62
     7
 10
77.979819351921989
 20
91.179284096240593
 30
0.0
 11
67.961373940174298
 21
91.179284096240593
 31
0.0
  0
LINE
  5
133
  8
1
 62
     7
 10
117.4613739401743
 20
85.179284096240593
 30
0.0
 11
132.9613739401743
 21
85.179284096240593
 31
0.0
  0
LINE
  5
134
  8
1
 62
     7
 10
132.9613739401743
 20
90.179284096240593
 30
0.0
 11
132.9613739401743
 21
85.179284096240593
 31
0.0
  0
LINE
  5
135
  8
1
 62
     7
 10
131.9613739401743
 20
91.179284096240593
 30
0.0
 11
121.94292852842651
 21
91.179284096240593
 31
0.0
  0
LINE
  5
136
  8
1
 62
     7
 10
-59.116035989389239
 20
85.179284096240593
 30
0.0
 11
-9.1160359893892409
 21
85.179284096240593
 31
0.0
  0
LINE
  5
137
  8
1
 62
     7
 10
-58.116035989389239
 20
91.179284096240593
 30
0.0
 11
-10.116035989389241
 21
91.179284096240593
 31
0.0
  0
LINE
  5
138
  8
1
 62
     7
 10
-6.61603598938924
 20
137.67928409624051
 30
0.0
 11
-6.61603598938924
 21
95.679284096240593
 31
0.0
  0
LINE
  5
139
  8
1
 62
     7
 10
-8.1160359893892462
 20
137.67928409624051
 30
0.0
 11
-5.1160359893892391
 21
137.67928409624051
 31
0.0
  0
LINE
  5
13A
  8
1
 62
     7
 10
-8.1160359893892391
 20
95.679284096240593
 30
0.0
 11
-5.1160359893892347
 21
95.679284096240593
 31
0.0
  0
LINE
  5
13B
  8
1
 62
     7
 10
-9.1160359893892409
 20
88.679284096240593
 30
0.0
 11
-8.3160359893892402
 21
88.679284096240593
 31
0.0
  0
LINE
  5
13C
  8
1
 62
     7
 10
-8.3160359893892402
 20
88.679284096240593
 30
0.0
 11
-8.3160359893892402
 21
93.679284096240593
 31
0.0
  0
LINE
  5
13D
  8
1
 62
     7
 10
-8.3160359893892402
 20
93.679284096240593
 30
0.0
 11
-9.1160359893892409
 21
93.679284096240593
 31
0.0
  0
LINE
  5
13E
  8
1
 62
     7
 10
-36.116035989389232
 20
94.179284096240579
 30
0.0
 11
-36.116035989389232
 21
106.67928409624049
 31
0.0
  0
LINE
  5
13F
  8
1
 62
     7
 10
-58.116035989389239
 20
205.7999261864239
 30
0.0
 11
-10.116035989389241
 21
205.7999261864239
 31
0.0
  0
LINE
  5
140
  8
1
 62
     7
 10
-32.116035989389232
 20
214.79992618642399
 30
0.0
 11
-32.116035989389232
 21
208.79992618642399
 31
0.0
  0
LINE
  5
141
  8
1
 62
     7
 10
-36.116035989389239
 20
208.79992618642399
 30
0.0
 11
-36.116035989389239
 21
214.79992618642399
 31
0.0
  0
LINE
  5
142
  8
1
 62
     7
 10
-9.1160359893892409
 20
270.79992618642387
 30
0.0
 11
-9.1160359893892409
 21
241.79992618642399
 31
0.0
  0
LINE
  5
143
  8
1
  6
DASHDOT
 62
     3
 10
-14.116035989389241
 20
82.691881169230314
 30
0.0
 11
-14.116035989389241
 21
93.666687023250915
 31
0.0
  0
LINE
  5
144
  8
1
  6
DASHDOT
 62
     3
 10
71.961373940174326
 20
82.691881169230314
 30
0.0
 11
71.961373940174326
 21
93.666687023250915
 31
0.0
  0
LINE
  5
145
  8
1
  6
DASHDOT
 62
     3
 10
127.9613739401743
 20
82.691881169230314
 30
0.0
 11
127.9613739401743
 21
93.666687023250915
 31
0.0
  0
LINE
  5
146
  8
1
 62
     7
 10
-4.1160359893892391
 20
136.67928409624051
 30
0.0
 11
-4.1160359893892338
 21
96.679284096240593
 31
0.0
  0
LINE
  5
147
  8
1
 62
     7
 10
-0.1160359893892348
 20
126.7378929869719
 30
0.0
 11
-0.1160359893892348
 21
106.6206752055093
 31
0.0
  0
LINE
  5
148
  8
1
 62
     7
 10
-0.5540186220946307
 20
106.12453626715239
 30
0.0
 11
-3.6780533566838458
 21
105.73403192532869
 31
0.0
  0
LINE
  5
149
  8
1
 62
     7
 10
-3.6780533566838458
 20
127.62453626715229
 30
0.0
 11
-0.5540186220946314
 21
127.23403192532879
 31
0.0
  0
LINE
  5
14A
  8
1
 62
     7
 10
-6.6160359893892453
 20
259.79992618642387
 30
0.0
 11
-6.6160359893892453
 21
217.7999261864239
 31
0.0
  0
LINE
  5
14B
  8
1
 62
     7
 10
-4.1160359893892391
 20
258.79992618642387
 30
0.0
 11
-4.1160359893892338
 21
218.79992618642399
 31
0.0
  0
LINE
  5
14C
  8
1
 62
     7
 10
-0.1160359893892348
 20
248.8585350771553
 30
0.0
 11
-0.1160359893892348
 21
228.7413172956926
 31
0.0
  0
LINE
  5
14D
  8
1
 62
     7
 10
-8.6160359893892462
 20
140.67928409624051
 30
0.0
 11
-59.61603598938926
 21
140.67928409624051
 31
0.0
  0
LINE
  5
14E
  8
1
 62
     7
 10
-8.6160359893892462
 20
140.67928409624051
 30
0.0
 11
-8.6160359893892462
 21
139.67928409624051
 31
0.0
  0
LINE
  5
14F
  8
1
 62
     7
 10
-9.1160359893892497
 20
139.67928409624051
 30
0.0
 11
-9.1160359893892409
 21
85.179284096240593
 31
0.0
  0
LINE
  5
150
  8
1
 62
     7
 10
-50.470284678324667
 20
106.67928409624049
 30
0.0
 11
-17.761787300453829
 21
106.67928409624049
 31
0.0
  0
LINE
  5
151
  8
1
 62
     7
 10
98.121373940174351
 20
155.07601966902689
 30
0.0
 11
98.121373940174394
 21
140.67928409624051
 31
0.0
  0
LINE
  5
152
  8
1
 62
     7
 10
99.961373940174312
 20
155.07601966902689
 30
0.0
 11
99.961373940174312
 21
140.67928409624051
 31
0.0
  0
LINE
  5
153
  8
1
 62
     7
 10
101.8013739401742
 20
155.07601966902689
 30
0.0
 11
101.8013739401742
 21
140.67928409624051
 31
0.0
  0
LINE
  5
154
  8
1
 62
     7
 10
-13.03603598938923
 20
155.07601966902689
 30
0.0
 11
-11.19603598938923
 21
155.07601966902689
 31
0.0
  0
LINE
  5
155
  8
1
 62
     7
 10
-11.19603598938923
 20
155.07601966902689
 30
0.0
 11
-11.19603598938923
 21
140.67928409624051
 31
0.0
  0
LINE
  5
156
  8
1
 62
     7
 10
-13.03603598938923
 20
155.07601966902689
 30
0.0
 11
-13.03603598938923
 21
140.67928409624051
 31
0.0
  0
LINE
  5
157
  8
1
 62
     3
 10
-12.506035989389231
 20
155.07601966902689
 30
0.0
 11
-12.506035989389231
 21
158.03682481366479
 31
0.0
  0
LINE
  5
158
  8
1
 62
     7
 10
-0.1160359893892355
 20
119.67928409624059
 30
0.0
 11
15.383964010610759
 21
119.67928409624059
 31
0.0
  0
LINE
  5
159
  8
1
 62
     7
 10
15.883964010610759
 20
114.17928409624049
 30
0.0
 11
15.883964010610759
 21
120.5792840962405
 31
0.0
  0
LINE
  5
15A
  8
1
 62
     7
 10
15.383964010610759
 20
113.67928409624049
 30
0.0
 11
-0.1160359893892355
 21
113.67928409624049
 31
0.0
  0
LINE
  5
15B
  8
1
 62
     7
 10
15.883964010610759
 20
119.17928409624049
 30
0.0
 11
15.383964010610759
 21
119.67928409624059
 31
0.0
  0
LINE
  5
15C
  8
1
 62
     7
 10
15.383964010610759
 20
113.67928409624049
 30
0.0
 11
15.883964010610759
 21
114.17928409624049
 31
0.0
  0
LINE
  5
15D
  8
1
 62
     7
 10
15.383964010610759
 20
119.67928409624059
 30
0.0
 11
15.383964010610759
 21
113.67928409624049
 31
0.0
  0
LINE
  5
15E
  8
1
 62
     7
 10
1.883964010610764
 20
119.67928409624059
 30
0.0
 11
1.883964010610764
 21
120.5792840962405
 31
0.0
  0
LINE
  5
15F
  8
1
 62
     7
 10
1.883964010610764
 20
120.5792840962405
 30
0.0
 11
15.883964010610759
 21
120.5792840962405
 31
0.0
  0
LINE
  5
160
  8
1
 62
     7
 10
98.961373940174312
 20
118.7792840962406
 30
0.0
 11
98.961373940174312
 21
120.5792840962405
 31
0.0
  0
LINE
  5
161
  8
1
 62
     7
 10
98.961373940174312
 20
120.5792840962405
 30
0.0
 11
100.9613739401743
 21
120.5792840962405
 31
0.0
  0
LINE
  5
162
  8
1
 62
     7
 10
100.9613739401743
 20
120.5792840962405
 30
0.0
 11
100.9613739401743
 21
118.7792840962406
 31
0.0
  0
LINE
  5
163
  8
1
 62
     7
 10
100.9613739401743
 20
118.7792840962406
 30
0.0
 11
98.961373940174312
 21
118.7792840962406
 31
0.0
  0
LINE
  5
164
  8
1
 62
     7
 10
-0.1160359893892355
 20
241.79992618642399
 30
0.0
 11
15.383964010610759
 21
241.79992618642399
 31
0.0
  0
LINE
  5
165
  8
1
 62
     7
 10
15.883964010610759
 20
241.2999261864239
 30
0.0
 11
15.883964010610759
 21
236.2999261864239
 31
0.0
  0
LINE
  5
166
  8
1
 62
     7
 10
15.383964010610759
 20
241.79992618642399
 30
0.0
 11
15.883964010610759
 21
241.2999261864239
 31
0.0
  0
LINE
  5
167
  8
1
 62
     7
 10
15.383964010610759
 20
235.79992618642399
 30
0.0
 11
15.883964010610759
 21
236.2999261864239
 31
0.0
  0
LINE
  5
168
  8
1
 62
     7
 10
15.383964010610759
 20
235.79992618642399
 30
0.0
 11
-0.1160359893892355
 21
235.79992618642399
 31
0.0
  0
LINE
  5
169
  8
1
 62
     7
 10
15.383964010610759
 20
235.79992618642399
 30
0.0
 11
15.383964010610759
 21
237.79992618642399
 31
0.0
  0
LINE
  5
16A
  8
1
 62
     7
 10
15.883964010610759
 20
239.79992618642399
 30
0.0
 11
2.8839640106107631
 21
239.79992618642399
 31
0.0
  0
LINE
  5
16B
  8
1
 62
     7
 10
2.8839640106107631
 20
237.79992618642399
 30
0.0
 11
15.883964010610759
 21
237.79992618642399
 31
0.0
  0
LINE
  5
16C
  8
1
 62
     7
 10
15.383964010610759
 20
239.79992618642399
 30
0.0
 11
15.383964010610759
 21
241.79992618642399
 31
0.0
  0
LINE
  5
16D
  8
1
  6
DASHDOT
 62
     3
 10
101.551982185592
 20
116.67928409624049
 30
0.0
 11
98.370765694756642
 21
116.67928409624049
 31
0.0
  0
LINE
  5
16E
  8
1
  6
DASHDOT
 62
     3
 10
99.961373940174312
 20
118.26989234165831
 30
0.0
 11
99.961373940174312
 21
115.0886758508229
 31
0.0
  0
LINE
  5
16F
  8
1
  6
DASHDOT
 62
     3
 10
15.883964010610759
 20
116.67928409624049
 30
0.0
 11
20.883964010610761
 21
116.67928409624049
 31
0.0
  0
LINE
  5
170
  8
1
  6
DASHDOT
 62
     3
 10
15.883964010610759
 20
238.7999261864239
 30
0.0
 11
20.883964010610761
 21
238.7999261864239
 31
0.0
  0
LINE
  5
171
  8
1
 62
     7
 10
102.3613739401742
 20
113.0846934558584
 30
0.0
 11
102.3613739401742
 21
111.9943217849207
 31
0.0
  0
LINE
  5
172
  8
1
 62
     7
 10
100.2613739401742
 20
111.09432178492069
 30
0.0
 11
101.4613739401742
 21
111.09432178492069
 31
0.0
  0
LINE
  5
173
  8
1
 62
     7
 10
100.2613739401742
 20
111.09432178492069
 30
0.0
 11
100.2613739401742
 21
111.89432178492071
 31
0.0
  0
LINE
  5
174
  8
1
 62
     7
 10
100.2613739401742
 20
111.89432178492071
 30
0.0
 11
101.0113739401742
 21
111.89432178492071
 31
0.0
  0
LINE
  5
175
  8
1
 62
     7
 10
101.0113739401742
 20
112.9943217849207
 30
0.0
 11
100.2613739401742
 21
112.9943217849207
 31
0.0
  0
LINE
  5
176
  8
1
 62
     7
 10
100.2613739401742
 20
112.9943217849207
 30
0.0
 11
100.2613739401742
 21
113.6943217849207
 31
0.0
  0
LINE
  5
177
  8
1
 62
     7
 10
99.661373940174315
 20
113.6943217849207
 30
0.0
 11
99.661373940174315
 21
112.9943217849207
 31
0.0
  0
LINE
  5
178
  8
1
 62
     7
 10
99.661373940174315
 20
112.9943217849207
 30
0.0
 11
98.911373940174315
 21
112.9943217849207
 31
0.0
  0
LINE
  5
179
  8
1
 62
     7
 10
98.911373940174315
 20
111.89432178492071
 30
0.0
 11
99.661373940174315
 21
111.89432178492071
 31
0.0
  0
LINE
  5
17A
  8
1
 62
     7
 10
99.661373940174315
 20
111.89432178492071
 30
0.0
 11
99.661373940174315
 21
111.09432178492069
 31
0.0
  0
LINE
  5
17B
  8
1
 62
     7
 10
98.461373940174326
 20
111.09432178492069
 30
0.0
 11
99.661373940174315
 21
111.09432178492069
 31
0.0
  0
LINE
  5
17C
  8
1
 62
     7
 10
97.561373940174306
 20
111.9943217849207
 30
0.0
 11
97.561373940174306
 21
113.0846934558584
 31
0.0
  0
LINE
  5
17D
  8
1
 62
     3
 10
-12.11603598938923
 20
155.07601966902689
 30
0.0
 11
-12.11603598938923
 21
158.03682481366479
 31
0.0
  0
LINE
  5
17E
  8
1
 62
     3
 10
-11.72603598938923
 20
155.07601966902689
 30
0.0
 11
-11.72603598938923
 21
158.03682481366479
 31
0.0
  0
LINE
  5
17F
  8
1
 62
     7
 10
-57.036035989389248
 20
155.07601966902689
 30
0.0
 11
-55.196035989389252
 21
155.07601966902689
 31
0.0
  0
LINE
  5
180
  8
1
 62
     3
 10
-56.506035989389247
 20
155.07601966902689
 30
0.0
 11
-56.506035989389247
 21
158.03682481366479
 31
0.0
  0
LINE
  5
181
  8
1
 62
     3
 10
-56.116035989389239
 20
155.07601966902689
 30
0.0
 11
-56.116035989389239
 21
158.03682481366479
 31
0.0
  0
LINE
  5
182
  8
1
 62
     3
 10
-55.726035989389253
 20
155.07601966902689
 30
0.0
 11
-55.726035989389253
 21
158.03682481366479
 31
0.0
  0
LINE
  5
183
  8
1
 62
     3
 10
98.651373940174366
 20
155.07601966902689
 30
0.0
 11
98.651373940174366
 21
158.03682481366479
 31
0.0
  0
LINE
  5
184
  8
1
 62
     3
 10
99.041373940174353
 20
155.07601966902689
 30
0.0
 11
99.041373940174353
 21
158.03682481366479
 31
0.0
  0
LINE
  5
185
  8
1
 62
     3
 10
99.431373940174353
 20
155.07601966902689
 30
0.0
 11
99.431373940174353
 21
158.03682481366479
 31
0.0
  0
LINE
  5
186
  8
1
 62
     7
 10
101.8013739401742
 20
155.07601966902689
 30
0.0
 11
98.121373940174351
 21
155.07601966902689
 31
0.0
  0
LINE
  5
187
  8
1
 62
     3
 10
100.4913739401743
 20
155.07601966902689
 30
0.0
 11
100.4913739401744
 21
158.03682481366479
 31
0.0
  0
LINE
  5
188
  8
1
 62
     3
 10
100.8813739401742
 20
155.07601966902689
 30
0.0
 11
100.8813739401742
 21
158.03682481366479
 31
0.0
  0
LINE
  5
189
  8
1
 62
     3
 10
101.2713739401742
 20
155.07601966902689
 30
0.0
 11
101.2713739401744
 21
158.03682481366479
 31
0.0
  0
ARC
  5
18A
  8
1
 62
     7
 10
-56.166035989389208
 20
214.3738740250943
 30
0.0
 40
0.2999999999999901
 50
0.0
 51
90.0
  0
ARC
  5
18B
  8
1
 62
     7
 10
-50.066035989389199
 20
214.37387402509441
 30
0.0
 40
0.299999999999983
 50
90.0
 51
180.0
  0
ARC
  5
18C
  8
1
 62
     7
 10
-54.866035989389218
 20
213.93475388346991
 30
0.0
 40
1.0
 50
180.0
 51
253.04223669999811
  0
ARC
  5
18D
  8
1
 62
     7
 10
-51.366035989389196
 20
213.93475388346991
 30
0.0
 40
1.0000000000000879
 50
286.95776330000069
 51
0.0
  0
ARC
  5
18E
  8
1
 62
     7
 10
-58.116035989389218
 20
216.79992618642399
 30
0.0
 40
1.0
 50
180.0
 51
270.0
  0
ARC
  5
18F
  8
1
 62
     7
 10
-58.116035989389218
 20
206.79992618642399
 30
0.0
 40
1.0
 50
180.0
 51
270.0
  0
ARC
  5
190
  8
1
 62
     7
 10
-63.116035989389232
 20
218.79992618642399
 30
0.0
 40
1.0
 50
180.0
 51
270.0
  0
ARC
  5
191
  8
1
 62
     7
 10
-67.616035989389232
 20
228.7413172956926
 30
0.0
 40
0.5
 50
180.0
 51
262.87498365109968
  0
ARC
  5
192
  8
1
 62
     7
 10
-56.166035989389208
 20
263.2259783477536
 30
0.0
 40
0.3000000000001251
 50
270.0
 51
0.0
  0
ARC
  5
193
  8
1
 62
     7
 10
-50.066035989389199
 20
263.2259783477536
 30
0.0
 40
0.299999999999983
 50
180.0
 51
270.0
  0
ARC
  5
194
  8
1
 62
     7
 10
-54.866035989389218
 20
263.66509848937801
 30
0.0
 40
1.000000000000097
 50
106.9577633000022
 51
180.0
  0
ARC
  5
195
  8
1
 62
     7
 10
-51.366035989389196
 20
263.66509848937801
 30
0.0
 40
1.0
 50
0.0
 51
73.042236699998512
  0
ARC
  5
196
  8
1
 62
     7
 10
-58.116035989389218
 20
260.79992618642382
 30
0.0
 40
1.0
 50
90.0
 51
180.0
  0
ARC
  5
197
  8
1
 62
     7
 10
-58.116035989389218
 20
270.79992618642387
 30
0.0
 40
1.0
 50
90.0
 51
180.0
  0
ARC
  5
198
  8
1
 62
     7
 10
-63.116035989389232
 20
258.79992618642387
 30
0.0
 40
1.0
 50
90.0
 51
180.0
  0
ARC
  5
199
  8
1
 62
     7
 10
-67.616035989389232
 20
248.8585350771551
 30
0.0
 40
0.5000000000000581
 50
97.125016348900601
 51
180.0
  0
ARC
  5
19A
  8
1
 62
     7
 10
-12.06603598938926
 20
214.3738740250943
 30
0.0
 40
0.3000000000000966
 50
90.0
 51
180.0
  0
ARC
  5
19B
  8
1
 62
     7
 10
-18.16603598938925
 20
214.37387402509441
 30
0.0
 40
0.2999999999999901
 50
0.0
 51
90.0
  0
ARC
  5
19C
  8
1
 62
     7
 10
-13.36603598938925
 20
213.93475388346991
 30
0.0
 40
1.0000000000000979
 50
286.95776330000263
 51
0.0
  0
ARC
  5
19D
  8
1
 62
     7
 10
-16.86603598938926
 20
213.93475388346991
 30
0.0
 40
1.0
 50
180.0
 51
253.0422366999988
  0
ARC
  5
19E
  8
1
 62
     7
 10
-10.116035989389241
 20
216.79992618642399
 30
0.0
 40
1.0
 50
270.0
 51
0.0
  0
ARC
  5
19F
  8
1
 62
     7
 10
-10.116035989389241
 20
206.79992618642399
 30
0.0
 40
1.000000000000113
 50
270.0
 51
0.0
  0
ARC
  5
1A0
  8
1
 62
     7
 10
-5.1160359893892347
 20
218.79992618642399
 30
0.0
 40
1.0
 50
270.0
 51
0.0
  0
ARC
  5
1A1
  8
1
 62
     7
 10
-0.6160359893892348
 20
228.7413172956926
 30
0.0
 40
0.5000000000000867
 50
277.12501634890037
 51
0.0
  0
ARC
  5
1A2
  8
1
 62
     7
 10
-12.06603598938926
 20
263.2259783477536
 30
0.0
 40
0.2999999999999901
 50
180.0
 51
270.0
  0
ARC
  5
1A3
  8
1
 62
     7
 10
-18.16603598938925
 20
263.2259783477536
 30
0.0
 40
0.3000000000000114
 50
270.0
 51
0.0
  0
ARC
  5
1A4
  8
1
 62
     7
 10
-13.36603598938925
 20
263.66509848937801
 30
0.0
 40
1.0
 50
0.0
 51
73.042236699997162
  0
ARC
  5
1A5
  8
1
 62
     7
 10
-16.86603598938926
 20
263.66509848937801
 30
0.0
 40
1.000000000000095
 50
106.9577633000021
 51
180.0
  0
ARC
  5
1A6
  8
1
 62
     7
 10
75.224855197832696
 20
112.506544989281
 30
0.0
 40
0.2999999999999023
 50
276.48270105112971
 51
6.4827010511461918
  0
ARC
  5
1A7
  8
1
 62
     7
 10
74.935316988722548
 20
111.1652791229273
 30
0.0
 40
1.0000000000000591
 50
96.482701051129382
 51
169.52493775112441
  0
ARC
  5
1A8
  8
1
 62
     7
 10
75.330478279045124
 20
107.6876581610294
 30
0.0
 40
0.9999999999999971
 50
203.4404643511366
 51
276.48270105112999
  0
ARC
  5
1A9
  8
1
 62
     7
 10
75.913564875251978
 20
106.4455484556877
 30
0.0
 40
0.3000000000000419
 50
6.482701051123942
 51
96.482701051125446
  0
ARC
  5
1AA
  8
1
 62
     7
 10
124.0091830050966
 20
106.4455484556877
 30
0.0
 40
0.3000000000000984
 50
83.517298948877283
 51
173.51729894887751
  0
ARC
  5
1AB
  8
1
 62
     7
 10
124.5922696013034
 20
107.6876581610294
 30
0.0
 40
0.9999999999999575
 50
263.5172989488716
 51
336.55953564886221
  0
ARC
  5
1AC
  8
1
 62
     7
 10
124.987430891626
 20
111.1652791229273
 30
0.0
 40
1.000000000000089
 50
10.47506224887519
 51
83.517298948873034
  0
ARC
  5
1AD
  8
1
 62
     7
 10
124.6978926825159
 20
112.506544989281
 30
0.0
 40
0.3000000000000108
 50
173.51729894885631
 51
263.51729894887302
  0
ARC
  5
1AE
  8
1
 62
     7
 10
-58.116035989389239
 20
90.179284096240593
 30
0.0
 40
1.0
 50
90.0
 51
180.0
  0
ARC
  5
1AF
  8
1
 62
     7
 10
-58.116035989389239
 20
138.67928409624051
 30
0.0
 40
1.0
 50
90.0
 51
180.0
  0
ARC
  5
1B0
  8
1
 62
     7
 10
-63.116035989389239
 20
136.67928409624051
 30
0.0
 40
1.0
 50
90.0
 51
180.0
  0
ARC
  5
1B1
  8
1
 62
     7
 10
-63.116035989389239
 20
96.679284096240593
 30
0.0
 40
0.9999999999999927
 50
180.0
 51
270.0
  0
ARC
  5
1B2
  8
1
 62
     7
 10
-67.616035989389246
 20
126.7378929869719
 30
0.0
 40
0.5000000000000581
 50
97.125016348900601
 51
180.0
  0
ARC
  5
1B3
  8
1
 62
     7
 10
-67.616035989389246
 20
106.6206752055093
 30
0.0
 40
0.5
 50
180.0
 51
262.87498365109951
  0
ARC
  5
1B4
  8
1
 62
     7
 10
-10.116035989389241
 20
260.79992618642382
 30
0.0
 40
1.0000000000000031
 50
0.0
 51
90.0
  0
ARC
  5
1B5
  8
1
 62
     7
 10
-10.116035989389241
 20
270.79992618642387
 30
0.0
 40
1.0000000000000011
 50
0.0
 51
90.0
  0
ARC
  5
1B6
  8
1
 62
     7
 10
-5.1160359893892347
 20
258.79992618642387
 30
0.0
 40
0.9999999999999948
 50
0.0
 51
90.0
  0
ARC
  5
1B7
  8
1
 62
     7
 10
-0.6160359893892348
 20
248.8585350771551
 30
0.0
 40
0.5
 50
0.0
 51
82.874983651099072
  0
ARC
  5
1B8
  8
1
 62
     7
 10
117.3429411519943
 20
134.06085130806059
 30
0.0
 40
4.0000000000000631
 50
17.133723100612031
 51
72.866276899388154
  0
ARC
  5
1B9
  8
1
 62
     7
 10
82.579806728354285
 20
134.06085130806059
 30
0.0
 40
4.0000000000000417
 50
107.13372310061111
 51
162.8662768993878
  0
ARC
  5
1BA
  8
1
 62
     7
 10
116.54114666673119
 20
133.2590568227975
 30
0.0
 40
2.000000000000056
 50
16.610151184559911
 51
73.389848815439592
  0
ARC
  5
1BB
  8
1
 62
     7
 10
83.381601213617358
 20
133.2590568227975
 30
0.0
 40
2.0000000000000262
 50
106.6101511845584
 51
163.38984881543979
  0
ARC
  5
1BC
  8
1
 62
     7
 10
83.381601213617387
 20
100.0995113696837
 30
0.0
 40
2.0000000000000142
 50
196.61015118455859
 51
253.3898488154409
  0
ARC
  5
1BD
  8
1
 62
     7
 10
116.54114666673119
 20
100.0995113696837
 30
0.0
 40
2.0000000000000342
 50
286.61015118456049
 51
343.38984881544047
  0
ARC
  5
1BE
  8
1
 62
     7
 10
116.54114666673119
 20
133.2590568227975
 30
0.0
 40
4.0000000000000879
 50
16.610151184558731
 51
73.389848815441269
  0
ARC
  5
1BF
  8
1
 62
     7
 10
83.381601213617358
 20
133.2590568227975
 30
0.0
 40
3.9999999999999729
 50
106.6101511845587
 51
163.38984881544059
  0
ARC
  5
1C0
  8
1
 62
     7
 10
-10.116035989389241
 20
90.179284096240593
 30
0.0
 40
1.0000000000000011
 50
0.0
 51
90.0
  0
ARC
  5
1C1
  8
1
 62
     7
 10
-10.116035989389241
 20
138.67928409624051
 30
0.0
 40
1.0000000000000011
 50
0.0
 51
90.0
  0
ARC
  5
1C2
  8
1
 62
     7
 10
-5.1160359893892391
 20
136.67928409624051
 30
0.0
 40
1.0
 50
0.0
 51
90.0
  0
ARC
  5
1C3
  8
1
 62
     7
 10
-5.1160359893892347
 20
96.679284096240593
 30
0.0
 40
1.0
 50
270.0
 51
0.0
  0
ARC
  5
1C4
  8
1
 62
     7
 10
-0.6160359893892348
 20
126.7378929869719
 30
0.0
 40
0.5
 50
0.0
 51
82.874983651099143
  0
ARC
  5
1C5
  8
1
 62
     7
 10
-0.6160359893892348
 20
106.6206752055093
 30
0.0
 40
0.5000000000000727
 50
277.12501634890072
 51
0.0
  0
ARC
  5
1C6
  8
1
 62
     7
 10
103.76137394017429
 20
113.0846934558584
 30
0.0
 40
1.3999999999999191
 50
135.8057962770705
 51
180.0
  0
ARC
  5
1C7
  8
1
 62
     7
 10
101.4613739401742
 20
111.9943217849207
 30
0.0
 40
0.9000000000000056
 50
270.0
 51
0.0
  0
ARC
  5
1C8
  8
1
 62
     7
 10
98.461373940174326
 20
111.9943217849207
 30
0.0
 40
0.9000000000000056
 50
180.0
 51
270.0
  0
ARC
  5
1C9
  8
1
 62
     7
 10
96.161373940174315
 20
113.0846934558584
 30
0.0
 40
1.400000000000005
 50
0.0
 51
44.194203722926638
  0
ARC
  5
1CA
  8
1
 62
     7
 10
-53.116035989389232
 20
219.67387402509439
 30
0.0
 40
6.9999999999999032
 50
253.0422366999959
 51
286.95776330000422
  0
ARC
  5
1CB
  8
1
 62
     7
 10
-54.116035989389211
 20
210.79992618642399
 30
0.0
 40
5.4999999999999991
 50
294.61997732865711
 51
44.405903711410332
  0
ARC
  5
1CC
  8
1
 62
     7
 10
-54.116035989389211
 20
210.79992618642399
 30
0.0
 40
2.7500000000000222
 50
120.4699325366892
 51
44.829688195306268
  0
ARC
  5
1CD
  8
1
 62
     7
 10
-54.116035989389211
 20
210.79992618642399
 30
0.0
 40
5.5000000000000711
 50
123.0557311508539
 51
155.3800226713436
  0
ARC
  5
1CE
  8
1
 62
     7
 10
-60.116035989389218
 20
216.79992618642399
 30
0.0
 40
1.0
 50
0.0
 51
90.0
  0
ARC
  5
1CF
  8
1
 62
     7
 10
-54.116035989389211
 20
210.79992618642399
 30
0.0
 40
5.4999999999999876
 50
204.6199773286568
 51
245.38002267134331
  0
ARC
  5
1D0
  8
1
 62
     7
 10
-64.616035989389204
 20
227.35853507715541
 30
0.0
 40
0.4999999999999858
 50
0.0
 51
82.874983651097793
  0
ARC
  5
1D1
  8
1
 62
     7
 10
-53.116035989389232
 20
257.92597834775353
 30
0.0
 40
6.9999999999999147
 50
73.042236699995783
 51
106.957763300004
  0
ARC
  5
1D2
  8
1
 62
     7
 10
-54.116035989389211
 20
266.79992618642387
 30
0.0
 40
5.4999999999999503
 50
315.59409628858918
 51
65.380022671342743
  0
ARC
  5
1D3
  8
1
 62
     7
 10
-54.116035989389211
 20
266.79992618642387
 30
0.0
 40
2.749999999999996
 50
315.17031180469343
 51
239.53006746330931
  0
ARC
  5
1D4
  8
1
 62
     7
 10
-56.116035989389218
 20
237.599926186424
 30
0.0
 40
1.1999999999999951
 50
180.0
 51
0.0
  0
ARC
  5
1D5
  8
1
 62
     7
 10
-56.116035989389218
 20
239.99992618642389
 30
0.0
 40
1.2000000000000091
 50
0.0
 51
180.0
  0
ARC
  5
1D6
  8
1
 62
     7
 10
-56.616035989389211
 20
238.7999261864239
 30
0.0
 40
4.0
 50
270.0
 51
90.0
  0
ARC
  5
1D7
  8
1
 62
     7
 10
-54.116035989389211
 20
266.79992618642387
 30
0.0
 40
5.4999999999999751
 50
204.61997732865649
 51
236.94426884914529
  0
ARC
  5
1D8
  8
1
 62
     7
 10
-60.116035989389218
 20
260.79992618642387
 30
0.0
 40
1.0
 50
270.0
 51
0.0
  0
ARC
  5
1D9
  8
1
 62
     7
 10
-54.116035989389211
 20
266.79992618642387
 30
0.0
 40
5.5000000000000044
 50
114.6199773286572
 51
155.380022671343
  0
ARC
  5
1DA
  8
1
 62
     7
 10
-64.616035989389204
 20
250.24131729569251
 30
0.0
 40
0.4999999999999736
 50
277.1250163489018
 51
0.0
  0
ARC
  5
1DB
  8
1
 62
     7
 10
-71.116035989389232
 20
238.7999261864239
 30
0.0
 40
1.0
 50
270.0
 51
90.0
  0
ARC
  5
1DC
  8
1
 62
     7
 10
-15.11603598938923
 20
219.67387402509439
 30
0.0
 40
6.9999999999999121
 50
253.04223669999581
 51
286.95776330000388
  0
ARC
  5
1DD
  8
1
 62
     7
 10
-14.116035989389241
 20
210.79992618642399
 30
0.0
 40
2.7500000000000031
 50
135.17031180469371
 51
59.53006746331107
  0
ARC
  5
1DE
  8
1
 62
     7
 10
-14.116035989389241
 20
210.79992618642399
 30
0.0
 40
5.4999999999999529
 50
24.619977328655999
 51
56.944268849145857
  0
ARC
  5
1DF
  8
1
 62
     7
 10
-8.1160359893892462
 20
216.79992618642399
 30
0.0
 40
1.0
 50
90.0
 51
180.0
  0
ARC
  5
1E0
  8
1
 62
     7
 10
-14.116035989389241
 20
210.79992618642399
 30
0.0
 40
5.500000000000103
 50
294.61997732865649
 51
335.38002267134368
  0
ARC
  5
1E1
  8
1
 62
     7
 10
-14.116035989389241
 20
210.79992618642399
 30
0.0
 40
5.4999999999999547
 50
135.59409628858921
 51
245.38002267134331
  0
ARC
  5
1E2
  8
1
 62
     7
 10
-3.6160359893892391
 20
227.35853507715541
 30
0.0
 40
0.4999999999999459
 50
97.125016348902761
 51
180.0
  0
ARC
  5
1E3
  8
1
 62
     7
 10
-15.11603598938923
 20
257.92597834775353
 30
0.0
 40
6.999999999999905
 50
73.042236699996039
 51
106.9577633000043
  0
ARC
  5
1E4
  8
1
 62
     7
 10
-14.116035989389241
 20
266.79992618642387
 30
0.0
 40
5.5
 50
114.619977328657
 51
224.4059037114109
  0
ARC
  5
1E5
  8
1
 62
     7
 10
-14.116035989389241
 20
266.79992618642387
 30
0.0
 40
2.7499999999999711
 50
300.4699325366899
 51
224.82968819530689
  0
ARC
  5
1E6
  8
1
 62
     7
 10
80.835321778844644
 20
110.0744338192586
 30
0.0
 40
7.0000000000000373
 50
169.52493775112609
 51
203.4404643511356
  0
ARC
  5
1E7
  8
1
 62
     7
 10
119.08742610150399
 20
110.0744338192586
 30
0.0
 40
6.9999999999999432
 50
336.55953564886431
 51
10.47506224887376
  0
ARC
  5
1E8
  8
1
 62
     7
 10
-54.866035989389232
 20
107.92928409624049
 30
0.0
 40
1.487500000000004
 50
0.0
 51
90.0
  0
ARC
  5
1E9
  8
1
 62
     7
 10
-51.366035989389232
 20
107.92928409624049
 30
0.0
 40
1.48750000000001
 50
90.0
 51
180.0
  0
ARC
  5
1EA
  8
1
 62
     7
 10
-51.366035989389232
 20
111.42928409624049
 30
0.0
 40
1.487499999999996
 50
180.0
 51
270.0
  0
ARC
  5
1EB
  8
1
 62
     7
 10
-54.866035989389232
 20
111.42928409624049
 30
0.0
 40
1.487499999999996
 50
270.0
 51
0.0
  0
ARC
  5
1EC
  8
1
 62
     7
 10
-60.116035989389239
 20
138.67928409624051
 30
0.0
 40
1.0
 50
270.0
 51
0.0
  0
ARC
  5
1ED
  8
1
 62
     7
 10
-60.116035989389239
 20
94.679284096240593
 30
0.0
 40
1.0
 50
0.0
 51
90.0
  0
ARC
  5
1EE
  8
1
 62
     7
 10
-64.616035989389232
 20
128.1206752055092
 30
0.0
 40
0.5000000000000581
 50
277.1250163489006
 51
0.0
  0
ARC
  5
1EF
  8
1
 62
     7
 10
-64.616035989389232
 20
105.2378929869719
 30
0.0
 40
0.5
 50
0.0
 51
82.874983651098006
  0
ARC
  5
1F0
  8
1
 62
     7
 10
-12.11603598938925
 20
237.599926186424
 30
0.0
 40
1.2000000000000011
 50
180.0
 51
0.0
  0
ARC
  5
1F1
  8
1
 62
     7
 10
-12.11603598938925
 20
239.99992618642389
 30
0.0
 40
1.1999999999999991
 50
0.0
 51
180.0
  0
ARC
  5
1F2
  8
1
 62
     7
 10
99.961373940174312
 20
77.679284096240593
 30
0.0
 40
63.0
 50
72.866276899388197
 51
86.815261463279583
  0
ARC
  5
1F3
  8
1
 62
     7
 10
99.961373940174312
 20
77.679284096240593
 30
0.0
 40
62.000000000000078
 50
73.389848815440871
 51
87.226540597915388
  0
ARC
  5
1F4
  8
1
 62
     7
 10
-11.61603598938925
 20
238.7999261864239
 30
0.0
 40
4.0
 50
90.0
 51
270.0
  0
ARC
  5
1F5
  8
1
 62
     7
 10
-14.116035989389241
 20
266.79992618642387
 30
0.0
 40
5.5000000000000391
 50
303.055731150854
 51
335.38002267134368
  0
ARC
  5
1F6
  8
1
 62
     7
 10
-8.1160359893892462
 20
260.79992618642387
 30
0.0
 40
1.0
 50
180.0
 51
270.0
  0
ARC
  5
1F7
  8
1
 62
     7
 10
-29.116035989389239
 20
268.79992618642387
 30
0.0
 40
3.0
 50
90.0
 51
180.0
  0
ARC
  5
1F8
  8
1
 62
     7
 10
-39.116035989389239
 20
268.79992618642387
 30
0.0
 40
3.0
 50
0.0
 51
90.0
  0
ARC
  5
1F9
  8
1
 62
     7
 10
-14.116035989389241
 20
266.79992618642387
 30
0.0
 40
5.5
 50
24.619977328657068
 51
65.380022671342886
  0
ARC
  5
1FA
  8
1
 62
     7
 10
-3.6160359893892391
 20
250.24131729569251
 30
0.0
 40
0.4999999999999992
 50
180.0
 51
262.87498365109758
  0
ARC
  5
1FB
  8
1
 62
     7
 10
99.961373940174312
 20
77.679284096240593
 30
0.0
 40
63.0
 50
93.184738536720403
 51
107.1337231006117
  0
ARC
  5
1FC
  8
1
 62
     7
 10
60.961373940174319
 20
116.67928409624049
 30
0.0
 40
63.000000000000043
 50
350.86680221629609
 51
17.133723100611711
  0
ARC
  5
1FD
  8
1
 62
     7
 10
138.96137394017421
 20
116.67928409624049
 30
0.0
 40
62.999999999999993
 50
162.86627689938831
 51
189.13319778370379
  0
ARC
  5
1FE
  8
1
 62
     7
 10
-13.36603598938925
 20
107.92928409624049
 30
0.0
 40
1.48750000000001
 50
90.0
 51
180.0
  0
ARC
  5
1FF
  8
1
 62
     7
 10
-16.866035989389239
 20
107.92928409624049
 30
0.0
 40
1.4874999999999989
 50
0.0
 51
90.0
  0
ARC
  5
200
  8
1
 62
     7
 10
-16.866035989389239
 20
111.42928409624049
 30
0.0
 40
1.487499999999996
 50
270.0
 51
0.0
  0
ARC
  5
201
  8
1
 62
     7
 10
-13.36603598938925
 20
111.42928409624049
 30
0.0
 40
1.4875
 50
180.0
 51
270.0
  0
ARC
  5
202
  8
1
 62
     7
 10
83.461373940174298
 20
85.179284096240593
 30
0.0
 40
1.0
 50
90.0
 51
180.0
  0
ARC
  5
203
  8
1
 62
     7
 10
99.961373940174312
 20
77.679284096240593
 30
0.0
 40
61.999999999999957
 50
92.773459402084654
 51
106.6101511845592
  0
ARC
  5
204
  8
1
 62
     7
 10
60.961373940174319
 20
116.67928409624049
 30
0.0
 40
61.999999999999957
 50
339.74775325781252
 51
16.610151184559161
  0
ARC
  5
205
  8
1
 62
     7
 10
67.961373940174298
 20
90.179284096240593
 30
0.0
 40
1.0
 50
90.0
 51
180.0
  0
ARC
  5
206
  8
1
 62
     7
 10
77.979819351921989
 20
94.179284096240579
 30
0.0
 40
3.0
 50
270.0
 51
20.252246742186369
  0
ARC
  5
207
  8
1
 62
     7
 10
138.96137394017421
 20
116.67928409624049
 30
0.0
 40
61.999999999999993
 50
163.38984881544081
 51
200.25224674218771
  0
ARC
  5
208
  8
1
 62
     7
 10
116.4613739401743
 20
85.179284096240593
 30
0.0
 40
1.0
 50
0.0
 51
90.0
  0
ARC
  5
209
  8
1
 62
     7
 10
131.9613739401743
 20
90.179284096240593
 30
0.0
 40
1.0
 50
0.0
 51
90.0
  0
ARC
  5
20A
  8
1
 62
     7
 10
121.94292852842651
 20
94.179284096240579
 30
0.0
 40
2.999999999999984
 50
159.74775325780979
 51
270.0
  0
ARC
  5
20B
  8
1
 62
     7
 10
99.961373940174312
 20
77.679284096240593
 30
0.0
 40
60.000000000000028
 50
73.3898488154408
 51
106.6101511845592
  0
ARC
  5
20C
  8
1
 62
     7
 10
60.961373940174319
 20
116.67928409624049
 30
0.0
 40
60.0
 50
343.38984881544081
 51
16.610151184559228
  0
ARC
  5
20D
  8
1
 62
     7
 10
99.961373940174312
 20
155.67928409624051
 30
0.0
 40
60.0
 50
253.38984881544081
 51
286.61015118455907
  0
ARC
  5
20E
  8
1
 62
     7
 10
138.96137394017421
 20
116.67928409624049
 30
0.0
 40
60.000000000000028
 50
163.38984881544081
 51
196.6101511845591
  0
ARC
  5
20F
  8
1
 62
     7
 10
-8.1160359893892391
 20
138.67928409624051
 30
0.0
 40
1.0
 50
180.0
 51
270.0
  0
ARC
  5
210
  8
1
 62
     7
 10
-8.1160359893892391
 20
94.679284096240593
 30
0.0
 40
1.0
 50
90.0
 51
180.0
  0
ARC
  5
211
  8
1
 62
     7
 10
-29.116035989389239
 20
94.179284096240579
 30
0.0
 40
3.0
 50
180.0
 51
270.0
  0
ARC
  5
212
  8
1
 62
     7
 10
-39.116035989389232
 20
94.179284096240579
 30
0.0
 40
3.0
 50
270.0
 51
0.0
  0
ARC
  5
213
  8
1
 62
     7
 10
-29.116035989389239
 20
208.79992618642399
 30
0.0
 40
3.0
 50
180.0
 51
270.0
  0
ARC
  5
214
  8
1
 62
     7
 10
-39.116035989389239
 20
208.79992618642399
 30
0.0
 40
3.0
 50
270.0
 51
0.0
  0
ARC
  5
215
  8
1
 62
     7
 10
-3.6160359893892391
 20
128.1206752055092
 30
0.0
 40
0.4999999999999992
 50
180.0
 51
262.87498365109877
  0
ARC
  5
216
  8
1
 62
     7
 10
-3.6160359893892391
 20
105.2378929869719
 30
0.0
 40
0.49999999999996
 50
97.125016348902577
 51
180.0
  0
ARC
  5
217
  8
1
 62
     7
 10
99.961373940174312
 20
116.67928409624049
 30
0.0
 40
3.0000000000000209
 50
109.47122063449051
 51
70.528779365509706
  0
ARC
  5
218
  8
1
 62
     7
 10
99.961373940174312
 20
116.67928409624049
 30
0.0
 40
2.499999999999984
 50
113.57817847820201
 51
66.421821521798321
  0
ARC
  5
219
  8
1
 62
     7
 10
2.8839640106107631
 20
238.7999261864239
 30
0.0
 40
1.0
 50
90.0
 51
270.0
  0
ARC
  5
21A
  8
1
 62
     7
 10
99.961373940174312
 20
116.7792840962406
 30
0.0
 40
3.9000000000000461
 50
315.80579627707181
 51
75.14283445507661
  0
ARC
  5
21B
  8
1
 62
     7
 10
99.961373940174312
 20
116.7792840962406
 30
0.0
 40
3.899999999999991
 50
76.997175533200888
 51
103.002824466799
  0
ARC
  5
21C
  8
1
 62
     7
 10
101.0113739401742
 20
112.4443217849207
 30
0.0
 40
0.5499999999999972
 50
270.0
 51
90.0
  0
ARC
  5
21D
  8
1
 62
     7
 10
98.911373940174315
 20
112.4443217849207
 30
0.0
 40
0.5499999999999972
 50
90.0
 51
270.0
  0
ARC
  5
21E
  8
1
 62
     7
 10
99.961373940174312
 20
116.7792840962406
 30
0.0
 40
3.900000000000039
 50
104.8571655449236
 51
224.19420372292899
  0
CIRCLE
  5
21F
  8
1
 62
     7
 10
-56.116035989389218
 20
238.7999261864239
 30
0.0
 40
3.5
  0
CIRCLE
  5
220
  8
1
 62
     7
 10
-56.116035989389218
 20
239.99992618642389
 30
0.0
 40
0.9199999999999945
  0
CIRCLE
  5
221
  8
1
 62
     7
 10
-56.116035989389218
 20
237.599926186424
 30
0.0
 40
0.9199999999999945
  0
CIRCLE
  5
222
  8
1
 62
     7
 10
84.758578144663517
 20
101.4764883007297
 30
0.0
 40
2.9499999999999882
  0
CIRCLE
  5
223
  8
1
 62
     7
 10
84.758578144663517
 20
101.4764883007297
 30
0.0
 40
2.749999999999956
  0
CIRCLE
  5
224
  8
1
 62
     7
 10
84.758578144663517
 20
101.4764883007297
 30
0.0
 40
2.4035898384862251
  0
CIRCLE
  5
225
  8
1
 62
     7
 10
84.758578144663517
 20
131.8820798917514
 30
0.0
 40
2.4035898384862251
  0
CIRCLE
  5
226
  8
1
 62
     7
 10
84.758578144663517
 20
131.8820798917514
 30
0.0
 40
2.75
  0
CIRCLE
  5
227
  8
1
 62
     7
 10
84.758578144663517
 20
131.8820798917514
 30
0.0
 40
2.9499999999999882
  0
CIRCLE
  5
228
  8
1
 62
     7
 10
115.16416973568511
 20
101.4764883007297
 30
0.0
 40
2.403589838486198
  0
CIRCLE
  5
229
  8
1
 62
     7
 10
115.16416973568511
 20
101.4764883007297
 30
0.0
 40
2.75
  0
CIRCLE
  5
22A
  8
1
 62
     7
 10
115.16416973568511
 20
101.4764883007297
 30
0.0
 40
2.9499999999999882
  0
CIRCLE
  5
22B
  8
1
 62
     7
 10
115.16416973568511
 20
131.8820798917514
 30
0.0
 40
2.9499999999999882
  0
CIRCLE
  5
22C
  8
1
 62
     7
 10
115.16416973568511
 20
131.8820798917514
 30
0.0
 40
2.75
  0
CIRCLE
  5
22D
  8
1
 62
     7
 10
115.16416973568511
 20
131.8820798917514
 30
0.0
 40
2.403589838486198
  0
CIRCLE
  5
22E
  8
1
 62
     7
 10
-53.116035989389232
 20
109.67928409624049
 30
0.0
 40
4.0
  0
CIRCLE
  5
22F
  8
1
 62
     7
 10
-53.116035989389232
 20
109.67928409624049
 30
0.0
 40
2.75
  0
CIRCLE
  5
230
  8
1
 62
     7
 10
-12.11603598938925
 20
238.7999261864239
 30
0.0
 40
3.5
  0
CIRCLE
  5
231
  8
1
 62
     7
 10
-15.11603598938925
 20
109.67928409624049
 30
0.0
 40
4.0
  0
CIRCLE
  5
232
  8
1
 62
     7
 10
-15.11603598938925
 20
109.67928409624049
 30
0.0
 40
2.75
  0
CIRCLE
  5
233
  8
1
 62
     7
 10
99.961373940174312
 20
116.67928409624049
 30
0.0
 40
10.499999999999989
  0
CIRCLE
  5
234
  8
1
 62
     7
 10
99.961373940174312
 20
116.67928409624049
 30
0.0
 40
10.999999999999989
  0
CIRCLE
  5
235
  8
1
 62
     7
 10
99.961373940174312
 20
130.17928409624051
 30
0.0
 40
1.899999999999991
  0
CIRCLE
  5
236
  8
1
 62
     7
 10
86.461373940174312
 20
116.67928409624049
 30
0.0
 40
1.900000000000005
  0
CIRCLE
  5
237
  8
1
 62
     7
 10
99.961373940174312
 20
103.17928409624049
 30
0.0
 40
1.8999999999999759
  0
CIRCLE
  5
238
  8
1
 62
     7
 10
113.4613739401743
 20
116.67928409624049
 30
0.0
 40
1.900000000000005
  0
CIRCLE
  5
239
  8
1
 62
     7
 10
-12.11603598938925
 20
239.99992618642389
 30
0.0
 40
0.9200000000000002
  0
CIRCLE
  5
23A
  8
1
 62
     7
 10
-12.11603598938925
 20
237.599926186424
 30
0.0
 40
0.9200000000000002
  0
CIRCLE
  5
23B
  8
1
 62
     7
 10
99.961373940174312
 20
116.67928409624049
 30
0.0
 40
8.4999999999999876
  0
TEXT
  5
23C
  8
1
 62
     3
 10
88.711373940174312
 20
88.679284096240593
 30
0.0
 40
5.0
  1
INPUT
 41
0.8732690999999999
  7
COMPLEX
  0
TEXT
  5
23E
  8
1
 62
     7
 10
-43.95013319063569
 20
180.654223033531
 30
0.0
 40
3.5
  1
AMU 2.5C
 41
0.9
  7
SIMPLEX
  0
ENDSEC
  0
EOF
