  0
SECTION
  2
HEADER
  9
$ACADVER
  1
AC1009
  9
$INSBASE
 10
0.0
 20
0.0
 30
0.0
  9
$EXTMIN
 10
-112.4222691999118
 20
78.250192300653595
 30
0.0
  9
$EXTMAX
 10
255.06629535389911
 20
374.94539559059763
 30
0.0
  9
$LIMMIN
 10
-112.4222691999118
 20
78.250192300653595
  9
$LIMMAX
 10
254.652081791526
 20
373.9098616846648
  9
$ORTHOMODE
 70
     0
  9
$REGENMODE
 70
     1
  9
$FILLMODE
 70
     1
  9
$QTEXTMODE
 70
     0
  9
$MIRRTEXT
 70
     1
  9
$DRAGMODE
 70
     2
  9
$LTSCALE
 40
1.0
  9
$OSMODE
 70
    37
  9
$ATTMODE
 70
     1
  9
$TEXTSIZE
 40
3.5
  9
$TRACEWID
 40
0.5
  9
$TEXTSTYLE
  7
STANDARD
  9
$CLAYER
  8
0
  9
$CELTYPE
  6
BYLAYER
  9
$CECOLOR
 62
   256
  9
$DIMSCALE
 40
1.0
  9
$DIMASZ
 40
0.18
  9
$DIMEXO
 40
0.0625
  9
$DIMDLI
 40
0.38
  9
$DIMRND
 40
0.0
  9
$DIMDLE
 40
0.0
  9
$DIMEXE
 40
0.18
  9
$DIMTP
 40
0.0
  9
$DIMTM
 40
0.0
  9
$DIMTXT
 40
0.18
  9
$DIMCEN
 40
0.09
  9
$DIMTSZ
 40
0.0
  9
$DIMTOL
 70
     0
  9
$DIMLIM
 70
     0
  9
$DIMTIH
 70
     1
  9
$DIMTOH
 70
     1
  9
$DIMSE1
 70
     0
  9
$DIMSE2
 70
     0
  9
$DIMTAD
 70
     0
  9
$DIMZIN
 70
     0
  9
$DIMBLK
  1

  9
$DIMASO
 70
     1
  9
$DIMSHO
 70
     1
  9
$DIMPOST
  1

  9
$DIMAPOST
  1

  9
$DIMALT
 70
     0
  9
$DIMALTD
 70
     2
  9
$DIMALTF
 40
25.399999999999999
  9
$DIMLFAC
 40
1.0
  9
$DIMTOFL
 70
     0
  9
$DIMTVP
 40
0.0
  9
$DIMTIX
 70
     0
  9
$DIMSOXD
 70
     0
  9
$DIMSAH
 70
     0
  9
$DIMBLK1
  1

  9
$DIMBLK2
  1

  9
$DIMSTYLE
  2
STANDARD
  9
$DIMCLRD
 70
     0
  9
$DIMCLRE
 70
     0
  9
$DIMCLRT
 70
     0
  9
$DIMTFAC
 40
1.0
  9
$DIMGAP
 40
0.09
  9
$LUNITS
 70
     2
  9
$LUPREC
 70
     4
  9
$SKETCHINC
 40
0.1
  9
$FILLETRAD
 40
2.0
  9
$AUNITS
 70
     0
  9
$AUPREC
 70
     0
  9
$MENU
  1
ACAD
  9
$ELEVATION
 40
0.0
  9
$PELEVATION
 40
0.0
  9
$THICKNESS
 40
0.0
  9
$LIMCHECK
 70
     0
  9
$BLIPMODE
 70
     0
  9
$CHAMFERA
 40
0.0
  9
$CHAMFERB
 40
0.0
  9
$SKPOLY
 70
     0
  9
$TDCREATE
 40
2452093.911554629
  9
$TDUPDATE
 40
2452093.912564815
  9
$TDINDWG
 40
0.0010158565
  9
$TDUSRTIMER
 40
0.0010158565
  9
$USRTIMER
 70
     1
  9
$ANGBASE
 50
0.0
  9
$ANGDIR
 70
     0
  9
$PDMODE
 70
     0
  9
$PDSIZE
 40
0.0
  9
$PLINEWID
 40
0.0
  9
$COORDS
 70
     1
  9
$SPLFRAME
 70
     0
  9
$SPLINETYPE
 70
     6
  9
$SPLINESEGS
 70
     8
  9
$ATTDIA
 70
     0
  9
$ATTREQ
 70
     1
  9
$HANDLING
 70
 10241
  9
$HANDSEED
  5
23E
  9
$SURFTAB1
 70
     6
  9
$SURFTAB2
 70
     6
  9
$SURFTYPE
 70
     6
  9
$SURFU
 70
     6
  9
$SURFV
 70
     6
  9
$UCSNAME
  2

  9
$UCSORG
 10
0.0
 20
0.0
 30
0.0
  9
$UCSXDIR
 10
1.0
 20
0.0
 30
0.0
  9
$UCSYDIR
 10
0.0
 20
1.0
 30
0.0
  9
$PUCSNAME
  2

  9
$PUCSORG
 10
0.0
 20
0.0
 30
0.0
  9
$PUCSXDIR
 10
1.0
 20
0.0
 30
0.0
  9
$PUCSYDIR
 10
0.0
 20
1.0
 30
0.0
  9
$USERI1
 70
     0
  9
$USERI2
 70
     0
  9
$USERI3
 70
     0
  9
$USERI4
 70
     0
  9
$USERI5
 70
     0
  9
$USERR1
 40
0.0
  9
$USERR2
 40
0.0
  9
$USERR3
 40
0.0
  9
$USERR4
 40
0.0
  9
$USERR5
 40
0.0
  9
$WORLDVIEW
 70
     1
  9
$SHADEDGE
 70
     3
  9
$SHADEDIF
 70
    70
  9
$TILEMODE
 70
     1
  9
$MAXACTVP
 70
    64
  9
$PLIMCHECK
 70
     0
  9
$PEXTMIN
 10
1.0000000000000000E+020
 20
1.0000000000000000E+020
 30
1.0000000000000000E+020
  9
$PEXTMAX
 10
-1.0000000000000000E+020
 20
-1.0000000000000000E+020
 30
-1.0000000000000000E+020
  9
$PLIMMIN
 10
0.0
 20
0.0
  9
$PLIMMAX
 10
12.0
 20
9.0
  9
$UNITMODE
 70
     0
  9
$VISRETAIN
 70
     1
  9
$PLINEGEN
 70
     0
  9
$PSLTSCALE
 70
     1
  0
ENDSEC
  0
SECTION
  2
TABLES
  0
TABLE
  2
VPORT
 70
     2
  0
VPORT
  2
*ACTIVE
 70
     0
 10
0.0
 20
0.0
 11
1.0
 21
1.0
 12
-79.562305426836474
 22
217.70091975193611
 13
0.0
 23
0.0
 14
1.0
 24
1.0
 15
0.0
 25
0.0
 16
0.0
 26
0.0
 36
1.0
 17
0.0
 27
0.0
 37
0.0
 40
9.00000055774467
 41
2.5693779904306222
 42
50.0
 43
0.0
 44
0.0
 50
0.0
 51
0.0
 71
     0
 72
   100
 73
     1
 74
     1
 75
     0
 76
     0
 77
     0
 78
     0
  0
ENDTAB
  0
TABLE
  2
LTYPE
 70
     9
  0
LTYPE
  2
CONTINUOUS
 70
     0
  3
Solid line
 72
    65
 73
     0
 40
0.0
  0
LTYPE
  2
BORDER
 70
     0
  3
__ __ . __ __ .
 72
    65
 73
     6
 40
16.904739848289889
 49
4.8299256709399714
 49
-2.4149628354699839
 49
4.8299256709399714
 49
-2.4149628354699839
 49
0.0
 49
-2.4149628354699839
  0
LTYPE
  2
CENTER
 70
     0
  3
____ _ ____ _
 72
    65
 73
     4
 40
19.319702683759871
 49
12.07481417734993
 49
-2.4149628354699839
 49
2.4149628354699839
 49
-2.4149628354699839
  0
LTYPE
  2
DASHDOT
 70
     0
  3
__ . __ . __ .
 72
    65
 73
     4
 40
9.6598513418799392
 49
4.8299256709399714
 49
-2.4149628354699839
 49
0.0
 49
-2.4149628354699839
  0
LTYPE
  2
DASHED
 70
     0
  3
__ __ __ __ __
 72
    65
 73
     2
 40
7.2448885064099553
 49
4.8299256709399714
 49
-2.4149628354699839
  0
LTYPE
  2
DIVIDE
 70
     0
  3
__ . . __ . . 
 72
    65
 73
     6
 40
12.07481417734993
 49
4.8299256709399714
 49
-2.4149628354699839
 49
0.0
 49
-2.4149628354699839
 49
0.0
 49
-2.4149628354699839
  0
LTYPE
  2
DOT
 70
     0
  3
..............
 72
    65
 73
     4
 40
4.8299256709399714
 49
0.0
 49
-2.4149628354699839
 49
0.0
 49
-2.4149628354699839
  0
LTYPE
  2
HIDDEN
 70
     0
  3
_ _ _ _ _ _ _
 72
    65
 73
     2
 40
3.6224442532049781
 49
2.4149628354699839
 49
-1.207481417734992
  0
LTYPE
  2
PHANTOM
 70
     0
  3
_____ _ _ _____ _ _ 
 72
    65
 73
     6
 40
24.14962835469985
 49
12.07481417734993
 49
-2.4149628354699839
 49
2.4149628354699839
 49
-2.4149628354699839
 49
2.4149628354699839
 49
-2.4149628354699839
  0
ENDTAB
  0
TABLE
  2
LAYER
 70
     2
  0
LAYER
  2
0
 70
     0
 62
     7
  6
CONTINUOUS
  0
LAYER
  2
1
 70
     0
 62
     7
  6
CONTINUOUS
  0
ENDTAB
  0
TABLE
  2
STYLE
 70
     4
  0
STYLE
  2
STANDARD
 70
     0
 40
0.0
 41
1.0
 50
0.0
 71
     0
 42
3.5
  3
txt
  4

  0
STYLE
  2
SIMPLEX
 70
     0
 40
0.0
 41
1.0
 50
0.0
 71
     0
 42
3.5
  3
simplex
  4

  0
STYLE
  2
COMPLEX
 70
     0
 40
0.0
 41
1.0
 50
0.0
 71
     0
 42
3.5
  3
complex
  4

  0
STYLE
  2
ITALIC
 70
     0
 40
0.0
 41
1.0
 50
0.0
 71
     0
 42
3.5
  3
italic
  4

  0
ENDTAB
  0
TABLE
  2
VIEW
 70
     0
  0
ENDTAB
  0
TABLE
  2
UCS
 70
     0
  0
ENDTAB
  0
TABLE
  2
APPID
 70
     1
  0
APPID
  2
ACAD
 70
     0
  0
ENDTAB
  0
TABLE
  2
DIMSTYLE
 70
     1
  0
DIMSTYLE
  2
STANDARD
 70
     0
  3

  4

  5

  6

  7

 40
1.0
 41
0.18
 42
0.0625
 43
0.38
 44
0.18
 45
0.0
 46
0.0
 47
0.0
 48
0.0
140
0.18
141
0.09
142
0.0
143
25.399999999999999
144
1.0
145
0.0
146
1.0
147
0.09
 71
     0
 72
     0
 73
     1
 74
     1
 75
     0
 76
     0
 77
     0
 78
     0
170
     0
171
     2
172
     0
173
     0
174
     0
175
     0
176
     0
177
     0
178
     0
  0
ENDTAB
  0
ENDSEC
  0
SECTION
  2
BLOCKS
  0
BLOCK
  8
0
  2
$MODEL_SPACE
 70
     0
 10
0.0
 20
0.0
 30
0.0
  3
$MODEL_SPACE
  1

  0
ENDBLK
  5
20
  8
0
  0
BLOCK
 67
     1
  8
0
  2
$PAPER_SPACE
 70
     0
 10
0.0
 20
0.0
 30
0.0
  3
$PAPER_SPACE
  1

  0
ENDBLK
  5
1C
 67
     1
  8
0
  0
ENDSEC
  0
SECTION
  2
ENTITIES
  0
LINE
  5
33
  8
1
 62
     3
 10
202.5720817915261
 20
189.73671693864961
 30
0.0
 11
202.5720817915261
 21
192.6975220832874
 31
0.0
  0
LINE
  5
34
  8
1
 62
     7
 10
203.49208179152609
 20
189.73671693864961
 30
0.0
 11
199.81208179152611
 21
189.73671693864961
 31
0.0
  0
LINE
  5
35
  8
1
 62
     3
 10
202.18208179152589
 20
189.73671693864961
 30
0.0
 11
202.18208179152589
 21
192.6975220832874
 31
0.0
  0
LINE
  5
36
  8
1
 62
     3
 10
202.96208179152609
 20
192.6975220832874
 30
0.0
 11
202.96208179152609
 21
189.73671693864961
 31
0.0
  0
LINE
  5
37
  8
1
 62
     3
 10
200.7320817915261
 20
189.73671693864961
 30
0.0
 11
200.7320817915261
 21
192.6975220832874
 31
0.0
  0
LINE
  5
38
  8
1
 62
     3
 10
200.34208179152611
 20
189.73671693864961
 30
0.0
 11
200.34208179152611
 21
192.6975220832874
 31
0.0
  0
LINE
  5
39
  8
1
 62
     3
 10
201.12208179152611
 20
192.6975220832874
 30
0.0
 11
201.12208179152611
 21
189.73671693864961
 31
0.0
  0
LINE
  5
3A
  8
1
 62
     3
 10
-58.422269199911689
 20
189.73671693864961
 30
0.0
 11
-58.422269199911689
 21
192.6975220832874
 31
0.0
  0
LINE
  5
3B
  8
1
 62
     7
 10
-59.34226919991174
 20
189.73671693864961
 30
0.0
 11
-57.502269199911851
 21
189.73671693864961
 31
0.0
  0
LINE
  5
3C
  8
1
 62
     3
 10
-58.812269199911739
 20
189.73671693864961
 30
0.0
 11
-58.812269199911739
 21
192.6975220832874
 31
0.0
  0
LINE
  5
3D
  8
1
 62
     3
 10
-58.032269199911653
 20
192.6975220832874
 30
0.0
 11
-58.032269199911653
 21
189.73671693864961
 31
0.0
  0
LINE
  5
3E
  8
1
 62
     3
 10
13.577730800088309
 20
189.73671693864961
 30
0.0
 11
13.577730800088309
 21
192.6975220832874
 31
0.0
  0
LINE
  5
3F
  8
1
 62
     7
 10
-105.4222691999118
 20
144.8399813658632
 30
0.0
 11
-85.422269199911767
 21
144.8399813658632
 31
0.0
  0
LINE
  5
40
  8
1
 62
     7
 10
-85.422269199911767
 20
144.8399813658632
 30
0.0
 11
-85.422269199911796
 21
143.33998136586311
 31
0.0
  0
LINE
  5
41
  8
1
 62
     7
 10
-104.9222691999118
 20
143.33998136586311
 30
0.0
 11
-104.9222691999118
 21
131.3399813658632
 31
0.0
  0
LINE
  5
42
  8
1
 62
     7
 10
-105.4222691999118
 20
131.83998136586311
 30
0.0
 11
-104.9222691999118
 21
131.3399813658632
 31
0.0
  0
LINE
  5
43
  8
1
 62
     7
 10
-104.9222691999118
 20
143.33998136586311
 30
0.0
 11
-105.4222691999118
 21
142.83998136586311
 31
0.0
  0
LINE
  5
44
  8
1
 62
     7
 10
-75.622269199911798
 20
131.3399813658632
 30
0.0
 11
-104.9222691999118
 21
131.3399813658632
 31
0.0
  0
LINE
  5
45
  8
1
 62
     7
 10
-105.4222691999118
 20
144.8399813658632
 30
0.0
 11
-105.4222691999118
 21
131.83998136586311
 31
0.0
  0
LINE
  5
46
  8
1
 62
     7
 10
-104.9222691999118
 20
143.33998136586311
 30
0.0
 11
-75.622269199911798
 21
143.33998136586311
 31
0.0
  0
LINE
  5
47
  8
1
 62
     7
 10
-75.622269199911798
 20
154.44053548454929
 30
0.0
 11
-75.622269199911798
 21
120.23942724717691
 31
0.0
  0
LINE
  5
48
  8
1
 62
     7
 10
-69.818352801894321
 20
118.43693161600081
 30
0.0
 11
-74.226185597929273
 21
118.7430311157255
 31
0.0
  0
LINE
  5
49
  8
1
 62
     7
 10
-74.226185597929273
 20
155.93693161600081
 30
0.0
 11
-69.818352801894321
 21
156.2430311157255
 31
0.0
  0
LINE
  5
4A
  8
1
 62
     7
 10
-64.922269199911796
 20
102.3399813658632
 30
0.0
 11
-66.922269199911781
 21
102.3399813658632
 31
0.0
  0
LINE
  5
4B
  8
1
 62
     7
 10
-68.422269199911796
 20
103.8399813658632
 30
0.0
 11
-68.422269199911796
 21
170.8399813658632
 31
0.0
  0
LINE
  5
4C
  8
1
 62
     7
 10
-66.922269199911796
 20
172.33998136586311
 30
0.0
 11
-64.922269199911796
 21
172.33998136586311
 31
0.0
  0
LINE
  5
4D
  8
1
 62
     7
 10
-60.422269199911788
 20
175.33998136586311
 30
0.0
 11
-60.422269199911788
 21
121.3399813658632
 31
0.0
  0
LINE
  5
4E
  8
1
  6
DASHDOT
 62
     3
 10
-52.422269199911788
 20
78.250192300653595
 30
0.0
 11
-52.422269199911788
 21
95.429770431072782
 31
0.0
  0
LINE
  5
4F
  8
1
 62
     7
 10
-62.422269199911788
 20
86.339981365863196
 30
0.0
 11
-63.422269199911803
 21
86.339981365863196
 31
0.0
  0
LINE
  5
50
  8
1
 62
     7
 10
-63.422269199911803
 20
86.339981365863196
 30
0.0
 11
-63.422269199911803
 21
94.33998136586321
 31
0.0
  0
LINE
  5
51
  8
1
 62
     7
 10
-63.422269199911803
 20
94.33998136586321
 30
0.0
 11
-62.422269199911788
 21
94.33998136586321
 31
0.0
  0
LINE
  5
52
  8
1
 62
     7
 10
-64.922269199911796
 20
102.3399813658632
 30
0.0
 11
-64.422269199911796
 21
102.3399813658632
 31
0.0
  0
LINE
  5
53
  8
1
 62
     7
 10
-64.922269199911796
 20
172.33998136586311
 30
0.0
 11
-63.88637081504956
 21
172.33998136586311
 31
0.0
  0
LINE
  5
54
  8
1
 62
     7
 10
-62.422269199911788
 20
172.33998136586311
 30
0.0
 11
-62.422269199911788
 21
81.339981365863196
 31
0.0
  0
LINE
  5
55
  8
1
 62
     7
 10
-64.922269199911796
 20
102.3399813658632
 30
0.0
 11
-64.922269199911796
 21
172.33998136586311
 31
0.0
  0
LINE
  5
56
  8
1
 62
     7
 10
40.577730800088183
 20
144.8399813658632
 30
0.0
 11
60.577730800088197
 21
144.8399813658632
 31
0.0
  0
LINE
  5
57
  8
1
 62
     7
 10
40.577730800088197
 20
143.33998136586311
 30
0.0
 11
40.577730800088183
 21
144.8399813658632
 31
0.0
  0
LINE
  5
58
  8
1
 62
     7
 10
60.077730800088212
 20
131.3399813658632
 30
0.0
 11
60.077730800088212
 21
143.33998136586311
 31
0.0
  0
LINE
  5
59
  8
1
 62
     7
 10
60.077730800088212
 20
131.3399813658632
 30
0.0
 11
60.577730800088197
 21
131.83998136586311
 31
0.0
  0
LINE
  5
5A
  8
1
 62
     7
 10
60.577730800088197
 20
142.83998136586311
 30
0.0
 11
60.077730800088212
 21
143.33998136586311
 31
0.0
  0
LINE
  5
5B
  8
1
 62
     7
 10
60.077730800088212
 20
131.3399813658632
 30
0.0
 11
30.777730800088211
 21
131.3399813658632
 31
0.0
  0
LINE
  5
5C
  8
1
 62
     7
 10
60.577730800088197
 20
131.83998136586311
 30
0.0
 11
60.577730800088197
 21
144.8399813658632
 31
0.0
  0
LINE
  5
5D
  8
1
 62
     7
 10
30.7777308000882
 20
143.33998136586311
 30
0.0
 11
60.077730800088212
 21
143.33998136586311
 31
0.0
  0
LINE
  5
5E
  8
1
 62
     7
 10
30.7777308000882
 20
120.23942724717691
 30
0.0
 11
30.7777308000882
 21
154.44053548454929
 31
0.0
  0
LINE
  5
5F
  8
1
 62
     7
 10
29.381647198105671
 20
118.7430311157255
 30
0.0
 11
24.97381440207073
 21
118.43693161600081
 31
0.0
  0
LINE
  5
60
  8
1
 62
     7
 10
24.97381440207073
 20
156.2430311157255
 30
0.0
 11
29.381647198105671
 21
155.93693161600081
 31
0.0
  0
LINE
  5
61
  8
1
 62
     7
 10
22.07773080008819
 20
102.3399813658632
 30
0.0
 11
20.07773080008819
 21
102.3399813658632
 31
0.0
  0
LINE
  5
62
  8
1
 62
     7
 10
23.577730800088201
 20
170.8399813658632
 30
0.0
 11
23.577730800088201
 21
103.8399813658632
 31
0.0
  0
LINE
  5
63
  8
1
 62
     7
 10
20.07773080008819
 20
172.33998136586311
 30
0.0
 11
22.07773080008819
 21
172.33998136586311
 31
0.0
  0
LINE
  5
64
  8
1
 62
     7
 10
-25.422269199911799
 20
121.3399813658632
 30
0.0
 11
-25.422269199911799
 21
97.339981365863224
 31
0.0
  0
LINE
  5
65
  8
1
 62
     7
 10
-19.422269199911799
 20
121.3399813658632
 30
0.0
 11
-19.422269199911799
 21
97.339981365863224
 31
0.0
  0
LINE
  5
66
  8
1
 62
     7
 10
15.57773080008819
 20
121.3399813658632
 30
0.0
 11
15.57773080008819
 21
175.33998136586311
 31
0.0
  0
LINE
  5
67
  8
1
  6
DASHDOT
 62
     3
 10
7.5777308000882044
 20
95.429770431072782
 30
0.0
 11
7.5777308000882044
 21
78.250192300653595
 31
0.0
  0
LINE
  5
68
  8
1
 62
     7
 10
18.57773080008819
 20
86.339981365863196
 30
0.0
 11
17.57773080008819
 21
86.339981365863196
 31
0.0
  0
LINE
  5
69
  8
1
 62
     7
 10
18.57773080008819
 20
94.33998136586321
 30
0.0
 11
18.57773080008819
 21
86.339981365863196
 31
0.0
  0
LINE
  5
6A
  8
1
 62
     7
 10
17.57773080008819
 20
94.33998136586321
 30
0.0
 11
18.57773080008819
 21
94.33998136586321
 31
0.0
  0
LINE
  5
6B
  8
1
 62
     7
 10
19.57773080008819
 20
102.3399813658632
 30
0.0
 11
20.07773080008819
 21
102.3399813658632
 31
0.0
  0
LINE
  5
6C
  8
1
 62
     7
 10
19.041832415225969
 20
172.33998136586311
 30
0.0
 11
20.07773080008819
 21
172.33998136586311
 31
0.0
  0
LINE
  5
6D
  8
1
 62
     7
 10
17.57773080008819
 20
81.339981365863196
 30
0.0
 11
17.57773080008819
 21
172.33998136586311
 31
0.0
  0
LINE
  5
6E
  8
1
 62
     7
 10
20.07773080008819
 20
172.33998136586311
 30
0.0
 11
20.07773080008819
 21
102.3399813658632
 31
0.0
  0
LINE
  5
6F
  8
1
 62
     7
 10
-60.422269199911788
 20
92.339981365863196
 30
0.0
 11
15.57773080008819
 21
92.339981365863196
 31
0.0
  0
LINE
  5
70
  8
1
 62
     7
 10
-62.422269199911788
 20
81.339981365863196
 30
0.0
 11
17.57773080008819
 21
81.339981365863196
 31
0.0
  0
LINE
  5
71
  8
1
 62
     7
 10
198.152081791526
 20
174.33998136586311
 30
0.0
 11
205.15208179152589
 21
174.33998136586311
 31
0.0
  0
LINE
  5
72
  8
1
 62
     7
 10
198.152081791526
 20
175.33998136586311
 30
0.0
 11
205.15208179152589
 21
175.33998136586311
 31
0.0
  0
LINE
  5
73
  8
1
 62
     7
 10
205.15208179152589
 20
174.33998136586311
 30
0.0
 11
205.15208179152589
 21
175.33998136586311
 31
0.0
  0
LINE
  5
74
  8
1
 62
     7
 10
198.152081791526
 20
174.33998136586311
 30
0.0
 11
198.152081791526
 21
175.33998136586311
 31
0.0
  0
LINE
  5
75
  8
1
 62
     7
 10
203.49208179152609
 20
189.73671693864961
 30
0.0
 11
203.49208179152609
 21
175.33998136586311
 31
0.0
  0
LINE
  5
76
  8
1
 62
     7
 10
201.65208179152589
 20
189.73671693864961
 30
0.0
 11
201.65208179152589
 21
175.33998136586311
 31
0.0
  0
LINE
  5
77
  8
1
 62
     7
 10
199.81208179152611
 20
189.73671693864961
 30
0.0
 11
199.81208179152611
 21
175.33998136586311
 31
0.0
  0
LINE
  5
78
  8
1
 62
     7
 10
207.15208179152589
 20
175.20838433204011
 30
0.0
 11
207.15208179152589
 21
174.2072286321424
 31
0.0
  0
LINE
  5
79
  8
1
 62
     7
 10
196.152081791526
 20
174.2072286321424
 30
0.0
 11
196.152081791526
 21
175.20838433204011
 31
0.0
  0
LINE
  5
7A
  8
1
 62
     7
 10
204.652081791526
 20
172.2997955850731
 30
0.0
 11
204.652081791526
 21
174.33998136586311
 31
0.0
  0
LINE
  5
7B
  8
1
 62
     7
 10
198.65208179152589
 20
172.2997955850731
 30
0.0
 11
198.65208179152589
 21
174.33998136586311
 31
0.0
  0
LINE
  5
7C
  8
1
 62
     7
 10
163.24643021680291
 20
131.19298334946421
 30
0.0
 11
163.74450283317401
 21
131.23684299858689
 31
0.0
  0
LINE
  5
7D
  8
1
 62
     7
 10
162.61980833410681
 20
129.88296670839381
 30
0.0
 11
163.0572357697871
 21
129.92148601906251
 31
0.0
  0
LINE
  5
7E
  8
1
 62
     7
 10
163.539691910138
 20
124.4426872389799
 30
0.0
 11
163.1022644744576
 21
124.404167928311
 31
0.0
  0
LINE
  5
7F
  8
1
 62
     7
 10
163.74450283317401
 20
131.23684299858689
 30
0.0
 11
164.446257219139
 21
123.26768113664809
 31
0.0
  0
LINE
  5
80
  8
1
 62
     7
 10
163.24643021680291
 20
131.19298334946421
 30
0.0
 11
163.94818460276761
 21
123.2238214875254
 31
0.0
  0
LINE
  5
81
  8
1
 62
     7
 10
163.94818460276761
 20
123.2238214875254
 30
0.0
 11
164.446257219139
 21
123.26768113664809
 31
0.0
  0
LINE
  5
82
  8
1
 62
     7
 10
238.85790636391289
 20
123.26768113664809
 30
0.0
 11
239.35597898028439
 21
123.2238214875254
 31
0.0
  0
LINE
  5
83
  8
1
 62
     7
 10
239.35597898028439
 20
123.2238214875254
 30
0.0
 11
240.05773336624901
 21
131.19298334946421
 31
0.0
  0
LINE
  5
84
  8
1
 62
     7
 10
238.85790636391289
 20
123.26768113664809
 30
0.0
 11
239.55966074987779
 21
131.23684299858689
 31
0.0
  0
LINE
  5
85
  8
1
 62
     7
 10
240.20189910859429
 20
124.404167928311
 30
0.0
 11
239.7644716729138
 21
124.4426872389799
 31
0.0
  0
LINE
  5
86
  8
1
 62
     7
 10
240.24692781326479
 20
129.92148601906251
 30
0.0
 11
240.684355248945
 21
129.88296670839381
 31
0.0
  0
LINE
  5
87
  8
1
 62
     7
 10
239.55966074987779
 20
131.23684299858689
 30
0.0
 11
240.05773336624901
 21
131.19298334946421
 31
0.0
  0
LINE
  5
88
  8
1
 62
     7
 10
237.5433251039953
 20
121.4791118006457
 30
0.0
 11
238.53359916813969
 21
121.3399813658632
 31
0.0
  0
LINE
  5
89
  8
1
 62
     7
 10
238.59532912555471
 20
121.78567691415719
 30
0.0
 11
254.42748502278261
 21
91.260819769951567
 31
0.0
  0
LINE
  5
8A
  8
1
 62
     7
 10
164.77056441491209
 20
121.3399813658632
 30
0.0
 11
165.7608384790565
 21
121.4791118006457
 31
0.0
  0
LINE
  5
8B
  8
1
 62
     7
 10
197.4520817915259
 20
130.28095459968739
 30
0.0
 11
197.4520817915259
 21
131.25521557463981
 31
0.0
  0
LINE
  5
8C
  8
1
 62
     7
 10
199.3520817915259
 20
128.38095459968741
 30
0.0
 11
200.9520817915259
 21
128.38095459968741
 31
0.0
  0
LINE
  5
8D
  8
1
 62
     7
 10
200.9520817915259
 20
131.38095459968741
 30
0.0
 11
200.9520817915259
 21
128.38095459968741
 31
0.0
  0
LINE
  5
8E
  8
1
 62
     7
 10
202.3520817915259
 20
128.38095459968741
 30
0.0
 11
202.3520817915259
 21
131.38095459968741
 31
0.0
  0
LINE
  5
8F
  8
1
 62
     7
 10
202.3520817915259
 20
128.38095459968741
 30
0.0
 11
203.9520817915259
 21
128.38095459968741
 31
0.0
  0
LINE
  5
90
  8
1
 62
     7
 10
205.85208179152599
 20
131.25521557463981
 30
0.0
 11
205.85208179152599
 21
130.28095459968739
 31
0.0
  0
LINE
  5
91
  8
1
 62
     7
 10
203.65208179152589
 20
140.8399813658632
 30
0.0
 11
199.652081791526
 21
140.8399813658632
 31
0.0
  0
LINE
  5
92
  8
1
 62
     7
 10
203.65208179152589
 20
144.8399813658632
 30
0.0
 11
203.65208179152589
 21
140.8399813658632
 31
0.0
  0
LINE
  5
93
  8
1
 62
     7
 10
199.652081791526
 20
144.8399813658632
 30
0.0
 11
203.65208179152589
 21
144.8399813658632
 31
0.0
  0
LINE
  5
94
  8
1
 62
     7
 10
199.652081791526
 20
140.8399813658632
 30
0.0
 11
199.652081791526
 21
144.8399813658632
 31
0.0
  0
LINE
  5
95
  8
1
 62
     7
 10
235.30017260198679
 20
92.339981365863196
 30
0.0
 11
252.652081791526
 21
92.339981365863196
 31
0.0
  0
LINE
  5
96
  8
1
  6
DASHDOT
 62
     3
 10
246.652081791526
 20
78.250192300653595
 30
0.0
 11
246.652081791526
 21
95.429770431072782
 31
0.0
  0
LINE
  5
97
  8
1
  6
DASHDOT
 62
     3
 10
156.652081791526
 20
95.429770431072782
 30
0.0
 11
156.652081791526
 21
78.250192300653595
 31
0.0
  0
LINE
  5
98
  8
1
 62
     7
 10
148.8766785602694
 20
91.260819769951567
 30
0.0
 11
164.70883445749729
 21
121.78567691415719
 31
0.0
  0
LINE
  5
99
  8
1
 62
     7
 10
254.652081791526
 20
90.33998136586321
 30
0.0
 11
254.652081791526
 21
81.339981365863196
 31
0.0
  0
LINE
  5
9A
  8
1
 62
     7
 10
150.652081791526
 20
92.339981365863196
 30
0.0
 11
168.0039909810651
 21
92.339981365863196
 31
0.0
  0
LINE
  5
9B
  8
1
 62
     7
 10
148.652081791526
 20
81.339981365863196
 30
0.0
 11
148.652081791526
 21
90.33998136586321
 31
0.0
  0
LINE
  5
9C
  8
1
 62
     7
 10
177.652081791526
 20
82.339981365863196
 30
0.0
 11
225.65208179152609
 21
82.339981365863196
 31
0.0
  0
LINE
  5
9D
  8
1
 62
     7
 10
226.652081791526
 20
81.339981365863196
 30
0.0
 11
254.652081791526
 21
81.339981365863196
 31
0.0
  0
LINE
  5
9E
  8
1
 62
     7
 10
148.652081791526
 20
81.339981365863196
 30
0.0
 11
176.652081791526
 21
81.339981365863196
 31
0.0
  0
LINE
  5
9F
  8
1
 62
     7
 10
227.81503269542819
 20
161.19353119300689
 30
0.0
 11
225.81503269542819
 21
162.34823173138611
 31
0.0
  0
LINE
  5
A0
  8
1
 62
     7
 10
229.81503269542819
 20
162.34823173138611
 30
0.0
 11
227.81503269542819
 21
161.19353119300689
 31
0.0
  0
LINE
  5
A1
  8
1
 62
     7
 10
229.81503269542819
 20
164.6576328081446
 30
0.0
 11
229.81503269542819
 21
162.34823173138611
 31
0.0
  0
LINE
  5
A2
  8
1
 62
     7
 10
227.81503269542819
 20
165.8123333465239
 30
0.0
 11
229.81503269542819
 21
164.6576328081446
 31
0.0
  0
LINE
  5
A3
  8
1
 62
     7
 10
225.81503269542819
 20
164.6576328081446
 30
0.0
 11
227.81503269542819
 21
165.8123333465239
 31
0.0
  0
LINE
  5
A4
  8
1
 62
     7
 10
225.81503269542819
 20
162.34823173138611
 30
0.0
 11
225.81503269542819
 21
164.6576328081446
 31
0.0
  0
LINE
  5
A5
  8
1
 62
     7
 10
177.48913088762359
 20
164.6576328081446
 30
0.0
 11
177.48913088762359
 21
162.34823173138611
 31
0.0
  0
LINE
  5
A6
  8
1
 62
     7
 10
175.48913088762359
 20
165.8123333465239
 30
0.0
 11
177.48913088762359
 21
164.6576328081446
 31
0.0
  0
LINE
  5
A7
  8
1
 62
     7
 10
173.48913088762359
 20
164.6576328081446
 30
0.0
 11
175.48913088762359
 21
165.8123333465239
 31
0.0
  0
LINE
  5
A8
  8
1
 62
     7
 10
173.48913088762359
 20
162.34823173138611
 30
0.0
 11
173.48913088762359
 21
164.6576328081446
 31
0.0
  0
LINE
  5
A9
  8
1
 62
     7
 10
175.48913088762359
 20
161.19353119300689
 30
0.0
 11
173.48913088762359
 21
162.34823173138611
 31
0.0
  0
LINE
  5
AA
  8
1
 62
     7
 10
177.48913088762359
 20
162.34823173138611
 30
0.0
 11
175.48913088762359
 21
161.19353119300689
 31
0.0
  0
LINE
  5
AB
  8
1
 62
     7
 10
175.48913088762359
 20
113.4864315387195
 30
0.0
 11
177.48913088762359
 21
112.3317310003401
 31
0.0
  0
LINE
  5
AC
  8
1
 62
     7
 10
173.48913088762359
 20
112.3317310003401
 30
0.0
 11
175.48913088762359
 21
113.4864315387195
 31
0.0
  0
LINE
  5
AD
  8
1
 62
     7
 10
173.48913088762359
 20
110.02232992358159
 30
0.0
 11
173.48913088762359
 21
112.3317310003401
 31
0.0
  0
LINE
  5
AE
  8
1
 62
     7
 10
175.48913088762359
 20
108.86762938520251
 30
0.0
 11
173.48913088762359
 21
110.02232992358159
 31
0.0
  0
LINE
  5
AF
  8
1
 62
     7
 10
177.48913088762359
 20
110.02232992358159
 30
0.0
 11
175.48913088762359
 21
108.86762938520251
 31
0.0
  0
LINE
  5
B0
  8
1
 62
     7
 10
177.48913088762359
 20
112.3317310003401
 30
0.0
 11
177.48913088762359
 21
110.02232992358159
 31
0.0
  0
LINE
  5
B1
  8
1
 62
     7
 10
225.81503269542819
 20
110.02232992358159
 30
0.0
 11
225.81503269542819
 21
112.3317310003401
 31
0.0
  0
LINE
  5
B2
  8
1
 62
     7
 10
227.81503269542819
 20
108.86762938520251
 30
0.0
 11
225.81503269542819
 21
110.02232992358159
 31
0.0
  0
LINE
  5
B3
  8
1
 62
     7
 10
229.81503269542819
 20
110.02232992358159
 30
0.0
 11
227.81503269542819
 21
108.86762938520251
 31
0.0
  0
LINE
  5
B4
  8
1
 62
     7
 10
229.81503269542819
 20
112.3317310003401
 30
0.0
 11
229.81503269542819
 21
110.02232992358159
 31
0.0
  0
LINE
  5
B5
  8
1
 62
     7
 10
227.81503269542819
 20
113.4864315387195
 30
0.0
 11
229.81503269542819
 21
112.3317310003401
 31
0.0
  0
LINE
  5
B6
  8
1
 62
     7
 10
225.81503269542819
 20
112.3317310003401
 30
0.0
 11
227.81503269542819
 21
113.4864315387195
 31
0.0
  0
LINE
  5
B7
  8
1
 62
     7
 10
10.84023080008831
 20
129.0899813658632
 30
0.0
 11
10.31523080008826
 21
129.0899813658632
 31
0.0
  0
LINE
  5
B8
  8
1
 62
     7
 10
12.32773080008819
 20
127.07748136586321
 30
0.0
 11
12.32773080008819
 21
127.6024813658632
 31
0.0
  0
LINE
  5
B9
  8
1
 62
     7
 10
10.31523080008826
 20
125.5899813658632
 30
0.0
 11
10.84023080008819
 21
125.5899813658632
 31
0.0
  0
LINE
  5
BA
  8
1
 62
     7
 10
8.8277308000882027
 20
127.6024813658632
 30
0.0
 11
8.8277308000882027
 21
127.07748136586321
 31
0.0
  0
LINE
  5
BB
  8
1
 62
     7
 10
8.5777308000882009
 20
123.8758797507254
 30
0.0
 11
8.5777308000882009
 21
121.3399813658632
 31
0.0
  0
LINE
  5
BC
  8
1
 62
     7
 10
12.57773080008819
 20
123.8758797507254
 30
0.0
 11
12.57773080008819
 21
121.3399813658632
 31
0.0
  0
LINE
  5
BD
  8
1
 62
     7
 10
12.57773080008819
 20
121.3399813658632
 30
0.0
 11
15.57773080008819
 21
121.3399813658632
 31
0.0
  0
LINE
  5
BE
  8
1
 62
     7
 10
-55.159769199911871
 20
129.0899813658632
 30
0.0
 11
-55.684769199911898
 21
129.0899813658632
 31
0.0
  0
LINE
  5
BF
  8
1
 62
     7
 10
-57.172269199911803
 20
127.6024813658632
 30
0.0
 11
-57.172269199911803
 21
127.07748136586321
 31
0.0
  0
LINE
  5
C0
  8
1
 62
     7
 10
-55.684769199911777
 20
125.5899813658632
 30
0.0
 11
-55.159769199911871
 21
125.5899813658632
 31
0.0
  0
LINE
  5
C1
  8
1
 62
     7
 10
-53.672269199911788
 20
127.07748136586321
 30
0.0
 11
-53.672269199911788
 21
127.6024813658632
 31
0.0
  0
LINE
  5
C2
  8
1
 62
     7
 10
-53.422269199911803
 20
121.3399813658632
 30
0.0
 11
-53.422269199911803
 21
123.8758797507254
 31
0.0
  0
LINE
  5
C3
  8
1
 62
     7
 10
-57.422269199911788
 20
121.3399813658632
 30
0.0
 11
-57.422269199911788
 21
123.8758797507254
 31
0.0
  0
LINE
  5
C4
  8
1
 62
     7
 10
-60.422269199911788
 20
121.3399813658632
 30
0.0
 11
-57.422269199911788
 21
121.3399813658632
 31
0.0
  0
LINE
  5
C5
  8
1
 62
     7
 10
-53.422269199911803
 20
121.3399813658632
 30
0.0
 11
8.5777308000882009
 21
121.3399813658632
 31
0.0
  0
LINE
  5
C6
  8
1
 62
     7
 10
23.577730800088201
 20
168.1029322697654
 30
0.0
 11
24.877730800088191
 21
168.1029322697654
 31
0.0
  0
LINE
  5
C7
  8
1
 62
     7
 10
24.877730800088191
 20
168.1029322697654
 30
0.0
 11
24.877730800088202
 21
158.9029322697655
 31
0.0
  0
LINE
  5
C8
  8
1
 62
     7
 10
24.877730800088202
 20
158.9029322697655
 30
0.0
 11
23.577730800088201
 21
158.9029322697655
 31
0.0
  0
LINE
  5
C9
  8
1
 62
     7
 10
23.577730800088201
 20
163.87820994473859
 30
0.0
 11
24.877730800088202
 21
164.62876529468519
 31
0.0
  0
LINE
  5
CA
  8
1
 62
     7
 10
23.577730800088201
 20
162.37709924484571
 30
0.0
 11
24.877730800088202
 21
163.1276545947922
 31
0.0
  0
LINE
  5
CB
  8
1
 62
     7
 10
24.877730800088191
 20
167.75293226976541
 30
0.0
 11
29.377730800088191
 21
167.75293226976541
 31
0.0
  0
LINE
  5
CC
  8
1
 62
     7
 10
29.877730800088191
 20
167.25293226976541
 30
0.0
 11
29.877730800088191
 21
159.75293226976541
 31
0.0
  0
LINE
  5
CD
  8
1
 62
     7
 10
29.377730800088191
 20
159.25293226976541
 30
0.0
 11
24.877730800088202
 21
159.25293226976541
 31
0.0
  0
LINE
  5
CE
  8
1
 62
     7
 10
29.877730800088191
 20
167.25293226976541
 30
0.0
 11
29.377730800088191
 21
167.75293226976541
 31
0.0
  0
LINE
  5
CF
  8
1
 62
     7
 10
29.377730800088191
 20
159.25293226976541
 30
0.0
 11
29.877730800088191
 21
159.75293226976541
 31
0.0
  0
LINE
  5
D0
  8
1
 62
     7
 10
29.377730800088191
 20
159.25293226976541
 30
0.0
 11
29.377730800088191
 21
167.75293226976541
 31
0.0
  0
LINE
  5
D1
  8
1
 62
     7
 10
23.577730800088201
 20
115.777030461961
 30
0.0
 11
24.877730800088191
 21
115.777030461961
 31
0.0
  0
LINE
  5
D2
  8
1
 62
     7
 10
24.877730800088191
 20
115.777030461961
 30
0.0
 11
24.877730800088202
 21
106.577030461961
 31
0.0
  0
LINE
  5
D3
  8
1
 62
     7
 10
24.877730800088202
 20
106.577030461961
 30
0.0
 11
23.577730800088201
 21
106.577030461961
 31
0.0
  0
LINE
  5
D4
  8
1
 62
     7
 10
23.577730800088201
 20
111.5523081369343
 30
0.0
 11
24.877730800088202
 21
112.3028634868807
 31
0.0
  0
LINE
  5
D5
  8
1
 62
     7
 10
23.577730800088201
 20
110.0511974370412
 30
0.0
 11
24.877730800088202
 21
110.80175278698781
 31
0.0
  0
LINE
  5
D6
  8
1
 62
     7
 10
24.877730800088191
 20
115.4270304619609
 30
0.0
 11
29.377730800088191
 21
115.4270304619609
 31
0.0
  0
LINE
  5
D7
  8
1
 62
     7
 10
29.877730800088191
 20
114.9270304619609
 30
0.0
 11
29.877730800088191
 21
107.427030461961
 31
0.0
  0
LINE
  5
D8
  8
1
 62
     7
 10
29.377730800088191
 20
106.9270304619609
 30
0.0
 11
24.877730800088202
 21
106.9270304619609
 31
0.0
  0
LINE
  5
D9
  8
1
 62
     7
 10
29.877730800088191
 20
114.9270304619609
 30
0.0
 11
29.377730800088191
 21
115.4270304619609
 31
0.0
  0
LINE
  5
DA
  8
1
 62
     7
 10
29.377730800088191
 20
106.9270304619609
 30
0.0
 11
29.877730800088191
 21
107.427030461961
 31
0.0
  0
LINE
  5
DB
  8
1
 62
     7
 10
29.377730800088191
 20
106.9270304619609
 30
0.0
 11
29.377730800088191
 21
115.4270304619609
 31
0.0
  0
LINE
  5
DC
  8
1
 62
     7
 10
-69.722269199911779
 20
168.1029322697654
 30
0.0
 11
-68.422269199911796
 21
168.1029322697654
 31
0.0
  0
LINE
  5
DD
  8
1
 62
     7
 10
-69.722269199911779
 20
158.9029322697655
 30
0.0
 11
-69.722269199911779
 21
168.1029322697654
 31
0.0
  0
LINE
  5
DE
  8
1
 62
     7
 10
-68.422269199911796
 20
158.9029322697655
 30
0.0
 11
-69.722269199911779
 21
158.9029322697655
 31
0.0
  0
LINE
  5
DF
  8
1
 62
     7
 10
-68.422269199911796
 20
163.1276545947922
 30
0.0
 11
-69.722269199911779
 21
162.37709924484571
 31
0.0
  0
LINE
  5
E0
  8
1
 62
     7
 10
-68.422269199911796
 20
164.62876529468519
 30
0.0
 11
-69.722269199911779
 21
163.87820994473859
 31
0.0
  0
LINE
  5
E1
  8
1
 62
     7
 10
-74.222269199911779
 20
167.75293226976541
 30
0.0
 11
-69.722269199911779
 21
167.75293226976541
 31
0.0
  0
LINE
  5
E2
  8
1
 62
     7
 10
-74.722269199911779
 20
159.75293226976541
 30
0.0
 11
-74.722269199911779
 21
167.25293226976541
 31
0.0
  0
LINE
  5
E3
  8
1
 62
     7
 10
-69.722269199911779
 20
159.25293226976541
 30
0.0
 11
-74.222269199911779
 21
159.25293226976541
 31
0.0
  0
LINE
  5
E4
  8
1
 62
     7
 10
-74.222269199911779
 20
167.75293226976541
 30
0.0
 11
-74.722269199911779
 21
167.25293226976541
 31
0.0
  0
LINE
  5
E5
  8
1
 62
     7
 10
-74.722269199911779
 20
159.75293226976541
 30
0.0
 11
-74.222269199911779
 21
159.25293226976541
 31
0.0
  0
LINE
  5
E6
  8
1
 62
     7
 10
-74.222269199911779
 20
167.75293226976541
 30
0.0
 11
-74.222269199911779
 21
159.25293226976541
 31
0.0
  0
LINE
  5
E7
  8
1
 62
     7
 10
-69.722269199911779
 20
115.777030461961
 30
0.0
 11
-68.422269199911796
 21
115.777030461961
 31
0.0
  0
LINE
  5
E8
  8
1
 62
     7
 10
-69.722269199911779
 20
106.577030461961
 30
0.0
 11
-69.722269199911779
 21
115.777030461961
 31
0.0
  0
LINE
  5
E9
  8
1
 62
     7
 10
-68.422269199911796
 20
106.577030461961
 30
0.0
 11
-69.722269199911779
 21
106.577030461961
 31
0.0
  0
LINE
  5
EA
  8
1
 62
     7
 10
-68.422269199911796
 20
110.80175278698781
 30
0.0
 11
-69.722269199911779
 21
110.0511974370413
 31
0.0
  0
LINE
  5
EB
  8
1
 62
     7
 10
-68.422269199911796
 20
112.3028634868807
 30
0.0
 11
-69.722269199911779
 21
111.5523081369343
 31
0.0
  0
LINE
  5
EC
  8
1
 62
     7
 10
-74.222269199911779
 20
115.4270304619609
 30
0.0
 11
-69.722269199911779
 21
115.4270304619609
 31
0.0
  0
LINE
  5
ED
  8
1
 62
     7
 10
-74.722269199911779
 20
107.427030461961
 30
0.0
 11
-74.722269199911779
 21
114.9270304619609
 31
0.0
  0
LINE
  5
EE
  8
1
 62
     7
 10
-69.722269199911779
 20
106.9270304619609
 30
0.0
 11
-74.222269199911779
 21
106.9270304619609
 31
0.0
  0
LINE
  5
EF
  8
1
 62
     7
 10
-74.222269199911779
 20
115.4270304619609
 30
0.0
 11
-74.722269199911779
 21
114.9270304619609
 31
0.0
  0
LINE
  5
F0
  8
1
 62
     7
 10
-74.722269199911779
 20
107.427030461961
 30
0.0
 11
-74.222269199911779
 21
106.9270304619609
 31
0.0
  0
LINE
  5
F1
  8
1
 62
     7
 10
-74.222269199911779
 20
115.4270304619609
 30
0.0
 11
-74.222269199911779
 21
106.9270304619609
 31
0.0
  0
LINE
  5
F2
  8
1
 62
     7
 10
-75.622269199911798
 20
338.01041580335112
 30
0.0
 11
-75.622269199911798
 21
303.80930756597883
 31
0.0
  0
LINE
  5
F3
  8
1
 62
     7
 10
-69.818352801894321
 20
302.00681193480261
 30
0.0
 11
-74.226185597929273
 21
302.31291143452728
 31
0.0
  0
LINE
  5
F4
  8
1
 62
     7
 10
-74.226185597929273
 20
339.50681193480273
 30
0.0
 11
-69.818352801894321
 21
339.81291143452728
 31
0.0
  0
LINE
  5
F5
  8
1
 62
     7
 10
-68.422269199911796
 20
287.40986168466492
 30
0.0
 11
-68.422269199911796
 21
354.40986168466492
 31
0.0
  0
LINE
  5
F6
  8
1
 62
     7
 10
-60.422269199911788
 20
358.90986168466492
 30
0.0
 11
-60.422269199911788
 21
326.40986168466492
 31
0.0
  0
LINE
  5
F7
  8
1
 62
     7
 10
-62.422269199911788
 20
355.90986168466492
 30
0.0
 11
-62.422269199911788
 21
323.90986168466497
 31
0.0
  0
LINE
  5
F8
  8
1
 62
     7
 10
-64.922269199911796
 20
285.90986168466492
 30
0.0
 11
-64.922269199911796
 21
355.90986168466492
 31
0.0
  0
LINE
  5
F9
  8
1
 62
     7
 10
60.077730800088212
 20
314.90986168466492
 30
0.0
 11
60.077730800088212
 21
318.90986168466492
 31
0.0
  0
LINE
  5
FA
  8
1
 62
     7
 10
60.077730800088212
 20
314.90986168466492
 30
0.0
 11
60.577730800088197
 21
315.40986168466492
 31
0.0
  0
LINE
  5
FB
  8
1
 62
     7
 10
60.577730800088197
 20
326.40986168466492
 30
0.0
 11
60.077730800088212
 21
326.90986168466492
 31
0.0
  0
LINE
  5
FC
  8
1
 62
     7
 10
60.077730800088212
 20
314.90986168466492
 30
0.0
 11
30.777730800088211
 21
314.90986168466492
 31
0.0
  0
LINE
  5
FD
  8
1
 62
     7
 10
60.577730800088197
 20
315.40986168466492
 30
0.0
 11
60.577730800088197
 21
326.40986168466492
 31
0.0
  0
LINE
  5
FE
  8
1
 62
     7
 10
30.7777308000882
 20
326.90986168466492
 30
0.0
 11
60.077730800088212
 21
326.90986168466492
 31
0.0
  0
LINE
  5
FF
  8
1
 62
     7
 10
30.7777308000882
 20
303.80930756597883
 30
0.0
 11
30.7777308000882
 21
338.01041580335112
 31
0.0
  0
LINE
  5
100
  8
1
 62
     7
 10
29.381647198105671
 20
302.31291143452728
 30
0.0
 11
24.97381440207073
 21
302.00681193480261
 31
0.0
  0
LINE
  5
101
  8
1
 62
     7
 10
24.97381440207073
 20
339.81291143452728
 30
0.0
 11
29.381647198105671
 21
339.50681193480273
 31
0.0
  0
LINE
  5
102
  8
1
 62
     7
 10
23.577730800088201
 20
354.40986168466492
 30
0.0
 11
23.577730800088201
 21
287.40986168466492
 31
0.0
  0
LINE
  5
103
  8
1
 62
     7
 10
15.57773080008819
 20
282.90986168466492
 30
0.0
 11
15.57773080008819
 21
315.40986168466492
 31
0.0
  0
LINE
  5
104
  8
1
 62
     7
 10
20.07773080008819
 20
355.90986168466492
 30
0.0
 11
20.07773080008819
 21
285.90986168466492
 31
0.0
  0
LINE
  5
105
  8
1
 62
     7
 10
23.577730800088201
 20
351.67281258856713
 30
0.0
 11
24.877730800088191
 21
351.67281258856713
 31
0.0
  0
LINE
  5
106
  8
1
 62
     7
 10
24.877730800088191
 20
351.67281258856713
 30
0.0
 11
24.877730800088202
 21
342.47281258856719
 31
0.0
  0
LINE
  5
107
  8
1
 62
     7
 10
24.877730800088202
 20
342.47281258856719
 30
0.0
 11
23.577730800088201
 21
342.47281258856719
 31
0.0
  0
LINE
  5
108
  8
1
 62
     7
 10
23.577730800088201
 20
347.44809026354051
 30
0.0
 11
24.877730800088202
 21
348.19864561348697
 31
0.0
  0
LINE
  5
109
  8
1
 62
     7
 10
23.577730800088201
 20
345.94697956364752
 30
0.0
 11
24.877730800088202
 21
346.69753491359393
 31
0.0
  0
LINE
  5
10A
  8
1
 62
     7
 10
24.877730800088191
 20
351.32281258856722
 30
0.0
 11
29.377730800088191
 21
351.32281258856722
 31
0.0
  0
LINE
  5
10B
  8
1
 62
     7
 10
29.877730800088191
 20
350.82281258856722
 30
0.0
 11
29.877730800088191
 21
343.32281258856722
 31
0.0
  0
LINE
  5
10C
  8
1
 62
     7
 10
29.377730800088191
 20
342.82281258856722
 30
0.0
 11
24.877730800088202
 21
342.82281258856722
 31
0.0
  0
LINE
  5
10D
  8
1
 62
     7
 10
29.877730800088191
 20
350.82281258856722
 30
0.0
 11
29.377730800088191
 21
351.32281258856722
 31
0.0
  0
LINE
  5
10E
  8
1
 62
     7
 10
29.377730800088191
 20
342.82281258856722
 30
0.0
 11
29.877730800088191
 21
343.32281258856722
 31
0.0
  0
LINE
  5
10F
  8
1
 62
     7
 10
29.377730800088191
 20
342.82281258856722
 30
0.0
 11
29.377730800088191
 21
351.32281258856722
 31
0.0
  0
LINE
  5
110
  8
1
 62
     7
 10
23.577730800088201
 20
299.34691078076281
 30
0.0
 11
24.877730800088191
 21
299.34691078076281
 31
0.0
  0
LINE
  5
111
  8
1
 62
     7
 10
24.877730800088191
 20
299.34691078076281
 30
0.0
 11
24.877730800088202
 21
290.14691078076282
 31
0.0
  0
LINE
  5
112
  8
1
 62
     7
 10
24.877730800088202
 20
290.14691078076282
 30
0.0
 11
23.577730800088201
 21
290.14691078076282
 31
0.0
  0
LINE
  5
113
  8
1
 62
     7
 10
23.577730800088201
 20
295.12218845573602
 30
0.0
 11
24.877730800088202
 21
295.87274380568249
 31
0.0
  0
LINE
  5
114
  8
1
 62
     7
 10
23.577730800088201
 20
293.62107775584298
 30
0.0
 11
24.877730800088202
 21
294.37163310578961
 31
0.0
  0
LINE
  5
115
  8
1
 62
     7
 10
24.877730800088191
 20
298.99691078076279
 30
0.0
 11
29.377730800088191
 21
298.99691078076279
 31
0.0
  0
LINE
  5
116
  8
1
 62
     7
 10
29.877730800088191
 20
298.49691078076279
 30
0.0
 11
29.877730800088191
 21
290.99691078076279
 31
0.0
  0
LINE
  5
117
  8
1
 62
     7
 10
29.377730800088191
 20
290.49691078076279
 30
0.0
 11
24.877730800088202
 21
290.49691078076279
 31
0.0
  0
LINE
  5
118
  8
1
 62
     7
 10
29.877730800088191
 20
298.49691078076279
 30
0.0
 11
29.377730800088191
 21
298.99691078076279
 31
0.0
  0
LINE
  5
119
  8
1
 62
     7
 10
29.377730800088191
 20
290.49691078076279
 30
0.0
 11
29.877730800088191
 21
290.99691078076279
 31
0.0
  0
LINE
  5
11A
  8
1
 62
     7
 10
29.377730800088191
 20
290.49691078076279
 30
0.0
 11
29.377730800088191
 21
298.99691078076279
 31
0.0
  0
LINE
  5
11B
  8
1
 62
     7
 10
-69.722269199911779
 20
351.67281258856713
 30
0.0
 11
-68.422269199911796
 21
351.67281258856713
 31
0.0
  0
LINE
  5
11C
  8
1
 62
     7
 10
-69.722269199911779
 20
342.47281258856719
 30
0.0
 11
-69.722269199911779
 21
351.67281258856713
 31
0.0
  0
LINE
  5
11D
  8
1
 62
     7
 10
-68.422269199911796
 20
342.47281258856719
 30
0.0
 11
-69.722269199911779
 21
342.47281258856719
 31
0.0
  0
LINE
  5
11E
  8
1
 62
     7
 10
-68.422269199911796
 20
346.69753491359393
 30
0.0
 11
-69.722269199911779
 21
345.94697956364752
 31
0.0
  0
LINE
  5
11F
  8
1
 62
     7
 10
-68.422269199911796
 20
348.19864561348697
 30
0.0
 11
-69.722269199911779
 21
347.44809026354051
 31
0.0
  0
LINE
  5
120
  8
1
 62
     7
 10
-74.222269199911779
 20
351.32281258856722
 30
0.0
 11
-69.722269199911779
 21
351.32281258856722
 31
0.0
  0
LINE
  5
121
  8
1
 62
     7
 10
-74.722269199911779
 20
343.32281258856722
 30
0.0
 11
-74.722269199911779
 21
350.82281258856722
 31
0.0
  0
LINE
  5
122
  8
1
 62
     7
 10
-69.722269199911779
 20
342.82281258856722
 30
0.0
 11
-74.222269199911779
 21
342.82281258856722
 31
0.0
  0
LINE
  5
123
  8
1
 62
     7
 10
-74.222269199911779
 20
351.32281258856722
 30
0.0
 11
-74.722269199911779
 21
350.82281258856722
 31
0.0
  0
LINE
  5
124
  8
1
 62
     7
 10
-74.722269199911779
 20
343.32281258856722
 30
0.0
 11
-74.222269199911779
 21
342.82281258856722
 31
0.0
  0
LINE
  5
125
  8
1
 62
     7
 10
-74.222269199911779
 20
351.32281258856722
 30
0.0
 11
-74.222269199911779
 21
342.82281258856722
 31
0.0
  0
LINE
  5
126
  8
1
 62
     7
 10
-69.722269199911779
 20
299.34691078076281
 30
0.0
 11
-68.422269199911796
 21
299.34691078076281
 31
0.0
  0
LINE
  5
127
  8
1
 62
     7
 10
-69.722269199911779
 20
290.14691078076282
 30
0.0
 11
-69.722269199911779
 21
299.34691078076281
 31
0.0
  0
LINE
  5
128
  8
1
 62
     7
 10
-68.422269199911796
 20
290.14691078076282
 30
0.0
 11
-69.722269199911779
 21
290.14691078076282
 31
0.0
  0
LINE
  5
129
  8
1
 62
     7
 10
-68.422269199911796
 20
294.37163310578961
 30
0.0
 11
-69.722269199911779
 21
293.62107775584309
 31
0.0
  0
LINE
  5
12A
  8
1
 62
     7
 10
-68.422269199911796
 20
295.8727438056826
 30
0.0
 11
-69.722269199911779
 21
295.12218845573608
 31
0.0
  0
LINE
  5
12B
  8
1
 62
     7
 10
-74.222269199911779
 20
298.99691078076279
 30
0.0
 11
-69.722269199911779
 21
298.99691078076279
 31
0.0
  0
LINE
  5
12C
  8
1
 62
     7
 10
-74.722269199911779
 20
290.99691078076279
 30
0.0
 11
-74.722269199911779
 21
298.49691078076279
 31
0.0
  0
LINE
  5
12D
  8
1
 62
     7
 10
-69.722269199911779
 20
290.49691078076279
 30
0.0
 11
-74.222269199911779
 21
290.49691078076279
 31
0.0
  0
LINE
  5
12E
  8
1
 62
     7
 10
-74.222269199911779
 20
298.99691078076279
 30
0.0
 11
-74.722269199911779
 21
298.49691078076279
 31
0.0
  0
LINE
  5
12F
  8
1
 62
     7
 10
-74.722269199911779
 20
290.99691078076279
 30
0.0
 11
-74.222269199911779
 21
290.49691078076279
 31
0.0
  0
LINE
  5
130
  8
1
 62
     7
 10
-74.222269199911779
 20
298.99691078076279
 30
0.0
 11
-74.222269199911779
 21
290.49691078076279
 31
0.0
  0
LINE
  5
131
  8
1
 62
     7
 10
-64.922269199911796
 20
285.90986168466492
 30
0.0
 11
-66.922269199911796
 21
285.90986168466492
 31
0.0
  0
LINE
  5
132
  8
1
 62
     7
 10
-63.88637081504956
 20
285.90986168466492
 30
0.0
 11
-64.922269199911796
 21
285.90986168466492
 31
0.0
  0
LINE
  5
133
  8
1
 62
     7
 10
22.07773080008819
 20
285.90986168466492
 30
0.0
 11
20.07773080008819
 21
285.90986168466492
 31
0.0
  0
LINE
  5
134
  8
1
 62
     7
 10
-60.422269199911788
 20
282.90986168466492
 30
0.0
 11
15.57773080008819
 21
282.90986168466492
 31
0.0
  0
LINE
  5
135
  8
1
 62
     7
 10
20.07773080008819
 20
285.90986168466492
 30
0.0
 11
19.041832415225969
 21
285.90986168466492
 31
0.0
  0
LINE
  5
136
  8
1
 62
     7
 10
17.57773080008819
 20
285.90986168466492
 30
0.0
 11
17.57773080008819
 21
317.90986168466492
 31
0.0
  0
LINE
  5
137
  8
1
 62
     7
 10
60.077730800088212
 20
322.90986168466492
 30
0.0
 11
60.077730800088212
 21
326.90986168466492
 31
0.0
  0
LINE
  5
138
  8
1
 62
     7
 10
60.577730800088197
 20
322.90986168466492
 30
0.0
 11
42.577730800088197
 21
322.90986168466492
 31
0.0
  0
LINE
  5
139
  8
1
 62
     7
 10
42.577730800088197
 20
318.90986168466492
 30
0.0
 11
60.577730800088197
 21
318.90986168466492
 31
0.0
  0
LINE
  5
13A
  8
1
 62
     7
 10
-104.9222691999118
 20
318.90986168466492
 30
0.0
 11
-104.9222691999118
 21
314.90986168466492
 31
0.0
  0
LINE
  5
13B
  8
1
 62
     7
 10
-105.4222691999118
 20
315.40986168466492
 30
0.0
 11
-104.9222691999118
 21
314.90986168466492
 31
0.0
  0
LINE
  5
13C
  8
1
 62
     7
 10
-104.9222691999118
 20
326.90986168466492
 30
0.0
 11
-105.4222691999118
 21
326.40986168466492
 31
0.0
  0
LINE
  5
13D
  8
1
 62
     7
 10
-75.622269199911813
 20
314.90986168466492
 30
0.0
 11
-104.9222691999118
 21
314.90986168466492
 31
0.0
  0
LINE
  5
13E
  8
1
 62
     7
 10
-105.4222691999118
 20
326.40986168466492
 30
0.0
 11
-105.4222691999118
 21
315.40986168466492
 31
0.0
  0
LINE
  5
13F
  8
1
 62
     7
 10
-104.9222691999118
 20
326.90986168466492
 30
0.0
 11
-75.622269199911798
 21
326.90986168466492
 31
0.0
  0
LINE
  5
140
  8
1
 62
     7
 10
-104.9222691999118
 20
326.90986168466492
 30
0.0
 11
-104.9222691999118
 21
322.90986168466492
 31
0.0
  0
LINE
  5
141
  8
1
 62
     7
 10
-87.422269199911796
 20
322.90986168466492
 30
0.0
 11
-105.4222691999118
 21
322.90986168466492
 31
0.0
  0
LINE
  5
142
  8
1
 62
     7
 10
-105.4222691999118
 20
318.90986168466492
 30
0.0
 11
-87.422269199911796
 21
318.90986168466492
 31
0.0
  0
LINE
  5
143
  8
1
 62
     7
 10
-62.422269199911788
 20
285.27236176193139
 30
0.0
 11
-62.422269199911788
 21
269.90986168466492
 31
0.0
  0
LINE
  5
144
  8
1
 62
     7
 10
-60.422269199911788
 20
267.90986168466492
 30
0.0
 11
15.57773080008819
 21
267.90986168466492
 31
0.0
  0
LINE
  5
145
  8
1
 62
     7
 10
17.57773080008819
 20
269.90986168466492
 30
0.0
 11
17.57773080008819
 21
285.27236176193139
 31
0.0
  0
LINE
  5
146
  8
1
 62
     7
 10
3.577730800088168
 20
282.83581346663613
 30
0.0
 11
3.5777308000881671
 21
282.90986168466492
 31
0.0
  0
LINE
  5
147
  8
1
 62
     7
 10
4.8277308000881192
 20
282.09669332501159
 30
0.0
 11
4.8277308000882533
 21
282.53581346663611
 31
0.0
  0
LINE
  5
148
  8
1
 62
     7
 10
10.327730800087959
 20
282.53581346663611
 30
0.0
 11
10.327730800088061
 21
282.09669332501159
 31
0.0
  0
LINE
  5
149
  8
1
 62
     7
 10
3.577730800088168
 20
282.83581346663613
 30
0.0
 11
11.57773080008819
 21
282.83581346663578
 31
0.0
  0
LINE
  5
14A
  8
1
 62
     7
 10
11.57773080008819
 20
282.83581346663578
 30
0.0
 11
11.57773080008818
 21
282.90986168466492
 31
0.0
  0
LINE
  5
14B
  8
1
  6
DASHDOT
 62
     3
 10
13.48760325160319
 20
275.90986168466492
 30
0.0
 11
1.6678583485732079
 21
275.90986168466492
 31
0.0
  0
LINE
  5
14C
  8
1
  6
DASHDOT
 62
     3
 10
7.5777308000882044
 20
281.81973413617987
 30
0.0
 11
7.5777308000882044
 21
269.9999892331499
 31
0.0
  0
LINE
  5
14D
  8
1
 62
     7
 10
-48.422269199911767
 20
282.90986168466492
 30
0.0
 11
-48.422269199911767
 21
282.83581346663613
 31
0.0
  0
LINE
  5
14E
  8
1
 62
     7
 10
-49.672269199911852
 20
282.53581346663611
 30
0.0
 11
-49.672269199911717
 21
282.09669332501159
 31
0.0
  0
LINE
  5
14F
  8
1
 62
     7
 10
-55.172269199911653
 20
282.09669332501159
 30
0.0
 11
-55.172269199911561
 21
282.53581346663611
 31
0.0
  0
LINE
  5
150
  8
1
 62
     7
 10
-56.422269199911803
 20
282.83581346663578
 30
0.0
 11
-48.422269199911767
 21
282.83581346663613
 31
0.0
  0
LINE
  5
151
  8
1
 62
     7
 10
-56.422269199911803
 20
282.90986168466492
 30
0.0
 11
-56.422269199911803
 21
282.83581346663578
 31
0.0
  0
LINE
  5
152
  8
1
  6
DASHDOT
 62
     3
 10
-46.512396748396817
 20
275.90986168466492
 30
0.0
 11
-58.332141651426788
 21
275.90986168466492
 31
0.0
  0
LINE
  5
153
  8
1
  6
DASHDOT
 62
     3
 10
-52.422269199911788
 20
269.9999892331499
 30
0.0
 11
-52.422269199911788
 21
281.81973413617987
 31
0.0
  0
LINE
  5
154
  8
1
 62
     7
 10
-66.922269199911796
 20
355.9098616846648
 30
0.0
 11
-64.922269199911796
 21
355.90986168466492
 31
0.0
  0
LINE
  5
155
  8
1
 62
     7
 10
-64.922269199911796
 20
355.90986168466492
 30
0.0
 11
-63.88637081504956
 21
355.9098616846648
 31
0.0
  0
LINE
  5
156
  8
1
 62
     7
 10
20.07773080008819
 20
355.90986168466492
 30
0.0
 11
22.07773080008819
 21
355.9098616846648
 31
0.0
  0
LINE
  5
157
  8
1
 62
     7
 10
15.57773080008819
 20
358.90986168466492
 30
0.0
 11
-60.422269199911788
 21
358.90986168466492
 31
0.0
  0
LINE
  5
158
  8
1
 62
     7
 10
19.041832415225969
 20
355.9098616846648
 30
0.0
 11
20.07773080008819
 21
355.90986168466492
 31
0.0
  0
LINE
  5
159
  8
1
 62
     7
 10
-62.422269199911788
 20
371.9098616846648
 30
0.0
 11
-62.422269199911788
 21
356.5473616073985
 31
0.0
  0
LINE
  5
15A
  8
1
 62
     7
 10
15.57773080008819
 20
373.9098616846648
 30
0.0
 11
-60.422269199911788
 21
373.9098616846648
 31
0.0
  0
LINE
  5
15B
  8
1
 62
     7
 10
17.57773080008819
 20
356.5473616073985
 30
0.0
 11
17.57773080008819
 21
371.9098616846648
 31
0.0
  0
LINE
  5
15C
  8
1
 62
     7
 10
3.5777308000881671
 20
358.9098616846648
 30
0.0
 11
3.577730800088168
 21
358.98390990269371
 31
0.0
  0
LINE
  5
15D
  8
1
 62
     7
 10
4.8277308000882533
 20
359.28390990269372
 30
0.0
 11
4.8277308000881192
 21
359.72303004431819
 31
0.0
  0
LINE
  5
15E
  8
1
 62
     7
 10
10.327730800088061
 20
359.72303004431819
 30
0.0
 11
10.327730800087959
 21
359.28390990269372
 31
0.0
  0
LINE
  5
15F
  8
1
 62
     7
 10
11.57773080008819
 20
358.98390990269411
 30
0.0
 11
3.577730800088168
 21
358.98390990269371
 31
0.0
  0
LINE
  5
160
  8
1
 62
     7
 10
11.57773080008818
 20
358.9098616846648
 30
0.0
 11
11.57773080008819
 21
358.98390990269411
 31
0.0
  0
LINE
  5
161
  8
1
  6
DASHDOT
 62
     3
 10
1.6678583485732079
 20
365.9098616846648
 30
0.0
 11
13.48760325160319
 21
365.9098616846648
 31
0.0
  0
LINE
  5
162
  8
1
  6
DASHDOT
 62
     3
 10
7.5777308000882044
 20
371.81973413617982
 30
0.0
 11
7.5777308000882044
 21
359.99998923314979
 31
0.0
  0
LINE
  5
163
  8
1
 62
     7
 10
-48.422269199911767
 20
358.98390990269371
 30
0.0
 11
-48.422269199911767
 21
358.9098616846648
 31
0.0
  0
LINE
  5
164
  8
1
 62
     7
 10
-49.672269199911717
 20
359.72303004431819
 30
0.0
 11
-49.672269199911852
 21
359.28390990269372
 31
0.0
  0
LINE
  5
165
  8
1
 62
     7
 10
-55.172269199911561
 20
359.28390990269372
 30
0.0
 11
-55.172269199911653
 21
359.72303004431819
 31
0.0
  0
LINE
  5
166
  8
1
 62
     7
 10
-48.422269199911767
 20
358.98390990269371
 30
0.0
 11
-56.422269199911803
 21
358.98390990269411
 31
0.0
  0
LINE
  5
167
  8
1
 62
     7
 10
-56.422269199911803
 20
358.98390990269411
 30
0.0
 11
-56.422269199911803
 21
358.9098616846648
 31
0.0
  0
LINE
  5
168
  8
1
  6
DASHDOT
 62
     3
 10
-58.332141651426788
 20
365.9098616846648
 30
0.0
 11
-46.512396748396817
 21
365.9098616846648
 31
0.0
  0
LINE
  5
169
  8
1
  6
DASHDOT
 62
     3
 10
-52.422269199911788
 20
359.99998923314979
 30
0.0
 11
-52.422269199911788
 21
371.81973413617982
 31
0.0
  0
LINE
  5
16A
  8
1
 62
     7
 10
-19.422269199911799
 20
282.90986168466492
 30
0.0
 11
-19.422269199911799
 21
272.90986168466492
 31
0.0
  0
LINE
  5
16B
  8
1
 62
     7
 10
-25.42226919991181
 20
272.90986168466492
 30
0.0
 11
-25.42226919991181
 21
282.90986168466492
 31
0.0
  0
LINE
  5
16C
  8
1
 62
     7
 10
-19.422269199911799
 20
368.9098616846648
 30
0.0
 11
-19.422269199911799
 21
358.9098616846648
 31
0.0
  0
LINE
  5
16D
  8
1
 62
     7
 10
-25.42226919991181
 20
358.9098616846648
 30
0.0
 11
-25.42226919991181
 21
368.9098616846648
 31
0.0
  0
LINE
  5
16E
  8
1
 62
     7
 10
15.57773080008819
 20
326.40986168466492
 30
0.0
 11
15.57773080008819
 21
358.90986168466492
 31
0.0
  0
LINE
  5
16F
  8
1
 62
     7
 10
20.07773080008818
 20
323.90986168466497
 30
0.0
 11
15.380506437820181
 21
323.90986168466497
 31
0.0
  0
LINE
  5
170
  8
1
 62
     7
 10
17.57773080008819
 20
323.90986168466497
 30
0.0
 11
17.57773080008819
 21
355.90986168466492
 31
0.0
  0
LINE
  5
171
  8
1
 62
     7
 10
12.377730800088161
 20
319.70986168466482
 30
0.0
 11
12.377730800088161
 21
322.10986168466491
 31
0.0
  0
LINE
  5
172
  8
1
 62
     7
 10
14.77773080008825
 20
322.10986168466491
 30
0.0
 11
14.77773080008825
 21
319.70986168466482
 31
0.0
  0
LINE
  5
173
  8
1
 62
     7
 10
15.380506437820181
 20
317.90986168466492
 30
0.0
 11
20.07773080008818
 21
317.90986168466492
 31
0.0
  0
LINE
  5
174
  8
1
 62
     7
 10
-60.225044837643793
 20
323.90986168466497
 30
0.0
 11
-64.922269199911781
 21
323.90986168466497
 31
0.0
  0
LINE
  5
175
  8
1
 62
     7
 10
-57.222269199911729
 20
322.10986168466491
 30
0.0
 11
-57.222269199911729
 21
319.70986168466482
 31
0.0
  0
LINE
  5
176
  8
1
 62
     7
 10
-59.622269199911827
 20
319.70986168466482
 30
0.0
 11
-59.622269199911827
 21
322.10986168466491
 31
0.0
  0
LINE
  5
177
  8
1
 62
     7
 10
-64.922269199911781
 20
317.90986168466492
 30
0.0
 11
-60.225044837643793
 21
317.90986168466492
 31
0.0
  0
LINE
  5
178
  8
1
 62
     7
 10
-60.422269199911788
 20
315.40986168466492
 30
0.0
 11
-60.422269199911788
 21
282.90986168466492
 31
0.0
  0
LINE
  5
179
  8
1
 62
     7
 10
-62.422269199911788
 20
317.90986168466492
 30
0.0
 11
-62.422269199911788
 21
285.90986168466492
 31
0.0
  0
LINE
  5
17A
  8
1
 62
     7
 10
18.57773080008819
 20
323.90986168466497
 30
0.0
 11
18.57773080008819
 21
317.90986168466492
 31
0.0
  0
LINE
  5
17B
  8
1
 62
     7
 10
-63.422269199911788
 20
317.90986168466492
 30
0.0
 11
-63.422269199911788
 21
323.90986168466497
 31
0.0
  0
LINE
  5
17C
  8
1
 62
     7
 10
17.07773080008819
 20
175.33998136586311
 30
0.0
 11
17.07773080008819
 21
174.33998136586311
 31
0.0
  0
LINE
  5
17D
  8
1
 62
     7
 10
17.07773080008819
 20
174.33998136586311
 30
0.0
 11
15.57773080008819
 21
174.33998136586311
 31
0.0
  0
LINE
  5
17E
  8
1
 62
     7
 10
16.57773080008819
 20
174.33998136586311
 30
0.0
 11
16.57773080008819
 21
174.07203217343209
 31
0.0
  0
LINE
  5
17F
  8
1
 62
     7
 10
-61.922269199911788
 20
175.33998136586311
 30
0.0
 11
17.07773080008819
 21
175.33998136586311
 31
0.0
  0
LINE
  5
180
  8
1
 62
     7
 10
-61.922269199911788
 20
174.33998136586311
 30
0.0
 11
-61.922269199911788
 21
175.33998136586311
 31
0.0
  0
LINE
  5
181
  8
1
 62
     7
 10
-60.422269199911788
 20
174.33998136586311
 30
0.0
 11
-61.922269199911788
 21
174.33998136586311
 31
0.0
  0
LINE
  5
182
  8
1
 62
     7
 10
-61.422269199911803
 20
174.07203217343209
 30
0.0
 11
-61.422269199911803
 21
174.33998136586311
 31
0.0
  0
LINE
  5
183
  8
1
 62
     7
 10
14.497730800088149
 20
189.73671693864961
 30
0.0
 11
14.497730800088149
 21
175.33998136586311
 31
0.0
  0
LINE
  5
184
  8
1
 62
     7
 10
12.65773080008826
 20
189.73671693864961
 30
0.0
 11
12.65773080008826
 21
175.33998136586311
 31
0.0
  0
LINE
  5
185
  8
1
 62
     7
 10
12.65773080008826
 20
189.73671693864961
 30
0.0
 11
14.497730800088149
 21
189.73671693864961
 31
0.0
  0
LINE
  5
186
  8
1
 62
     3
 10
13.187730800088261
 20
189.73671693864961
 30
0.0
 11
13.187730800088261
 21
192.6975220832874
 31
0.0
  0
LINE
  5
187
  8
1
 62
     3
 10
13.967730800088351
 20
192.6975220832874
 30
0.0
 11
13.967730800088351
 21
189.73671693864961
 31
0.0
  0
LINE
  5
188
  8
1
 62
     7
 10
-57.502269199911851
 20
189.73671693864961
 30
0.0
 11
-57.502269199911851
 21
175.33998136586311
 31
0.0
  0
LINE
  5
189
  8
1
 62
     7
 10
-59.34226919991174
 20
189.73671693864961
 30
0.0
 11
-59.34226919991174
 21
175.33998136586311
 31
0.0
  0
LINE
  5
18A
  8
1
  6
DASHDOT
 62
     3
 10
204.5999261990508
 20
137.3399813658632
 30
0.0
 11
198.7042373840012
 21
137.3399813658632
 31
0.0
  0
LINE
  5
18B
  8
1
  6
DASHDOT
 62
     3
 10
201.65208179152589
 20
140.28782577338791
 30
0.0
 11
201.65208179152589
 21
134.3921369583384
 31
0.0
  0
LINE
  5
18C
  8
1
  6
DASHDOT
 62
     3
 10
60.577730800088197
 20
137.3399813658632
 30
0.0
 11
67.577730800088204
 21
137.3399813658632
 31
0.0
  0
LINE
  5
18D
  8
1
  6
DASHDOT
 62
     3
 10
-112.4222691999118
 20
137.3399813658632
 30
0.0
 11
-105.4222691999118
 21
137.3399813658632
 31
0.0
  0
LINE
  5
18E
  8
1
  6
DASHDOT
 62
     3
 10
60.577730800088197
 20
320.90986168466492
 30
0.0
 11
67.577730800088204
 21
320.90986168466492
 31
0.0
  0
LINE
  5
18F
  8
1
  6
DASHDOT
 62
     3
 10
-112.4222691999118
 20
320.90986168466492
 30
0.0
 11
-105.4222691999118
 21
320.90986168466492
 31
0.0
  0
ARC
  5
190
  8
1
 62
     7
 10
-74.122269199911798
 20
120.23942724717691
 30
0.0
 40
1.5
 50
180.0
 51
266.02750405924962
  0
ARC
  5
191
  8
1
 62
     7
 10
-69.922269199911796
 20
116.9405354845492
 30
0.0
 40
1.5
 50
0.0
 51
86.027504059248983
  0
ARC
  5
192
  8
1
 62
     7
 10
-74.122269199911798
 20
154.44053548454929
 30
0.0
 40
1.500000000000083
 50
93.972495940750179
 51
180.0
  0
ARC
  5
193
  8
1
 62
     7
 10
-69.922269199911796
 20
157.73942724717691
 30
0.0
 40
1.4999999999999709
 50
273.972495940751
 51
0.0
  0
ARC
  5
194
  8
1
 62
     7
 10
-60.422269199911788
 20
172.33998136586311
 30
0.0
 40
2.0
 50
90.0
 51
180.0
  0
ARC
  5
195
  8
1
 62
     7
 10
-64.422269199911796
 20
100.3399813658632
 30
0.0
 40
1.9999999999999929
 50
0.0
 51
90.0
  0
ARC
  5
196
  8
1
 62
     7
 10
-63.886370815049538
 20
174.33998136586311
 30
0.0
 40
2.0
 50
270.0
 51
330.00000000000011
  0
ARC
  5
197
  8
1
 62
     7
 10
29.2777308000882
 20
120.23942724717691
 30
0.0
 40
1.4999999999999849
 50
273.97249594075089
 51
0.0
  0
ARC
  5
198
  8
1
 62
     7
 10
25.077730800088201
 20
116.9405354845492
 30
0.0
 40
1.499999999999984
 50
93.972495940750449
 51
180.0
  0
ARC
  5
199
  8
1
 62
     7
 10
29.2777308000882
 20
154.44053548454929
 30
0.0
 40
1.5
 50
0.0
 51
86.027504059249395
  0
ARC
  5
19A
  8
1
 62
     7
 10
25.077730800088201
 20
157.73942724717691
 30
0.0
 40
1.5
 50
180.0
 51
266.02750405924951
  0
ARC
  5
19B
  8
1
 62
     7
 10
-30.422269199911799
 20
97.339981365863224
 30
0.0
 40
5.0
 50
270.0
 51
0.0
  0
ARC
  5
19C
  8
1
 62
     7
 10
-14.422269199911799
 20
97.339981365863224
 30
0.0
 40
5.0
 50
180.0
 51
270.0
  0
ARC
  5
19D
  8
1
 62
     7
 10
15.57773080008819
 20
172.33998136586311
 30
0.0
 40
2.0
 50
0.0
 51
90.0
  0
ARC
  5
19E
  8
1
 62
     7
 10
19.57773080008819
 20
100.3399813658632
 30
0.0
 40
2.0
 50
90.0
 51
180.0
  0
ARC
  5
19F
  8
1
 62
     7
 10
19.041832415225961
 20
174.33998136586311
 30
0.0
 40
2.0000000000000031
 50
209.99999999999989
 51
270.0
  0
ARC
  5
1A0
  8
1
 62
     7
 10
201.65208179152589
 20
60.33998136586316
 30
0.0
 40
115.0
 50
74.967970723367941
 51
88.255946089549937
  0
ARC
  5
1A1
  8
1
 62
     7
 10
201.65208179152589
 20
60.33998136586316
 30
0.0
 40
114.0
 50
75.58742842550862
 51
88.492042245761169
  0
ARC
  5
1A2
  8
1
 62
     7
 10
168.57803357349701
 20
127.6469989097225
 30
0.0
 40
7.0000000000002069
 50
168.07465019549431
 51
201.99017679550249
  0
ARC
  5
1A3
  8
1
 62
     7
 10
234.72613000955491
 20
127.6469989097225
 30
0.0
 40
6.9999999999997922
 50
338.00982320449731
 51
11.92534980450616
  0
ARC
  5
1A4
  8
1
 62
     7
 10
124.6520817915259
 20
137.3399813658632
 30
0.0
 40
115.0
 50
352.00246860882709
 51
15.03202927663208
  0
ARC
  5
1A5
  8
1
 62
     7
 10
201.65208179152589
 20
60.33998136586316
 30
0.0
 40
115.0
 50
91.744053910450006
 51
105.032029276632
  0
ARC
  5
1A6
  8
1
 62
     7
 10
278.65208179152592
 20
137.3399813658632
 30
0.0
 40
115.0000000000001
 50
164.9679707233679
 51
187.99753139117291
  0
ARC
  5
1A7
  8
1
 62
     7
 10
201.65208179152589
 20
138.13998136586321
 30
0.0
 40
7.2000000000000526
 50
312.91018402167572
 51
227.08981597832349
  0
ARC
  5
1A8
  8
1
 62
     7
 10
201.65208179152589
 20
137.3399813658632
 30
0.0
 40
5.499999999999992
 50
111.323686263498
 51
68.676313736502053
  0
ARC
  5
1A9
  8
1
 62
     7
 10
201.65208179152589
 20
137.3399813658632
 30
0.0
 40
6.0000000000000169
 50
109.47122063449051
 51
70.528779365509379
  0
ARC
  5
1AA
  8
1
 62
     7
 10
124.6520817915259
 20
137.3399813658632
 30
0.0
 40
114.0
 50
339.66810914881933
 51
14.412571574491411
  0
ARC
  5
1AB
  8
1
 62
     7
 10
235.30017260198679
 20
96.339981365863196
 30
0.0
 40
3.9999999999999072
 50
159.66810914881981
 51
270.0
  0
ARC
  5
1AC
  8
1
 62
     7
 10
201.65208179152589
 20
60.33998136586316
 30
0.0
 40
114.0000000000001
 50
91.507957754238817
 51
104.41257157449139
  0
ARC
  5
1AD
  8
1
 62
     7
 10
278.65208179152592
 20
137.3399813658632
 30
0.0
 40
114.0
 50
165.58742842550851
 51
200.33189085118059
  0
ARC
  5
1AE
  8
1
 62
     7
 10
168.0039909810651
 20
96.339981365863196
 30
0.0
 40
4.0
 50
270.0
 51
20.331890851179988
  0
ARC
  5
1AF
  8
1
 62
     7
 10
201.65208179152589
 20
60.33998136586316
 30
0.0
 40
111.9999999999998
 50
75.58742842550862
 51
104.41257157449139
  0
ARC
  5
1B0
  8
1
 62
     7
 10
124.6520817915259
 20
137.3399813658632
 30
0.0
 40
111.9999999999998
 50
345.58742842550862
 51
14.41257157449142
  0
ARC
  5
1B1
  8
1
 62
     7
 10
201.65208179152589
 20
214.3399813658632
 30
0.0
 40
112.0
 50
255.58742842550851
 51
284.41257157449138
  0
ARC
  5
1B2
  8
1
 62
     7
 10
278.65208179152592
 20
137.3399813658632
 30
0.0
 40
112.0
 50
165.58742842550851
 51
194.41257157449141
  0
ARC
  5
1B3
  8
1
 62
     7
 10
225.65208179152609
 20
81.339981365863196
 30
0.0
 40
0.9999999999999149
 50
0.0
 51
90.0
  0
ARC
  5
1B4
  8
1
 62
     7
 10
177.652081791526
 20
81.339981365863196
 30
0.0
 40
1.0
 50
90.0
 51
180.0
  0
ARC
  5
1B5
  8
1
 62
     7
 10
8.8277308000882027
 20
129.0899813658632
 30
0.0
 40
1.487499999999996
 50
270.0
 51
0.0
  0
ARC
  5
1B6
  8
1
 62
     7
 10
12.32773080008819
 20
129.0899813658632
 30
0.0
 40
1.487499999999891
 50
180.0
 51
270.0
  0
ARC
  5
1B7
  8
1
 62
     7
 10
12.32773080008819
 20
125.5899813658632
 30
0.0
 40
1.48750000000011
 50
90.0
 51
180.0
  0
ARC
  5
1B8
  8
1
 62
     7
 10
8.8277308000882027
 20
125.5899813658632
 30
0.0
 40
1.4875000000000651
 50
0.0
 51
90.0
  0
ARC
  5
1B9
  8
1
 62
     7
 10
-53.672269199911788
 20
129.0899813658632
 30
0.0
 40
1.487500000000068
 50
180.0
 51
270.0
  0
ARC
  5
1BA
  8
1
 62
     7
 10
-57.172269199911803
 20
129.0899813658632
 30
0.0
 40
1.487499999999996
 50
270.0
 51
0.0
  0
ARC
  5
1BB
  8
1
 62
     7
 10
-57.172269199911803
 20
125.5899813658632
 30
0.0
 40
1.48750000000001
 50
0.0
 51
90.0
  0
ARC
  5
1BC
  8
1
 62
     7
 10
-53.672269199911788
 20
125.5899813658632
 30
0.0
 40
1.48750000000011
 50
90.0
 51
180.0
  0
ARC
  5
1BD
  8
1
 62
     7
 10
-74.122269199911798
 20
303.80930756597883
 30
0.0
 40
1.5
 50
180.0
 51
266.02750405924962
  0
ARC
  5
1BE
  8
1
 62
     7
 10
-69.922269199911796
 20
300.51041580335112
 30
0.0
 40
1.5
 50
0.0
 51
86.027504059248969
  0
ARC
  5
1BF
  8
1
 62
     7
 10
-74.122269199911798
 20
338.01041580335112
 30
0.0
 40
1.500000000000083
 50
93.972495940750179
 51
180.0
  0
ARC
  5
1C0
  8
1
 62
     7
 10
-69.922269199911796
 20
341.30930756597883
 30
0.0
 40
1.500000000000026
 50
273.97249594075089
 51
0.0
  0
ARC
  5
1C1
  8
1
 62
     7
 10
29.2777308000882
 20
303.80930756597883
 30
0.0
 40
1.500000000000026
 50
273.97249594075078
 51
0.0
  0
ARC
  5
1C2
  8
1
 62
     7
 10
25.077730800088201
 20
300.51041580335112
 30
0.0
 40
1.4999999999999689
 50
93.972495940750534
 51
180.0
  0
ARC
  5
1C3
  8
1
 62
     7
 10
29.2777308000882
 20
338.01041580335112
 30
0.0
 40
1.5
 50
0.0
 51
86.027504059249395
  0
ARC
  5
1C4
  8
1
 62
     7
 10
25.077730800088201
 20
341.30930756597883
 30
0.0
 40
1.5
 50
180.0
 51
266.02750405924962
  0
ARC
  5
1C5
  8
1
 62
     7
 10
-60.422269199911788
 20
285.90986168466492
 30
0.0
 40
2.0
 50
180.0
 51
270.0
  0
ARC
  5
1C6
  8
1
 62
     7
 10
-63.886370815049538
 20
283.90986168466492
 30
0.0
 40
2.0000000000000031
 50
29.99999999999994
 51
90.0
  0
ARC
  5
1C7
  8
1
 62
     7
 10
15.57773080008819
 20
285.90986168466492
 30
0.0
 40
2.0
 50
270.0
 51
0.0
  0
ARC
  5
1C8
  8
1
 62
     7
 10
19.041832415225961
 20
283.90986168466492
 30
0.0
 40
2.0
 50
90.0
 51
150.0
  0
ARC
  5
1C9
  8
1
 62
     7
 10
42.577730800088183
 20
320.90986168466492
 30
0.0
 40
2.0
 50
90.0
 51
270.0
  0
ARC
  5
1CA
  8
1
 62
     7
 10
-87.422269199911796
 20
320.90986168466492
 30
0.0
 40
2.0
 50
270.0
 51
90.0
  0
ARC
  5
1CB
  8
1
 62
     7
 10
7.5777308000884522
 20
287.83581346663613
 30
0.0
 40
7.0000000000003846
 50
253.04223669999271
 51
286.95776330000058
  0
ARC
  5
1CC
  8
1
 62
     7
 10
-52.422269199912037
 20
287.83581346663613
 30
0.0
 40
6.9999999999998419
 50
253.04223669999931
 51
286.95776330000712
  0
ARC
  5
1CD
  8
1
 62
     7
 10
-60.422269199911788
 20
355.90986168466492
 30
0.0
 40
1.9999999999999429
 50
90.0
 51
180.0
  0
ARC
  5
1CE
  8
1
 62
     7
 10
-63.886370815049538
 20
357.9098616846648
 30
0.0
 40
2.0
 50
270.0
 51
330.00000000000011
  0
ARC
  5
1CF
  8
1
 62
     7
 10
15.57773080008819
 20
355.90986168466492
 30
0.0
 40
2.0
 50
0.0
 51
90.0
  0
ARC
  5
1D0
  8
1
 62
     7
 10
19.041832415225961
 20
357.9098616846648
 30
0.0
 40
2.0000000000000031
 50
209.99999999999989
 51
270.0
  0
ARC
  5
1D1
  8
1
 62
     7
 10
7.5777308000884522
 20
353.98390990269371
 30
0.0
 40
6.9999999999997922
 50
73.042236699999052
 51
106.9577633000074
  0
ARC
  5
1D2
  8
1
 62
     7
 10
-52.422269199912037
 20
353.98390990269371
 30
0.0
 40
7.0000000000003331
 50
73.042236699992515
 51
106.9577633000011
  0
ARC
  5
1D3
  8
1
 62
     7
 10
-14.422269199911799
 20
272.90986168466492
 30
0.0
 40
5.0
 50
180.0
 51
270.0
  0
ARC
  5
1D4
  8
1
 62
     7
 10
-30.42226919991181
 20
272.90986168466492
 30
0.0
 40
5.0
 50
270.0
 51
0.0
  0
ARC
  5
1D5
  8
1
 62
     7
 10
-14.422269199911799
 20
368.9098616846648
 30
0.0
 40
5.0
 50
90.0
 51
180.0
  0
ARC
  5
1D6
  8
1
 62
     7
 10
-30.42226919991181
 20
368.9098616846648
 30
0.0
 40
5.0
 50
0.0
 51
90.0
  0
ARC
  5
1D7
  8
1
 62
     7
 10
15.57773080008819
 20
320.90986168466492
 30
0.0
 40
5.5
 50
90.0
 51
270.0
  0
ARC
  5
1D8
  8
1
 62
     7
 10
13.57773080008819
 20
319.70986168466482
 30
0.0
 40
1.2000000000000399
 50
180.0
 51
0.0
  0
ARC
  5
1D9
  8
1
 62
     7
 10
13.57773080008819
 20
322.10986168466491
 30
0.0
 40
1.200000000000049
 50
0.0
 51
180.0
  0
ARC
  5
1DA
  8
1
 62
     7
 10
-60.422269199911788
 20
320.90986168466492
 30
0.0
 40
5.5
 50
270.0
 51
90.0
  0
ARC
  5
1DB
  8
1
 62
     7
 10
-58.422269199911788
 20
319.70986168466482
 30
0.0
 40
1.2000000000000379
 50
180.0
 51
0.0
  0
ARC
  5
1DC
  8
1
 62
     7
 10
-58.422269199911788
 20
322.10986168466491
 30
0.0
 40
1.200000000000045
 50
0.0
 51
180.0
  0
ARC
  5
1DD
  8
1
 62
     7
 10
-66.922269199911796
 20
103.8399813658632
 30
0.0
 40
1.5
 50
180.0
 51
270.0
  0
ARC
  5
1DE
  8
1
 62
     7
 10
-66.922269199911796
 20
170.8399813658632
 30
0.0
 40
1.5
 50
90.0
 51
180.0
  0
ARC
  5
1DF
  8
1
 62
     7
 10
-60.422269199911788
 20
90.33998136586321
 30
0.0
 40
2.0
 50
90.0
 51
180.0
  0
ARC
  5
1E0
  8
1
 62
     7
 10
22.07773080008819
 20
103.8399813658632
 30
0.0
 40
1.5
 50
270.0
 51
0.0
  0
ARC
  5
1E1
  8
1
 62
     7
 10
22.07773080008819
 20
170.8399813658632
 30
0.0
 40
1.5
 50
0.0
 51
90.0
  0
ARC
  5
1E2
  8
1
 62
     7
 10
15.57773080008819
 20
90.33998136586321
 30
0.0
 40
2.0
 50
0.0
 51
90.0
  0
ARC
  5
1E3
  8
1
 62
     7
 10
163.0309199803136
 20
130.22032958888531
 30
0.0
 40
0.3000000000001686
 50
275.03241349548563
 51
5.0324134955012587
  0
ARC
  5
1E4
  8
1
 62
     7
 10
162.7075276323524
 20
128.8868214756512
 30
0.0
 40
1.0000000000001661
 50
95.032413495494566
 51
168.07465019548229
  0
ARC
  5
1E5
  8
1
 62
     7
 10
163.01454517621201
 20
125.40031316105321
 30
0.0
 40
1.0000000000001801
 50
201.99017679549681
 51
275.03241349550251
  0
ARC
  5
1E6
  8
1
 62
     7
 10
163.56600769961179
 20
124.14384366915699
 30
0.0
 40
0.2999999999998939
 50
5.0324134954465434
 51
95.032413495503178
  0
ARC
  5
1E7
  8
1
 62
     7
 10
239.7381558834401
 20
124.14384366915699
 30
0.0
 40
0.3000000000000937
 50
84.967586504491436
 51
174.96758650455629
  0
ARC
  5
1E8
  8
1
 62
     7
 10
240.28961840683991
 20
125.40031316105321
 30
0.0
 40
0.9999999999998656
 50
264.96758650449738
 51
338.00982320450231
  0
ARC
  5
1E9
  8
1
 62
     7
 10
240.59663595069949
 20
128.8868214756512
 30
0.0
 40
0.9999999999998293
 50
11.92534980452105
 51
84.967586504511914
  0
ARC
  5
1EA
  8
1
 62
     7
 10
240.27324360273821
 20
130.22032958888531
 30
0.0
 40
0.299999999999893
 50
174.9675865044934
 51
264.96758650453597
  0
ARC
  5
1EB
  8
1
 62
     7
 10
173.38195374012849
 20
165.6101094172605
 30
0.0
 40
6.0000000000000266
 50
105.03202927663121
 51
164.9679707233681
  0
ARC
  5
1EC
  8
1
 62
     7
 10
229.92220984292331
 20
165.6101094172605
 30
0.0
 40
6.0000000000000488
 50
15.032029276631951
 51
74.967970723368069
  0
ARC
  5
1ED
  8
1
 62
     7
 10
195.25208179152591
 20
131.25521557463981
 30
0.0
 40
2.2000000000000171
 50
0.0
 51
47.089815978325383
  0
ARC
  5
1EE
  8
1
 62
     7
 10
199.3520817915259
 20
130.28095459968739
 30
0.0
 40
1.8999999999999759
 50
180.0
 51
270.0
  0
ARC
  5
1EF
  8
1
 62
     7
 10
203.9520817915259
 20
130.28095459968739
 30
0.0
 40
1.8999999999999759
 50
270.0
 51
0.0
  0
ARC
  5
1F0
  8
1
 62
     7
 10
208.05208179152589
 20
131.25521557463981
 30
0.0
 40
2.1999999999999491
 50
132.91018402167671
 51
180.0
  0
ARC
  5
1F1
  8
1
 62
     7
 10
228.2846389346322
 20
163.97253850896931
 30
0.0
 40
7.0000000000000311
 50
14.412571574492111
 51
75.587428425508563
  0
ARC
  5
1F2
  8
1
 62
     7
 10
175.0195246484198
 20
163.97253850896931
 30
0.0
 40
7.0000000000001421
 50
104.41257157449191
 51
165.58742842550811
  0
ARC
  5
1F3
  8
1
 62
     7
 10
228.2846389346322
 20
110.707424222757
 30
0.0
 40
5.0000000000000284
 50
284.4125715744924
 51
345.58742842550862
  0
ARC
  5
1F4
  8
1
 62
     7
 10
175.0195246484198
 20
110.707424222757
 30
0.0
 40
5.0000000000000417
 50
194.41257157449229
 51
255.5874284255076
  0
ARC
  5
1F5
  8
1
 62
     7
 10
175.0195246484198
 20
163.97253850896931
 30
0.0
 40
5.0000000000000417
 50
104.4125715744923
 51
165.5874284255076
  0
ARC
  5
1F6
  8
1
 62
     7
 10
228.2846389346322
 20
163.97253850896931
 30
0.0
 40
4.9999999999999307
 50
14.412571574492731
 51
75.587428425508222
  0
ARC
  5
1F7
  8
1
 62
     7
 10
150.652081791526
 20
90.33998136586321
 30
0.0
 40
2.0
 50
90.0
 51
180.0
  0
ARC
  5
1F8
  8
1
 62
     7
 10
252.652081791526
 20
90.33998136586321
 30
0.0
 40
2.0
 50
0.0
 51
90.0
  0
ARC
  5
1F9
  8
1
 62
     7
 10
-66.922269199911796
 20
287.40986168466492
 30
0.0
 40
1.5
 50
180.0
 51
270.0
  0
ARC
  5
1FA
  8
1
 62
     7
 10
22.07773080008819
 20
287.40986168466492
 30
0.0
 40
1.5
 50
270.0
 51
0.0
  0
ARC
  5
1FB
  8
1
 62
     7
 10
-60.422269199911788
 20
269.90986168466492
 30
0.0
 40
2.0
 50
180.0
 51
270.0
  0
ARC
  5
1FC
  8
1
 62
     7
 10
15.57773080008819
 20
269.90986168466492
 30
0.0
 40
2.0
 50
270.0
 51
0.0
  0
ARC
  5
1FD
  8
1
 62
     7
 10
4.5277308000880501
 20
282.53581346663611
 30
0.0
 40
0.3000000000002032
 50
0.0
 51
90.0
  0
ARC
  5
1FE
  8
1
 62
     7
 10
5.827730800088311
 20
282.09669332501142
 30
0.0
 40
1.0000000000001921
 50
180.0
 51
253.0422366999791
  0
ARC
  5
1FF
  8
1
 62
     7
 10
9.3277308000881902
 20
282.09669332501159
 30
0.0
 40
1.0000000000001721
 50
286.95776329999433
 51
0.0
  0
ARC
  5
200
  8
1
 62
     7
 10
10.627730800088051
 20
282.53581346663611
 30
0.0
 40
0.2999999999998977
 50
89.999999999944706
 51
180.0
  0
ARC
  5
201
  8
1
 62
     7
 10
-49.372269199911642
 20
282.53581346663611
 30
0.0
 40
0.3000000000000682
 50
90.0
 51
180.0
  0
ARC
  5
202
  8
1
 62
     7
 10
-50.672269199911909
 20
282.09669332501142
 30
0.0
 40
0.9999999999999555
 50
286.95776330002042
 51
0.0
  0
ARC
  5
203
  8
1
 62
     7
 10
-54.172269199911788
 20
282.09669332501159
 30
0.0
 40
0.9999999999998649
 50
180.0
 51
253.04223670000491
  0
ARC
  5
204
  8
1
 62
     7
 10
-55.472269199911651
 20
282.53581346663611
 30
0.0
 40
0.3000000000000895
 50
0.0
 51
90.000000000055635
  0
ARC
  5
205
  8
1
 62
     7
 10
-66.922269199911796
 20
354.4098616846648
 30
0.0
 40
1.5
 50
90.0
 51
180.0
  0
ARC
  5
206
  8
1
 62
     7
 10
22.07773080008819
 20
354.4098616846648
 30
0.0
 40
1.5
 50
0.0
 51
90.0
  0
ARC
  5
207
  8
1
 62
     7
 10
-60.422269199911788
 20
371.9098616846648
 30
0.0
 40
2.0
 50
90.0
 51
180.0
  0
ARC
  5
208
  8
1
 62
     7
 10
15.57773080008819
 20
371.9098616846648
 30
0.0
 40
2.0
 50
0.0
 51
90.0
  0
ARC
  5
209
  8
1
 62
     7
 10
4.5277308000880501
 20
359.28390990269372
 30
0.0
 40
0.3000000000000682
 50
270.0
 51
0.0
  0
ARC
  5
20A
  8
1
 62
     7
 10
5.827730800088311
 20
359.72303004431831
 30
0.0
 40
0.9999999999998955
 50
106.9577633000204
 51
180.0
  0
ARC
  5
20B
  8
1
 62
     7
 10
9.3277308000881902
 20
359.72303004431819
 30
0.0
 40
0.9999999999998706
 50
0.0
 51
73.042236700003997
  0
ARC
  5
20C
  8
1
 62
     7
 10
10.627730800088051
 20
359.28390990269372
 30
0.0
 40
0.3000000000000913
 50
180.0
 51
270.00000000005531
  0
ARC
  5
20D
  8
1
 62
     7
 10
-49.372269199911642
 20
359.28390990269372
 30
0.0
 40
0.3000000000002032
 50
180.0
 51
270.0
  0
ARC
  5
20E
  8
1
 62
     7
 10
-50.672269199911909
 20
359.72303004431831
 30
0.0
 40
1.0000000000001921
 50
0.0
 51
73.042236699978631
  0
ARC
  5
20F
  8
1
 62
     7
 10
-54.172269199911788
 20
359.72303004431819
 30
0.0
 40
1.0000000000001861
 50
106.9577632999969
 51
180.0
  0
ARC
  5
210
  8
1
 62
     7
 10
-55.472269199911651
 20
359.28390990269372
 30
0.0
 40
0.2999999999998977
 50
269.99999999994441
 51
0.0
  0
CIRCLE
  5
211
  8
1
 62
     7
 10
199.41031828012501
 20
130.07666758892441
 30
0.0
 40
0.9000000000000056
  0
CIRCLE
  5
212
  8
1
 62
     7
 10
203.89384530292691
 20
130.07666758892441
 30
0.0
 40
0.9000000000000056
  0
CIRCLE
  5
213
  8
1
 62
     7
 10
225.152081791526
 20
137.3399813658632
 30
0.0
 40
2.9000000000000061
  0
CIRCLE
  5
214
  8
1
 62
     7
 10
201.65208179152589
 20
113.8399813658632
 30
0.0
 40
2.9000000000000061
  0
CIRCLE
  5
215
  8
1
 62
     7
 10
178.15208179152589
 20
137.3399813658632
 30
0.0
 40
2.9000000000000061
  0
CIRCLE
  5
216
  8
1
 62
     7
 10
201.65208179152589
 20
160.83998136586311
 30
0.0
 40
2.9000000000000061
  0
CIRCLE
  5
217
  8
1
 62
     7
 10
201.65208179152589
 20
137.3399813658632
 30
0.0
 40
19.0
  0
CIRCLE
  5
218
  8
1
 62
     7
 10
201.65208179152589
 20
137.3399813658632
 30
0.0
 40
18.5
  0
CIRCLE
  5
219
  8
1
 62
     7
 10
201.65208179152589
 20
137.3399813658632
 30
0.0
 40
16.0
  0
CIRCLE
  5
21A
  8
1
 62
     7
 10
227.81503269542819
 20
163.50293226976541
 30
0.0
 40
4.5999999999999943
  0
CIRCLE
  5
21B
  8
1
 62
     7
 10
227.81503269542819
 20
163.50293226976541
 30
0.0
 40
3.75
  0
CIRCLE
  5
21C
  8
1
 62
     7
 10
227.81503269542819
 20
163.50293226976541
 30
0.0
 40
4.25
  0
CIRCLE
  5
21D
  8
1
 62
     7
 10
175.48913088762359
 20
163.50293226976541
 30
0.0
 40
4.25
  0
CIRCLE
  5
21E
  8
1
 62
     7
 10
175.48913088762359
 20
163.50293226976541
 30
0.0
 40
3.75
  0
CIRCLE
  5
21F
  8
1
 62
     7
 10
175.48913088762359
 20
163.50293226976541
 30
0.0
 40
4.5999999999999943
  0
CIRCLE
  5
220
  8
1
 62
     7
 10
175.48913088762359
 20
111.1770304619609
 30
0.0
 40
4.5999999999999943
  0
CIRCLE
  5
221
  8
1
 62
     7
 10
175.48913088762359
 20
111.1770304619609
 30
0.0
 40
3.75
  0
CIRCLE
  5
222
  8
1
 62
     7
 10
175.48913088762359
 20
111.1770304619609
 30
0.0
 40
4.25
  0
CIRCLE
  5
223
  8
1
 62
     7
 10
227.81503269542819
 20
111.1770304619609
 30
0.0
 40
4.25
  0
CIRCLE
  5
224
  8
1
 62
     7
 10
227.81503269542819
 20
111.1770304619609
 30
0.0
 40
3.75
  0
CIRCLE
  5
225
  8
1
 62
     7
 10
227.81503269542819
 20
111.1770304619609
 30
0.0
 40
4.5999999999999943
  0
CIRCLE
  5
226
  8
1
 62
     7
 10
10.57773080008819
 20
127.3399813658632
 30
0.0
 40
2.75
  0
CIRCLE
  5
227
  8
1
 62
     7
 10
10.57773080008819
 20
127.3399813658632
 30
0.0
 40
4.0
  0
CIRCLE
  5
228
  8
1
 62
     7
 10
-55.422269199911788
 20
127.3399813658632
 30
0.0
 40
2.75
  0
CIRCLE
  5
229
  8
1
 62
     7
 10
-55.422269199911788
 20
127.3399813658632
 30
0.0
 40
4.0
  0
CIRCLE
  5
22A
  8
1
 62
     7
 10
7.5777308000882044
 20
275.90986168466492
 30
0.0
 40
4.2499999999999947
  0
CIRCLE
  5
22B
  8
1
 62
     7
 10
-52.422269199911788
 20
275.90986168466492
 30
0.0
 40
4.25
  0
CIRCLE
  5
22C
  8
1
 62
     7
 10
7.5777308000882044
 20
365.9098616846648
 30
0.0
 40
4.2499999999999947
  0
CIRCLE
  5
22D
  8
1
 62
     7
 10
-52.422269199911788
 20
365.9098616846648
 30
0.0
 40
4.25
  0
CIRCLE
  5
22E
  8
1
 62
     7
 10
13.57773080008819
 20
320.90986168466492
 30
0.0
 40
3.5
  0
CIRCLE
  5
22F
  8
1
 62
     7
 10
13.57773080008819
 20
322.10986168466491
 30
0.0
 40
0.9199999999999592
  0
CIRCLE
  5
230
  8
1
 62
     7
 10
13.57773080008819
 20
319.70986168466482
 30
0.0
 40
0.9199999999999592
  0
CIRCLE
  5
231
  8
1
 62
     7
 10
-58.422269199911788
 20
320.90986168466492
 30
0.0
 40
3.5
  0
CIRCLE
  5
232
  8
1
 62
     7
 10
-58.422269199911788
 20
322.10986168466491
 30
0.0
 40
0.9199999999999592
  0
CIRCLE
  5
233
  8
1
 62
     7
 10
-58.422269199911788
 20
319.70986168466482
 30
0.0
 40
0.9199999999999592
  0
TEXT
  5
234
  8
1
 62
     3
 10
183.652081791526
 20
86.339981365863196
 30
0.0
 40
8.0
  1
INPUT
 41
0.8732691000000002
  7
COMPLEX
  0
TEXT
  5
235
  8
1
 62
     7
 10
-29.472154026166201
 20
228.02179939400389
 30
0.0
 40
5.0
  1
AMU 40C
 41
0.9
  7
SIMPLEX
  0
ENDSEC
  0
EOF
