  0
SECTION
  2
HEADER
  9
$ACADVER
  1
AC1009
  9
$INSBASE
 10
0.0
 20
0.0
 30
0.0
  9
$EXTMIN
 10
-208.1193514870449
 20
139.932575001446
 30
0.0
  9
$EXTMAX
 10
18.74971763167694
 20
337.19197267687412
 30
0.0
  9
$LIMMIN
 10
-208.1193514870449
 20
139.932575001446
  9
$LIMMAX
 10
18.542610850490391
 20
337.19197267687412
  9
$ORTHOMODE
 70
     0
  9
$REGENMODE
 70
     1
  9
$FILLMODE
 70
     1
  9
$QTEXTMODE
 70
     0
  9
$MIRRTEXT
 70
     1
  9
$DRAGMODE
 70
     2
  9
$LTSCALE
 40
1.0
  9
$OSMODE
 70
    37
  9
$ATTMODE
 70
     1
  9
$TEXTSIZE
 40
3.5
  9
$TRACEWID
 40
0.5
  9
$TEXTSTYLE
  7
STANDARD
  9
$CLAYER
  8
0
  9
$CELTYPE
  6
BYLAYER
  9
$CECOLOR
 62
   256
  9
$DIMSCALE
 40
1.0
  9
$DIMASZ
 40
0.18
  9
$DIMEXO
 40
0.0625
  9
$DIMDLI
 40
0.38
  9
$DIMRND
 40
0.0
  9
$DIMDLE
 40
0.0
  9
$DIMEXE
 40
0.18
  9
$DIMTP
 40
0.0
  9
$DIMTM
 40
0.0
  9
$DIMTXT
 40
0.18
  9
$DIMCEN
 40
0.09
  9
$DIMTSZ
 40
0.0
  9
$DIMTOL
 70
     0
  9
$DIMLIM
 70
     0
  9
$DIMTIH
 70
     1
  9
$DIMTOH
 70
     1
  9
$DIMSE1
 70
     0
  9
$DIMSE2
 70
     0
  9
$DIMTAD
 70
     0
  9
$DIMZIN
 70
     0
  9
$DIMBLK
  1

  9
$DIMASO
 70
     1
  9
$DIMSHO
 70
     1
  9
$DIMPOST
  1

  9
$DIMAPOST
  1

  9
$DIMALT
 70
     0
  9
$DIMALTD
 70
     2
  9
$DIMALTF
 40
25.399999999999999
  9
$DIMLFAC
 40
1.0
  9
$DIMTOFL
 70
     0
  9
$DIMTVP
 40
0.0
  9
$DIMTIX
 70
     0
  9
$DIMSOXD
 70
     0
  9
$DIMSAH
 70
     0
  9
$DIMBLK1
  1

  9
$DIMBLK2
  1

  9
$DIMSTYLE
  2
STANDARD
  9
$DIMCLRD
 70
     0
  9
$DIMCLRE
 70
     0
  9
$DIMCLRT
 70
     0
  9
$DIMTFAC
 40
1.0
  9
$DIMGAP
 40
0.09
  9
$LUNITS
 70
     2
  9
$LUPREC
 70
     4
  9
$SKETCHINC
 40
0.1
  9
$FILLETRAD
 40
2.0
  9
$AUNITS
 70
     0
  9
$AUPREC
 70
     0
  9
$MENU
  1
ACAD
  9
$ELEVATION
 40
0.0
  9
$PELEVATION
 40
0.0
  9
$THICKNESS
 40
0.0
  9
$LIMCHECK
 70
     0
  9
$BLIPMODE
 70
     0
  9
$CHAMFERA
 40
0.0
  9
$CHAMFERB
 40
0.0
  9
$SKPOLY
 70
     0
  9
$TDCREATE
 40
2452093.9079539352
  9
$TDUPDATE
 40
2452093.9086297448
  9
$TDINDWG
 40
0.0006802083
  9
$TDUSRTIMER
 40
0.0006802083
  9
$USRTIMER
 70
     1
  9
$ANGBASE
 50
0.0
  9
$ANGDIR
 70
     0
  9
$PDMODE
 70
     0
  9
$PDSIZE
 40
0.0
  9
$PLINEWID
 40
0.0
  9
$COORDS
 70
     1
  9
$SPLFRAME
 70
     0
  9
$SPLINETYPE
 70
     6
  9
$SPLINESEGS
 70
     8
  9
$ATTDIA
 70
     0
  9
$ATTREQ
 70
     1
  9
$HANDLING
 70
 10241
  9
$HANDSEED
  5
23F
  9
$SURFTAB1
 70
     6
  9
$SURFTAB2
 70
     6
  9
$SURFTYPE
 70
     6
  9
$SURFU
 70
     6
  9
$SURFV
 70
     6
  9
$UCSNAME
  2

  9
$UCSORG
 10
0.0
 20
0.0
 30
0.0
  9
$UCSXDIR
 10
1.0
 20
0.0
 30
0.0
  9
$UCSYDIR
 10
0.0
 20
1.0
 30
0.0
  9
$PUCSNAME
  2

  9
$PUCSORG
 10
0.0
 20
0.0
 30
0.0
  9
$PUCSXDIR
 10
1.0
 20
0.0
 30
0.0
  9
$PUCSYDIR
 10
0.0
 20
1.0
 30
0.0
  9
$USERI1
 70
     0
  9
$USERI2
 70
     0
  9
$USERI3
 70
     0
  9
$USERI4
 70
     0
  9
$USERI5
 70
     0
  9
$USERR1
 40
0.0
  9
$USERR2
 40
0.0
  9
$USERR3
 40
0.0
  9
$USERR4
 40
0.0
  9
$USERR5
 40
0.0
  9
$WORLDVIEW
 70
     1
  9
$SHADEDGE
 70
     3
  9
$SHADEDIF
 70
    70
  9
$TILEMODE
 70
     1
  9
$MAXACTVP
 70
    64
  9
$PLIMCHECK
 70
     0
  9
$PEXTMIN
 10
1.0000000000000000E+020
 20
1.0000000000000000E+020
 30
1.0000000000000000E+020
  9
$PEXTMAX
 10
-1.0000000000000000E+020
 20
-1.0000000000000000E+020
 30
-1.0000000000000000E+020
  9
$PLIMMIN
 10
0.0
 20
0.0
  9
$PLIMMAX
 10
12.0
 20
9.0
  9
$UNITMODE
 70
     0
  9
$VISRETAIN
 70
     1
  9
$PLINEGEN
 70
     0
  9
$PSLTSCALE
 70
     1
  0
ENDSEC
  0
SECTION
  2
TABLES
  0
TABLE
  2
VPORT
 70
     2
  0
VPORT
  2
*ACTIVE
 70
     0
 10
0.0
 20
0.0
 11
1.0
 21
1.0
 12
-152.4798244208329
 22
238.6488963967453
 13
0.0
 23
0.0
 14
1.0
 24
1.0
 15
0.0
 25
0.0
 16
0.0
 26
0.0
 36
1.0
 17
0.0
 27
0.0
 37
0.0
 40
9.0000002074605447
 41
2.5693779904306222
 42
50.0
 43
0.0
 44
0.0
 50
0.0
 51
0.0
 71
     0
 72
   100
 73
     1
 74
     1
 75
     0
 76
     0
 77
     0
 78
     0
  0
ENDTAB
  0
TABLE
  2
LTYPE
 70
     9
  0
LTYPE
  2
CONTINUOUS
 70
     0
  3
Solid line
 72
    65
 73
     0
 40
0.0
  0
LTYPE
  2
BORDER
 70
     0
  3
__ __ . __ __ .
 72
    65
 73
     6
 40
10.438379844491759
 49
2.9823942412833611
 49
-1.4911971206416801
 49
2.9823942412833611
 49
-1.4911971206416801
 49
0.0
 49
-1.4911971206416801
  0
LTYPE
  2
CENTER
 70
     0
  3
____ _ ____ _
 72
    65
 73
     4
 40
11.929576965133441
 49
7.4559856032084024
 49
-1.4911971206416801
 49
1.4911971206416801
 49
-1.4911971206416801
  0
LTYPE
  2
DASHDOT
 70
     0
  3
__ . __ . __ .
 72
    65
 73
     4
 40
5.9647884825667212
 49
2.9823942412833611
 49
-1.4911971206416801
 49
0.0
 49
-1.4911971206416801
  0
LTYPE
  2
DASHED
 70
     0
  3
__ __ __ __ __
 72
    65
 73
     2
 40
4.47359136192504
 49
2.9823942412833611
 49
-1.4911971206416801
  0
LTYPE
  2
DIVIDE
 70
     0
  3
__ . . __ . . 
 72
    65
 73
     6
 40
7.4559856032084024
 49
2.9823942412833611
 49
-1.4911971206416801
 49
0.0
 49
-1.4911971206416801
 49
0.0
 49
-1.4911971206416801
  0
LTYPE
  2
DOT
 70
     0
  3
..............
 72
    65
 73
     4
 40
2.9823942412833611
 49
0.0
 49
-1.4911971206416801
 49
0.0
 49
-1.4911971206416801
  0
LTYPE
  2
HIDDEN
 70
     0
  3
_ _ _ _ _ _ _
 72
    65
 73
     2
 40
2.2367956809625209
 49
1.4911971206416801
 49
-0.7455985603208402
  0
LTYPE
  2
PHANTOM
 70
     0
  3
_____ _ _ _____ _ _ 
 72
    65
 73
     6
 40
14.9119712064168
 49
7.4559856032084024
 49
-1.4911971206416801
 49
1.4911971206416801
 49
-1.4911971206416801
 49
1.4911971206416801
 49
-1.4911971206416801
  0
ENDTAB
  0
TABLE
  2
LAYER
 70
     2
  0
LAYER
  2
0
 70
     0
 62
     7
  6
CONTINUOUS
  0
LAYER
  2
1
 70
     0
 62
     7
  6
CONTINUOUS
  0
ENDTAB
  0
TABLE
  2
STYLE
 70
     4
  0
STYLE
  2
STANDARD
 70
     0
 40
0.0
 41
1.0
 50
0.0
 71
     0
 42
3.5
  3
txt
  4

  0
STYLE
  2
SIMPLEX
 70
     0
 40
0.0
 41
1.0
 50
0.0
 71
     0
 42
3.5
  3
simplex
  4

  0
STYLE
  2
COMPLEX
 70
     0
 40
0.0
 41
1.0
 50
0.0
 71
     0
 42
3.5
  3
complex
  4

  0
STYLE
  2
ITALIC
 70
     0
 40
0.0
 41
1.0
 50
0.0
 71
     0
 42
3.5
  3
italic
  4

  0
ENDTAB
  0
TABLE
  2
VIEW
 70
     0
  0
ENDTAB
  0
TABLE
  2
UCS
 70
     0
  0
ENDTAB
  0
TABLE
  2
APPID
 70
     1
  0
APPID
  2
ACAD
 70
     0
  0
ENDTAB
  0
TABLE
  2
DIMSTYLE
 70
     1
  0
DIMSTYLE
  2
STANDARD
 70
     0
  3

  4

  5

  6

  7

 40
1.0
 41
0.18
 42
0.0625
 43
0.38
 44
0.18
 45
0.0
 46
0.0
 47
0.0
 48
0.0
140
0.18
141
0.09
142
0.0
143
25.399999999999999
144
1.0
145
0.0
146
1.0
147
0.09
 71
     0
 72
     0
 73
     1
 74
     1
 75
     0
 76
     0
 77
     0
 78
     0
170
     0
171
     2
172
     0
173
     0
174
     0
175
     0
176
     0
177
     0
178
     0
  0
ENDTAB
  0
ENDSEC
  0
SECTION
  2
BLOCKS
  0
BLOCK
  8
0
  2
$MODEL_SPACE
 70
     0
 10
0.0
 20
0.0
 30
0.0
  3
$MODEL_SPACE
  1

  0
ENDBLK
  5
20
  8
0
  0
BLOCK
 67
     1
  8
0
  2
$PAPER_SPACE
 70
     0
 10
0.0
 20
0.0
 30
0.0
  3
$PAPER_SPACE
  1

  0
ENDBLK
  5
1C
 67
     1
  8
0
  0
ENDSEC
  0
SECTION
  2
ENTITIES
  0
LINE
  5
33
  8
1
 62
     3
 10
-16.5373891495096
 20
219.4443811215753
 30
0.0
 11
-16.5373891495096
 21
222.40518626621309
 31
0.0
  0
LINE
  5
34
  8
1
 62
     7
 10
-15.617389149509631
 20
219.4443811215753
 30
0.0
 11
-19.29738914950957
 21
219.4443811215753
 31
0.0
  0
LINE
  5
35
  8
1
 62
     3
 10
-16.147389149509479
 20
222.40518626621309
 30
0.0
 11
-16.147389149509589
 21
219.4443811215753
 31
0.0
  0
LINE
  5
36
  8
1
 62
     3
 10
-16.927389149509612
 20
219.4443811215753
 30
0.0
 11
-16.92738914950959
 21
222.40518626621309
 31
0.0
  0
LINE
  5
37
  8
1
 62
     3
 10
-18.377389149509568
 20
219.4443811215753
 30
0.0
 11
-18.377389149509568
 21
222.40518626621309
 31
0.0
  0
LINE
  5
38
  8
1
 62
     3
 10
-17.987389149509571
 20
222.40518626621309
 30
0.0
 11
-17.987389149509571
 21
219.4443811215753
 31
0.0
  0
LINE
  5
39
  8
1
 62
     3
 10
-18.767389149509601
 20
219.4443811215753
 30
0.0
 11
-18.767389149509569
 21
222.40518626621309
 31
0.0
  0
LINE
  5
3A
  8
1
 62
     3
 10
-175.11935148704509
 20
219.4443811215753
 30
0.0
 11
-175.11935148704509
 21
222.40518626621309
 31
0.0
  0
LINE
  5
3B
  8
1
 62
     7
 10
-176.03935148704511
 20
219.4443811215753
 30
0.0
 11
-174.19935148704511
 21
219.4443811215753
 31
0.0
  0
LINE
  5
3C
  8
1
 62
     3
 10
-174.72935148704511
 20
222.40518626621309
 30
0.0
 11
-174.72935148704511
 21
219.4443811215753
 31
0.0
  0
LINE
  5
3D
  8
1
 62
     3
 10
-175.50935148704511
 20
219.4443811215753
 30
0.0
 11
-175.50935148704511
 21
222.40518626621309
 31
0.0
  0
LINE
  5
3E
  8
1
 62
     3
 10
-131.11935148704481
 20
219.4443811215753
 30
0.0
 11
-131.11935148704481
 21
222.40518626621309
 31
0.0
  0
LINE
  5
3F
  8
1
 62
     7
 10
-155.11935148704481
 20
332.69503655961807
 30
0.0
 11
-155.11935148704481
 21
326.69503655961807
 31
0.0
  0
LINE
  5
40
  8
1
 62
     7
 10
-151.11935148704501
 20
326.69503655961807
 30
0.0
 11
-151.11935148704501
 21
332.69503655961807
 31
0.0
  0
LINE
  5
41
  8
1
 62
     7
 10
-155.11935148704481
 20
272.69503655961802
 30
0.0
 11
-155.11935148704481
 21
266.69503655961802
 31
0.0
  0
LINE
  5
42
  8
1
 62
     7
 10
-151.11935148704501
 20
266.69503655961802
 30
0.0
 11
-151.11935148704501
 21
272.69503655961802
 31
0.0
  0
LINE
  5
43
  8
1
 62
     7
 10
-13.45738914950959
 20
204.92632191679141
 30
0.0
 11
-13.45738914950959
 21
203.92445188202331
 31
0.0
  0
LINE
  5
44
  8
1
 62
     7
 10
-21.457389149509591
 20
203.92445188202331
 30
0.0
 11
-21.457389149509591
 21
204.92632191679141
 31
0.0
  0
LINE
  5
45
  8
1
  6
DASHDOT
 62
     3
 10
-208.1193514870449
 20
299.69503655961802
 30
0.0
 11
-203.1193514870449
 21
299.69503655961802
 31
0.0
  0
LINE
  5
46
  8
1
  6
DASHDOT
 62
     3
 10
-208.1193514870449
 20
178.04764554878889
 30
0.0
 11
-203.1193514870449
 21
178.04764554878889
 31
0.0
  0
LINE
  5
47
  8
1
 62
     7
 10
-203.1193514870449
 20
298.69503655961802
 30
0.0
 11
-190.1193514870449
 21
298.69503655961802
 31
0.0
  0
LINE
  5
48
  8
1
 62
     7
 10
-190.1193514870449
 20
300.69503655961802
 30
0.0
 11
-203.1193514870449
 21
300.69503655961802
 31
0.0
  0
LINE
  5
49
  8
1
 62
     7
 10
-202.6193514870449
 20
302.69503655961802
 30
0.0
 11
-202.6193514870449
 21
300.69503655961802
 31
0.0
  0
LINE
  5
4A
  8
1
 62
     7
 10
-202.6193514870449
 20
298.69503655961802
 30
0.0
 11
-202.6193514870449
 21
296.69503655961802
 31
0.0
  0
LINE
  5
4B
  8
1
 62
     7
 10
-203.1193514870449
 20
297.19503655961802
 30
0.0
 11
-202.6193514870449
 21
296.69503655961802
 31
0.0
  0
LINE
  5
4C
  8
1
 62
     7
 10
-202.6193514870449
 20
302.69503655961802
 30
0.0
 11
-203.1193514870449
 21
302.19503655961802
 31
0.0
  0
LINE
  5
4D
  8
1
 62
     7
 10
-187.1193514870449
 20
296.69503655961802
 30
0.0
 11
-202.6193514870449
 21
296.69503655961802
 31
0.0
  0
LINE
  5
4E
  8
1
 62
     7
 10
-203.1193514870449
 20
302.19503655961802
 30
0.0
 11
-203.1193514870449
 21
297.19503655961802
 31
0.0
  0
LINE
  5
4F
  8
1
 62
     7
 10
-202.6193514870449
 20
302.69503655961802
 30
0.0
 11
-187.1193514870449
 21
302.69503655961802
 31
0.0
  0
LINE
  5
50
  8
1
 62
     7
 10
-203.1193514870449
 20
181.9476455487889
 30
0.0
 11
-189.1193514870449
 21
181.9476455487889
 31
0.0
  0
LINE
  5
51
  8
1
 62
     7
 10
-189.1193514870449
 20
181.9476455487889
 30
0.0
 11
-189.1193514870449
 21
181.04764554878889
 31
0.0
  0
LINE
  5
52
  8
1
 62
     7
 10
-202.6193514870449
 20
181.04764554878889
 30
0.0
 11
-202.6193514870449
 21
175.04764554878889
 31
0.0
  0
LINE
  5
53
  8
1
 62
     7
 10
-203.1193514870449
 20
175.54764554878889
 30
0.0
 11
-202.6193514870449
 21
175.04764554878889
 31
0.0
  0
LINE
  5
54
  8
1
 62
     7
 10
-202.6193514870449
 20
181.04764554878889
 30
0.0
 11
-203.1193514870449
 21
180.54764554878889
 31
0.0
  0
LINE
  5
55
  8
1
 62
     7
 10
-187.1193514870449
 20
175.04764554878889
 30
0.0
 11
-202.6193514870449
 21
175.04764554878889
 31
0.0
  0
LINE
  5
56
  8
1
 62
     7
 10
-203.1193514870449
 20
181.9476455487889
 30
0.0
 11
-203.1193514870449
 21
175.54764554878889
 31
0.0
  0
LINE
  5
57
  8
1
 62
     7
 10
-202.6193514870449
 20
181.04764554878889
 30
0.0
 11
-187.1193514870449
 21
181.04764554878889
 31
0.0
  0
LINE
  5
58
  8
1
 62
     7
 10
-176.03935148704511
 20
205.04764554878889
 30
0.0
 11
-176.03935148704511
 21
219.4443811215753
 31
0.0
  0
LINE
  5
59
  8
1
 62
     7
 10
-174.19935148704511
 20
205.04764554878889
 30
0.0
 11
-174.19935148704511
 21
219.4443811215753
 31
0.0
  0
LINE
  5
5A
  8
1
 62
     7
 10
-178.61935148704509
 20
204.04764554878901
 30
0.0
 11
-178.61935148704509
 21
205.04764554878889
 31
0.0
  0
LINE
  5
5B
  8
1
 62
     7
 10
-176.31935148704511
 20
298.49503655961797
 30
0.0
 11
-176.31935148704511
 21
300.89503655961801
 31
0.0
  0
LINE
  5
5C
  8
1
 62
     7
 10
-173.91935148704511
 20
300.89503655961801
 30
0.0
 11
-173.91935148704511
 21
298.49503655961797
 31
0.0
  0
LINE
  5
5D
  8
1
 62
     7
 10
-176.1193514870449
 20
272.55270382630619
 30
0.0
 11
-176.1193514870449
 21
295.69503655961807
 31
0.0
  0
LINE
  5
5E
  8
1
 62
     7
 10
-180.6193514870449
 20
296.69503655961802
 30
0.0
 11
-176.92212712477709
 21
296.69503655961802
 31
0.0
  0
LINE
  5
5F
  8
1
 62
     7
 10
-178.1193514870449
 20
264.69503655961802
 30
0.0
 11
-178.1193514870449
 21
296.69503655961802
 31
0.0
  0
LINE
  5
60
  8
1
 62
     7
 10
-176.92212712477709
 20
302.69503655961802
 30
0.0
 11
-180.6193514870449
 21
302.69503655961802
 31
0.0
  0
LINE
  5
61
  8
1
 62
     7
 10
-176.1193514870449
 20
303.69503655961768
 30
0.0
 11
-175.6193514870449
 21
303.69503655961768
 31
0.0
  0
LINE
  5
62
  8
1
 62
     7
 10
-175.6193514870449
 20
295.69503655961807
 30
0.0
 11
-176.1193514870449
 21
295.69503655961807
 31
0.0
  0
LINE
  5
63
  8
1
  6
DASHDOT
 62
     3
 10
-173.1193514870449
 20
152.1627160961319
 30
0.0
 11
-173.1193514870449
 21
139.932575001446
 31
0.0
  0
LINE
  5
64
  8
1
  6
DASHDOT
 62
     3
 10
-173.1193514870449
 20
324.19810044236181
 30
0.0
 11
-173.1193514870449
 21
337.19197267687412
 31
0.0
  0
LINE
  5
65
  8
1
  6
DASHDOT
 62
     3
 10
-179.61628760430091
 20
330.69503655961802
 30
0.0
 11
-166.62241536978891
 21
330.69503655961802
 31
0.0
  0
LINE
  5
66
  8
1
 62
     7
 10
-183.1193514870449
 20
317.97892387193082
 30
0.0
 11
-183.81935148704491
 21
317.57477868349821
 31
0.0
  0
LINE
  5
67
  8
1
 62
     7
 10
-183.1193514870449
 20
317.17063349506532
 30
0.0
 11
-183.81935148704491
 21
316.7664883066326
 31
0.0
  0
LINE
  5
68
  8
1
 62
     7
 10
-183.1193514870449
 20
314.4227060892818
 30
0.0
 11
-183.81935148704491
 21
314.4227060892818
 31
0.0
  0
LINE
  5
69
  8
1
 62
     7
 10
-183.81935148704491
 20
314.4227060892818
 30
0.0
 11
-183.81935148704491
 21
320.32270608928172
 31
0.0
  0
LINE
  5
6A
  8
1
 62
     7
 10
-183.81935148704491
 20
320.32270608928172
 30
0.0
 11
-183.1193514870449
 21
320.32270608928172
 31
0.0
  0
LINE
  5
6B
  8
1
 62
     7
 10
-186.6193514870449
 20
314.62270608928179
 30
0.0
 11
-186.6193514870449
 21
320.12270608928179
 31
0.0
  0
LINE
  5
6C
  8
1
 62
     7
 10
-186.6193514870449
 20
320.12270608928179
 30
0.0
 11
-183.81935148704491
 21
320.12270608928179
 31
0.0
  0
LINE
  5
6D
  8
1
 62
     7
 10
-186.81935148704491
 20
319.77629592776788
 30
0.0
 11
-186.6193514870449
 21
320.12270608928179
 31
0.0
  0
LINE
  5
6E
  8
1
 62
     7
 10
-186.81935148704491
 20
314.96911625079559
 30
0.0
 11
-186.81935148704491
 21
319.77629592776788
 31
0.0
  0
LINE
  5
6F
  8
1
 62
     7
 10
-186.6193514870449
 20
314.62270608928179
 30
0.0
 11
-186.81935148704491
 21
314.96911625079559
 31
0.0
  0
LINE
  5
70
  8
1
 62
     7
 10
-183.81935148704491
 20
314.62270608928179
 30
0.0
 11
-186.6193514870449
 21
314.62270608928179
 31
0.0
  0
LINE
  5
71
  8
1
 62
     7
 10
-176.1193514870449
 20
325.69503655961807
 30
0.0
 11
-177.1193514870449
 21
325.69503655961807
 31
0.0
  0
LINE
  5
72
  8
1
 62
     7
 10
-179.1193514870449
 20
323.69503655961807
 30
0.0
 11
-182.1193514870449
 21
323.69503655961807
 31
0.0
  0
LINE
  5
73
  8
1
 62
     7
 10
-186.2433862216341
 20
311.3045322177943
 30
0.0
 11
-183.99531675245581
 21
311.58554090144179
 31
0.0
  0
LINE
  5
74
  8
1
 62
     7
 10
-168.11935148704481
 20
326.83736929292968
 30
0.0
 11
-168.11935148704481
 21
326.69503655961807
 31
0.0
  0
LINE
  5
75
  8
1
 62
     7
 10
-169.3693514870449
 20
327.57648943455428
 30
0.0
 11
-169.36935148704501
 21
327.1373692929298
 31
0.0
  0
LINE
  5
76
  8
1
 62
     7
 10
-174.86935148704461
 20
327.1373692929298
 30
0.0
 11
-174.86935148704481
 21
327.57648943455428
 31
0.0
  0
LINE
  5
77
  8
1
 62
     7
 10
-168.11935148704481
 20
326.83736929292968
 30
0.0
 11
-176.1193514870449
 21
326.83736929292968
 31
0.0
  0
LINE
  5
78
  8
1
  6
DASHDOT
 62
     3
 10
-173.1193514870449
 20
262.19810044236192
 30
0.0
 11
-173.1193514870449
 21
275.19197267687389
 31
0.0
  0
LINE
  5
79
  8
1
  6
DASHDOT
 62
     3
 10
-166.62241536978891
 20
268.69503655961802
 30
0.0
 11
-179.61628760430091
 21
268.69503655961802
 31
0.0
  0
LINE
  5
7A
  8
1
 62
     7
 10
-178.1193514870449
 20
302.69503655961802
 30
0.0
 11
-178.1193514870449
 21
334.69503655961802
 31
0.0
  0
LINE
  5
7B
  8
1
 62
     7
 10
-183.1193514870449
 20
282.62358481260333
 30
0.0
 11
-183.81935148704491
 21
282.2194396241706
 31
0.0
  0
LINE
  5
7C
  8
1
 62
     7
 10
-183.1193514870449
 20
281.81529443573783
 30
0.0
 11
-183.81935148704491
 21
281.4111492473051
 31
0.0
  0
LINE
  5
7D
  8
1
 62
     7
 10
-183.81935148704491
 20
284.96736702995412
 30
0.0
 11
-183.1193514870449
 21
284.96736702995412
 31
0.0
  0
LINE
  5
7E
  8
1
 62
     7
 10
-183.81935148704491
 20
279.06736702995431
 30
0.0
 11
-183.81935148704491
 21
284.96736702995412
 31
0.0
  0
LINE
  5
7F
  8
1
 62
     7
 10
-183.1193514870449
 20
279.06736702995431
 30
0.0
 11
-183.81935148704491
 21
279.06736702995431
 31
0.0
  0
LINE
  5
80
  8
1
 62
     7
 10
-186.6193514870449
 20
279.26736702995407
 30
0.0
 11
-186.6193514870449
 21
284.76736702995419
 31
0.0
  0
LINE
  5
81
  8
1
 62
     7
 10
-183.81935148704491
 20
279.26736702995407
 30
0.0
 11
-186.6193514870449
 21
279.26736702995407
 31
0.0
  0
LINE
  5
82
  8
1
 62
     7
 10
-186.6193514870449
 20
279.26736702995407
 30
0.0
 11
-186.81935148704491
 21
279.61377719146799
 31
0.0
  0
LINE
  5
83
  8
1
 62
     7
 10
-186.81935148704491
 20
279.61377719146799
 30
0.0
 11
-186.81935148704491
 21
284.42095686844033
 31
0.0
  0
LINE
  5
84
  8
1
 62
     7
 10
-186.81935148704491
 20
284.42095686844033
 30
0.0
 11
-186.6193514870449
 21
284.76736702995419
 31
0.0
  0
LINE
  5
85
  8
1
 62
     7
 10
-186.6193514870449
 20
284.76736702995419
 30
0.0
 11
-183.81935148704491
 21
284.76736702995419
 31
0.0
  0
LINE
  5
86
  8
1
 62
     7
 10
-177.1193514870449
 20
273.69503655961779
 30
0.0
 11
-176.1193514870449
 21
273.69503655961779
 31
0.0
  0
LINE
  5
87
  8
1
 62
     7
 10
-182.1193514870449
 20
275.69503655961779
 30
0.0
 11
-179.1193514870449
 21
275.69503655961779
 31
0.0
  0
LINE
  5
88
  8
1
 62
     7
 10
-183.99531675245581
 20
287.80453221779408
 30
0.0
 11
-186.2433862216341
 21
288.0855409014415
 31
0.0
  0
LINE
  5
89
  8
1
 62
     7
 10
-168.11935148704481
 20
272.6950365596179
 30
0.0
 11
-168.11935148704481
 21
272.55270382630619
 31
0.0
  0
LINE
  5
8A
  8
1
 62
     7
 10
-169.36935148704501
 20
272.25270382630612
 30
0.0
 11
-169.3693514870449
 21
271.81358368468159
 31
0.0
  0
LINE
  5
8B
  8
1
 62
     7
 10
-174.86935148704481
 20
271.81358368468159
 30
0.0
 11
-174.86935148704461
 21
272.25270382630612
 31
0.0
  0
LINE
  5
8C
  8
1
 62
     7
 10
-176.1193514870449
 20
272.55270382630619
 30
0.0
 11
-168.11935148704481
 21
272.55270382630619
 31
0.0
  0
LINE
  5
8D
  8
1
 62
     7
 10
-187.1193514870449
 20
289.07781877815512
 30
0.0
 11
-187.1193514870449
 21
310.31225434108057
 31
0.0
  0
LINE
  5
8E
  8
1
 62
     7
 10
-183.1193514870449
 20
276.6950365596179
 30
0.0
 11
-183.1193514870449
 21
322.69503655961802
 31
0.0
  0
LINE
  5
8F
  8
1
 62
     7
 10
-180.6193514870449
 20
275.69503655961779
 30
0.0
 11
-180.6193514870449
 21
323.69503655961802
 31
0.0
  0
LINE
  5
90
  8
1
 62
     7
 10
-183.1193514870449
 20
196.33153286110181
 30
0.0
 11
-183.81935148704491
 21
195.92738767266911
 31
0.0
  0
LINE
  5
91
  8
1
 62
     7
 10
-183.1193514870449
 20
195.52324248423631
 30
0.0
 11
-183.81935148704491
 21
195.11909729580361
 31
0.0
  0
LINE
  5
92
  8
1
 62
     7
 10
-183.1193514870449
 20
192.77531507845259
 30
0.0
 11
-183.81935148704491
 21
192.77531507845259
 31
0.0
  0
LINE
  5
93
  8
1
 62
     7
 10
-183.81935148704491
 20
192.77531507845259
 30
0.0
 11
-183.81935148704491
 21
198.6753150784526
 31
0.0
  0
LINE
  5
94
  8
1
 62
     7
 10
-183.81935148704491
 20
198.6753150784526
 30
0.0
 11
-183.1193514870449
 21
198.6753150784526
 31
0.0
  0
LINE
  5
95
  8
1
 62
     7
 10
-186.6193514870449
 20
192.97531507845261
 30
0.0
 11
-186.6193514870449
 21
198.4753150784527
 31
0.0
  0
LINE
  5
96
  8
1
 62
     7
 10
-186.6193514870449
 20
198.4753150784527
 30
0.0
 11
-183.81935148704491
 21
198.4753150784527
 31
0.0
  0
LINE
  5
97
  8
1
 62
     7
 10
-186.81935148704491
 20
198.12890491693889
 30
0.0
 11
-186.6193514870449
 21
198.4753150784527
 31
0.0
  0
LINE
  5
98
  8
1
 62
     7
 10
-186.81935148704491
 20
193.32172523996641
 30
0.0
 11
-186.81935148704491
 21
198.12890491693889
 31
0.0
  0
LINE
  5
99
  8
1
 62
     7
 10
-186.6193514870449
 20
192.97531507845261
 30
0.0
 11
-186.81935148704491
 21
193.32172523996641
 31
0.0
  0
LINE
  5
9A
  8
1
 62
     7
 10
-183.81935148704491
 20
192.97531507845261
 30
0.0
 11
-186.6193514870449
 21
192.97531507845261
 31
0.0
  0
LINE
  5
9B
  8
1
 62
     7
 10
-183.1193514870449
 20
160.97619380177451
 30
0.0
 11
-183.81935148704491
 21
160.57204861334179
 31
0.0
  0
LINE
  5
9C
  8
1
 62
     7
 10
-183.1193514870449
 20
160.16790342490901
 30
0.0
 11
-183.81935148704491
 21
159.76375823647629
 31
0.0
  0
LINE
  5
9D
  8
1
 62
     7
 10
-183.1193514870449
 20
157.4199760191253
 30
0.0
 11
-183.81935148704491
 21
157.4199760191253
 31
0.0
  0
LINE
  5
9E
  8
1
 62
     7
 10
-183.81935148704491
 20
157.4199760191253
 30
0.0
 11
-183.81935148704491
 21
163.31997601912531
 31
0.0
  0
LINE
  5
9F
  8
1
 62
     7
 10
-183.81935148704491
 20
163.31997601912531
 30
0.0
 11
-183.1193514870449
 21
163.31997601912531
 31
0.0
  0
LINE
  5
A0
  8
1
 62
     7
 10
-186.6193514870449
 20
157.61997601912529
 30
0.0
 11
-186.6193514870449
 21
163.11997601912529
 31
0.0
  0
LINE
  5
A1
  8
1
 62
     7
 10
-186.6193514870449
 20
163.11997601912529
 30
0.0
 11
-183.81935148704491
 21
163.11997601912529
 31
0.0
  0
LINE
  5
A2
  8
1
 62
     7
 10
-186.81935148704491
 20
162.77356585761149
 30
0.0
 11
-186.6193514870449
 21
163.11997601912529
 31
0.0
  0
LINE
  5
A3
  8
1
 62
     7
 10
-186.81935148704491
 20
157.96638618063901
 30
0.0
 11
-186.81935148704491
 21
162.77356585761149
 31
0.0
  0
LINE
  5
A4
  8
1
 62
     7
 10
-186.6193514870449
 20
157.61997601912529
 30
0.0
 11
-186.81935148704491
 21
157.96638618063901
 31
0.0
  0
LINE
  5
A5
  8
1
 62
     7
 10
-183.81935148704491
 20
157.61997601912529
 30
0.0
 11
-186.6193514870449
 21
157.61997601912529
 31
0.0
  0
LINE
  5
A6
  8
1
 62
     7
 10
-171.85685148704491
 20
172.79764554878889
 30
0.0
 11
-172.38185148704491
 21
172.79764554878889
 31
0.0
  0
LINE
  5
A7
  8
1
 62
     7
 10
-170.36935148704501
 20
170.78514554878879
 30
0.0
 11
-170.36935148704501
 21
171.31014554878891
 31
0.0
  0
LINE
  5
A8
  8
1
 62
     7
 10
-172.38185148704491
 20
169.29764554878889
 30
0.0
 11
-171.85685148704491
 21
169.29764554878889
 31
0.0
  0
LINE
  5
A9
  8
1
 62
     7
 10
-173.8693514870449
 20
171.31014554878891
 30
0.0
 11
-173.8693514870449
 21
170.78514554878879
 31
0.0
  0
LINE
  5
AA
  8
1
 62
     7
 10
-174.76510279810969
 20
168.04764554878901
 30
0.0
 11
-176.1193514870449
 21
168.04764554878901
 31
0.0
  0
LINE
  5
AB
  8
1
 62
     7
 10
-176.1193514870449
 20
168.04764554878901
 30
0.0
 11
-176.1193514870449
 21
205.04764554878889
 31
0.0
  0
LINE
  5
AC
  8
1
 62
     7
 10
-178.1193514870449
 20
146.54764554878901
 30
0.0
 11
-178.91935148704491
 21
146.54764554878901
 31
0.0
  0
LINE
  5
AD
  8
1
 62
     7
 10
-178.91935148704491
 20
146.54764554878901
 30
0.0
 11
-178.91935148704491
 21
151.54764554878901
 31
0.0
  0
LINE
  5
AE
  8
1
 62
     7
 10
-178.91935148704491
 20
151.54764554878901
 30
0.0
 11
-178.1193514870449
 21
151.54764554878901
 31
0.0
  0
LINE
  5
AF
  8
1
 62
     7
 10
-180.6193514870449
 20
202.04764554878901
 30
0.0
 11
-180.6193514870449
 21
154.04764554878901
 31
0.0
  0
LINE
  5
B0
  8
1
 62
     7
 10
-182.1193514870449
 20
154.04764554878901
 30
0.0
 11
-179.1193514870449
 21
154.04764554878901
 31
0.0
  0
LINE
  5
B1
  8
1
 62
     7
 10
-178.61935148704509
 20
204.04764554878901
 30
0.0
 11
-176.1193514870449
 21
204.04764554878901
 31
0.0
  0
LINE
  5
B2
  8
1
 62
     7
 10
-178.1193514870449
 20
204.04764554878901
 30
0.0
 11
-178.1193514870449
 21
142.54764554878889
 31
0.0
  0
LINE
  5
B3
  8
1
 62
     7
 10
-179.1193514870449
 20
202.04764554878901
 30
0.0
 11
-182.1193514870449
 21
202.04764554878901
 31
0.0
  0
LINE
  5
B4
  8
1
 62
     7
 10
-183.99531675245581
 20
166.15714120696529
 30
0.0
 11
-186.2433862216341
 21
166.43814989061261
 31
0.0
  0
LINE
  5
B5
  8
1
 62
     7
 10
-183.1193514870449
 20
201.04764554878889
 30
0.0
 11
-183.1193514870449
 21
155.04764554878889
 31
0.0
  0
LINE
  5
B6
  8
1
 62
     7
 10
-187.1193514870449
 20
188.66486333025171
 30
0.0
 11
-187.1193514870449
 21
167.43042776732631
 31
0.0
  0
LINE
  5
B7
  8
1
 62
     7
 10
-186.2433862216341
 20
189.65714120696521
 30
0.0
 11
-183.99531675245581
 21
189.93814989061269
 31
0.0
  0
LINE
  5
B8
  8
1
  6
DASHDOT
 62
     3
 10
-103.11935148704499
 20
299.69503655961802
 30
0.0
 11
-98.119351487045009
 21
299.69503655961802
 31
0.0
  0
LINE
  5
B9
  8
1
  6
DASHDOT
 62
     3
 10
-103.11935148704499
 20
178.04764554878889
 30
0.0
 11
-98.119351487045009
 21
178.04764554878889
 31
0.0
  0
LINE
  5
BA
  8
1
 62
     7
 10
-116.11935148704499
 20
298.69503655961802
 30
0.0
 11
-103.11935148704499
 21
298.69503655961802
 31
0.0
  0
LINE
  5
BB
  8
1
 62
     7
 10
-103.11935148704499
 20
300.69503655961802
 30
0.0
 11
-116.11935148704499
 21
300.69503655961802
 31
0.0
  0
LINE
  5
BC
  8
1
 62
     7
 10
-103.61935148704499
 20
300.69503655961802
 30
0.0
 11
-103.61935148704499
 21
302.69503655961802
 31
0.0
  0
LINE
  5
BD
  8
1
 62
     7
 10
-103.61935148704499
 20
296.69503655961802
 30
0.0
 11
-103.61935148704499
 21
298.69503655961802
 31
0.0
  0
LINE
  5
BE
  8
1
 62
     7
 10
-103.61935148704499
 20
296.69503655961802
 30
0.0
 11
-103.11935148704499
 21
297.19503655961802
 31
0.0
  0
LINE
  5
BF
  8
1
 62
     7
 10
-103.11935148704499
 20
302.19503655961802
 30
0.0
 11
-103.61935148704499
 21
302.69503655961802
 31
0.0
  0
LINE
  5
C0
  8
1
 62
     7
 10
-103.61935148704499
 20
296.69503655961802
 30
0.0
 11
-119.11935148704499
 21
296.69503655961802
 31
0.0
  0
LINE
  5
C1
  8
1
 62
     7
 10
-103.11935148704499
 20
297.19503655961802
 30
0.0
 11
-103.11935148704499
 21
302.19503655961802
 31
0.0
  0
LINE
  5
C2
  8
1
 62
     7
 10
-119.11935148704499
 20
302.69503655961802
 30
0.0
 11
-103.61935148704499
 21
302.69503655961802
 31
0.0
  0
LINE
  5
C3
  8
1
 62
     7
 10
-117.11935148704499
 20
181.9476455487889
 30
0.0
 11
-103.11935148704499
 21
181.9476455487889
 31
0.0
  0
LINE
  5
C4
  8
1
 62
     7
 10
-117.11935148704499
 20
181.04764554878889
 30
0.0
 11
-117.11935148704499
 21
181.9476455487889
 31
0.0
  0
LINE
  5
C5
  8
1
 62
     7
 10
-103.61935148704499
 20
175.04764554878889
 30
0.0
 11
-103.61935148704499
 21
181.04764554878889
 31
0.0
  0
LINE
  5
C6
  8
1
 62
     7
 10
-103.61935148704499
 20
175.04764554878889
 30
0.0
 11
-103.11935148704499
 21
175.54764554878889
 31
0.0
  0
LINE
  5
C7
  8
1
 62
     7
 10
-103.11935148704499
 20
180.54764554878889
 30
0.0
 11
-103.61935148704499
 21
181.04764554878889
 31
0.0
  0
LINE
  5
C8
  8
1
 62
     7
 10
-103.61935148704499
 20
175.04764554878889
 30
0.0
 11
-119.11935148704499
 21
175.04764554878889
 31
0.0
  0
LINE
  5
C9
  8
1
 62
     7
 10
-103.11935148704499
 20
175.54764554878889
 30
0.0
 11
-103.11935148704499
 21
181.9476455487889
 31
0.0
  0
LINE
  5
CA
  8
1
 62
     7
 10
-119.11935148704499
 20
181.04764554878889
 30
0.0
 11
-103.61935148704499
 21
181.04764554878889
 31
0.0
  0
LINE
  5
CB
  8
1
 62
     7
 10
-132.03935148704491
 20
219.4443811215753
 30
0.0
 11
-130.19935148704491
 21
219.4443811215753
 31
0.0
  0
LINE
  5
CC
  8
1
 62
     7
 10
-130.19935148704491
 20
219.4443811215753
 30
0.0
 11
-130.19935148704491
 21
205.04764554878889
 31
0.0
  0
LINE
  5
CD
  8
1
 62
     7
 10
-132.03935148704491
 20
219.4443811215753
 30
0.0
 11
-132.03935148704491
 21
205.04764554878889
 31
0.0
  0
LINE
  5
CE
  8
1
 62
     3
 10
-130.72935148704491
 20
222.40518626621309
 30
0.0
 11
-130.72935148704491
 21
219.4443811215753
 31
0.0
  0
LINE
  5
CF
  8
1
 62
     3
 10
-131.50935148704491
 20
219.4443811215753
 30
0.0
 11
-131.50935148704491
 21
222.40518626621309
 31
0.0
  0
LINE
  5
D0
  8
1
 62
     7
 10
-127.6193514870449
 20
205.04764554878889
 30
0.0
 11
-127.6193514870449
 21
204.04764554878901
 31
0.0
  0
LINE
  5
D1
  8
1
 62
     7
 10
-19.29738914950957
 20
219.4443811215753
 30
0.0
 11
-19.29738914950952
 21
205.04764554878889
 31
0.0
  0
LINE
  5
D2
  8
1
 62
     7
 10
-17.457389149509591
 20
219.4443811215753
 30
0.0
 11
-17.457389149509591
 21
205.04764554878889
 31
0.0
  0
LINE
  5
D3
  8
1
 62
     7
 10
-15.617389149509631
 20
219.4443811215753
 30
0.0
 11
-15.617389149509631
 21
205.04764554878889
 31
0.0
  0
LINE
  5
D4
  8
1
 62
     7
 10
-20.457389149509599
 20
201.97259861510341
 30
0.0
 11
-20.457389149509599
 21
204.04764554878901
 31
0.0
  0
LINE
  5
D5
  8
1
 62
     7
 10
-20.957389149509599
 20
204.04764554878901
 30
0.0
 11
-20.957389149509599
 21
205.04764554878889
 31
0.0
  0
LINE
  5
D6
  8
1
 62
     7
 10
-14.45738914950959
 20
201.97259861510341
 30
0.0
 11
-14.45738914950959
 21
204.04764554878901
 31
0.0
  0
LINE
  5
D7
  8
1
 62
     7
 10
-13.9573891495096
 20
204.04764554878901
 30
0.0
 11
-13.9573891495096
 21
205.04764554878889
 31
0.0
  0
LINE
  5
D8
  8
1
 62
     7
 10
-20.957389149509599
 20
205.04764554878889
 30
0.0
 11
-13.9573891495096
 21
205.04764554878889
 31
0.0
  0
LINE
  5
D9
  8
1
 62
     7
 10
-20.957389149509599
 20
204.04764554878901
 30
0.0
 11
-13.9573891495096
 21
204.04764554878901
 31
0.0
  0
LINE
  5
DA
  8
1
 62
     7
 10
-129.91935148704471
 20
300.89503655961801
 30
0.0
 11
-129.91935148704471
 21
298.49503655961797
 31
0.0
  0
LINE
  5
DB
  8
1
 62
     7
 10
-132.31935148704491
 20
298.49503655961797
 30
0.0
 11
-132.31935148704491
 21
300.89503655961801
 31
0.0
  0
LINE
  5
DC
  8
1
 62
     7
 10
-129.3165758493129
 20
296.69503655961802
 30
0.0
 11
-125.61935148704499
 21
296.69503655961802
 31
0.0
  0
LINE
  5
DD
  8
1
 62
     7
 10
-128.11935148704501
 20
296.69503655961802
 30
0.0
 11
-128.11935148704501
 21
264.69503655961802
 31
0.0
  0
LINE
  5
DE
  8
1
 62
     7
 10
-125.61935148704499
 20
302.69503655961802
 30
0.0
 11
-129.3165758493129
 21
302.69503655961802
 31
0.0
  0
LINE
  5
DF
  8
1
 62
     7
 10
-130.61935148704501
 20
303.69503655961768
 30
0.0
 11
-130.11935148704501
 21
303.69503655961768
 31
0.0
  0
LINE
  5
E0
  8
1
 62
     7
 10
-130.11935148704501
 20
295.69503655961807
 30
0.0
 11
-130.61935148704501
 21
295.69503655961807
 31
0.0
  0
LINE
  5
E1
  8
1
  6
DASHDOT
 62
     3
 10
13.54261085049041
 20
139.932575001446
 30
0.0
 11
13.54261085049041
 21
152.1627160961319
 31
0.0
  0
LINE
  5
E2
  8
1
  6
DASHDOT
 62
     3
 10
-48.457389149509602
 20
139.932575001446
 30
0.0
 11
-48.457389149509602
 21
152.1627160961319
 31
0.0
  0
LINE
  5
E3
  8
1
  6
DASHDOT
 62
     3
 10
-133.11935148704501
 20
139.932575001446
 30
0.0
 11
-133.11935148704501
 21
152.1627160961319
 31
0.0
  0
LINE
  5
E4
  8
1
 62
     7
 10
-123.11935148704499
 20
316.7664883066326
 30
0.0
 11
-122.41935148704501
 21
317.17063349506532
 31
0.0
  0
LINE
  5
E5
  8
1
 62
     7
 10
-123.11935148704499
 20
317.57477868349821
 30
0.0
 11
-122.41935148704501
 21
317.97892387193082
 31
0.0
  0
LINE
  5
E6
  8
1
 62
     7
 10
-122.41935148704501
 20
314.4227060892818
 30
0.0
 11
-123.11935148704499
 21
314.4227060892818
 31
0.0
  0
LINE
  5
E7
  8
1
 62
     7
 10
-122.41935148704501
 20
320.32270608928172
 30
0.0
 11
-122.41935148704501
 21
314.4227060892818
 31
0.0
  0
LINE
  5
E8
  8
1
 62
     7
 10
-123.11935148704499
 20
320.32270608928172
 30
0.0
 11
-122.41935148704501
 21
320.32270608928172
 31
0.0
  0
LINE
  5
E9
  8
1
 62
     7
 10
-119.61935148704499
 20
320.12270608928179
 30
0.0
 11
-119.61935148704499
 21
314.62270608928179
 31
0.0
  0
LINE
  5
EA
  8
1
 62
     7
 10
-122.41935148704501
 20
320.12270608928179
 30
0.0
 11
-119.61935148704499
 21
320.12270608928179
 31
0.0
  0
LINE
  5
EB
  8
1
 62
     7
 10
-119.61935148704499
 20
320.12270608928179
 30
0.0
 11
-119.41935148704501
 21
319.77629592776788
 31
0.0
  0
LINE
  5
EC
  8
1
 62
     7
 10
-119.41935148704501
 20
319.77629592776788
 30
0.0
 11
-119.41935148704501
 21
314.96911625079559
 31
0.0
  0
LINE
  5
ED
  8
1
 62
     7
 10
-119.41935148704501
 20
314.96911625079559
 30
0.0
 11
-119.61935148704499
 21
314.62270608928179
 31
0.0
  0
LINE
  5
EE
  8
1
 62
     7
 10
-119.61935148704499
 20
314.62270608928179
 30
0.0
 11
-122.41935148704501
 21
314.62270608928179
 31
0.0
  0
LINE
  5
EF
  8
1
 62
     7
 10
-129.11935148704501
 20
325.69503655961807
 30
0.0
 11
-130.11935148704501
 21
325.69503655961807
 31
0.0
  0
LINE
  5
F0
  8
1
 62
     7
 10
-124.11935148704499
 20
323.69503655961807
 30
0.0
 11
-127.11935148704499
 21
323.69503655961807
 31
0.0
  0
LINE
  5
F1
  8
1
 62
     7
 10
-122.2433862216341
 20
311.58554090144179
 30
0.0
 11
-119.99531675245581
 21
311.3045322177943
 31
0.0
  0
LINE
  5
F2
  8
1
 62
     7
 10
-138.11935148704521
 20
326.69503655961807
 30
0.0
 11
-138.11935148704521
 21
326.83736929292968
 31
0.0
  0
LINE
  5
F3
  8
1
 62
     7
 10
-136.86935148704501
 20
327.1373692929298
 30
0.0
 11
-136.86935148704521
 21
327.57648943455428
 31
0.0
  0
LINE
  5
F4
  8
1
 62
     7
 10
-131.36935148704521
 20
327.57648943455428
 30
0.0
 11
-131.36935148704521
 21
327.1373692929298
 31
0.0
  0
LINE
  5
F5
  8
1
 62
     7
 10
-130.11935148704501
 20
326.83736929292968
 30
0.0
 11
-138.11935148704521
 21
326.83736929292968
 31
0.0
  0
LINE
  5
F6
  8
1
  6
DASHDOT
 62
     3
 10
-133.11935148704501
 20
275.19197267687389
 30
0.0
 11
-133.11935148704501
 21
262.19810044236192
 31
0.0
  0
LINE
  5
F7
  8
1
  6
DASHDOT
 62
     3
 10
-126.622415369789
 20
268.69503655961802
 30
0.0
 11
-139.61628760430099
 21
268.69503655961802
 31
0.0
  0
LINE
  5
F8
  8
1
 62
     7
 10
-128.11935148704501
 20
334.69503655961802
 30
0.0
 11
-128.11935148704501
 21
302.69503655961802
 31
0.0
  0
LINE
  5
F9
  8
1
 62
     7
 10
-129.11935148704501
 20
335.69503655961802
 30
0.0
 11
-177.1193514870449
 21
335.69503655961802
 31
0.0
  0
LINE
  5
FA
  8
1
 62
     7
 10
-177.1193514870449
 20
263.69503655961802
 30
0.0
 11
-129.11935148704501
 21
263.69503655961802
 31
0.0
  0
LINE
  5
FB
  8
1
 62
     7
 10
-176.1193514870449
 20
326.69503655961802
 30
0.0
 11
-130.11935148704501
 21
326.69503655961802
 31
0.0
  0
LINE
  5
FC
  8
1
 62
     7
 10
-130.11935148704501
 20
272.6950365596179
 30
0.0
 11
-176.1193514870449
 21
272.69503655961802
 31
0.0
  0
LINE
  5
FD
  8
1
 62
     7
 10
-123.11935148704499
 20
281.4111492473051
 30
0.0
 11
-122.41935148704501
 21
281.81529443573783
 31
0.0
  0
LINE
  5
FE
  8
1
 62
     7
 10
-123.11935148704499
 20
282.2194396241706
 30
0.0
 11
-122.41935148704501
 21
282.62358481260333
 31
0.0
  0
LINE
  5
FF
  8
1
 62
     7
 10
-123.11935148704499
 20
284.96736702995412
 30
0.0
 11
-122.41935148704501
 21
284.96736702995412
 31
0.0
  0
LINE
  5
100
  8
1
 62
     7
 10
-122.41935148704501
 20
284.96736702995412
 30
0.0
 11
-122.41935148704501
 21
279.06736702995431
 31
0.0
  0
LINE
  5
101
  8
1
 62
     7
 10
-122.41935148704501
 20
279.06736702995431
 30
0.0
 11
-123.11935148704499
 21
279.06736702995431
 31
0.0
  0
LINE
  5
102
  8
1
 62
     7
 10
-119.61935148704499
 20
284.76736702995419
 30
0.0
 11
-119.61935148704499
 21
279.26736702995407
 31
0.0
  0
LINE
  5
103
  8
1
 62
     7
 10
-119.61935148704499
 20
279.26736702995407
 30
0.0
 11
-122.41935148704501
 21
279.26736702995407
 31
0.0
  0
LINE
  5
104
  8
1
 62
     7
 10
-119.41935148704501
 20
279.61377719146799
 30
0.0
 11
-119.61935148704499
 21
279.26736702995407
 31
0.0
  0
LINE
  5
105
  8
1
 62
     7
 10
-119.41935148704501
 20
284.42095686844033
 30
0.0
 11
-119.41935148704501
 21
279.61377719146799
 31
0.0
  0
LINE
  5
106
  8
1
 62
     7
 10
-119.61935148704499
 20
284.76736702995419
 30
0.0
 11
-119.41935148704501
 21
284.42095686844033
 31
0.0
  0
LINE
  5
107
  8
1
 62
     7
 10
-122.41935148704501
 20
284.76736702995419
 30
0.0
 11
-119.61935148704499
 21
284.76736702995419
 31
0.0
  0
LINE
  5
108
  8
1
 62
     7
 10
-130.11935148704501
 20
273.69503655961779
 30
0.0
 11
-129.11935148704501
 21
273.69503655961779
 31
0.0
  0
LINE
  5
109
  8
1
 62
     7
 10
-127.11935148704499
 20
275.69503655961779
 30
0.0
 11
-124.11935148704499
 21
275.69503655961779
 31
0.0
  0
LINE
  5
10A
  8
1
 62
     7
 10
-119.99531675245581
 20
288.0855409014415
 30
0.0
 11
-122.2433862216341
 21
287.80453221779408
 31
0.0
  0
LINE
  5
10B
  8
1
 62
     7
 10
-138.11935148704521
 20
272.55270382630619
 30
0.0
 11
-138.11935148704521
 21
272.6950365596179
 31
0.0
  0
LINE
  5
10C
  8
1
 62
     7
 10
-136.86935148704521
 20
271.81358368468159
 30
0.0
 11
-136.86935148704501
 21
272.25270382630612
 31
0.0
  0
LINE
  5
10D
  8
1
 62
     7
 10
-131.36935148704521
 20
272.25270382630612
 30
0.0
 11
-131.36935148704521
 21
271.81358368468159
 31
0.0
  0
LINE
  5
10E
  8
1
 62
     7
 10
-138.11935148704521
 20
272.55270382630619
 30
0.0
 11
-130.11935148704501
 21
272.55270382630619
 31
0.0
  0
LINE
  5
10F
  8
1
 62
     7
 10
-119.11935148704499
 20
310.31225434108057
 30
0.0
 11
-119.11935148704499
 21
289.07781877815512
 31
0.0
  0
LINE
  5
110
  8
1
 62
     7
 10
-123.11935148704499
 20
322.69503655961802
 30
0.0
 11
-123.11935148704499
 21
276.6950365596179
 31
0.0
  0
LINE
  5
111
  8
1
 62
     7
 10
-125.61935148704499
 20
323.69503655961802
 30
0.0
 11
-125.61935148704499
 21
275.69503655961779
 31
0.0
  0
LINE
  5
112
  8
1
 62
     7
 10
-130.11935148704501
 20
326.83736929292968
 30
0.0
 11
-130.11935148704501
 21
303.69503655961768
 31
0.0
  0
LINE
  5
113
  8
1
 62
     7
 10
-123.11935148704499
 20
195.11909729580361
 30
0.0
 11
-122.41935148704501
 21
195.52324248423631
 31
0.0
  0
LINE
  5
114
  8
1
 62
     7
 10
-123.11935148704499
 20
195.92738767266911
 30
0.0
 11
-122.41935148704501
 21
196.33153286110181
 31
0.0
  0
LINE
  5
115
  8
1
 62
     7
 10
-122.41935148704501
 20
192.77531507845259
 30
0.0
 11
-123.11935148704499
 21
192.77531507845259
 31
0.0
  0
LINE
  5
116
  8
1
 62
     7
 10
-122.41935148704501
 20
198.6753150784526
 30
0.0
 11
-122.41935148704501
 21
192.77531507845259
 31
0.0
  0
LINE
  5
117
  8
1
 62
     7
 10
-123.11935148704499
 20
198.6753150784526
 30
0.0
 11
-122.41935148704501
 21
198.6753150784526
 31
0.0
  0
LINE
  5
118
  8
1
 62
     7
 10
-119.61935148704499
 20
198.4753150784527
 30
0.0
 11
-119.61935148704499
 21
192.97531507845261
 31
0.0
  0
LINE
  5
119
  8
1
 62
     7
 10
-122.41935148704501
 20
198.4753150784527
 30
0.0
 11
-119.61935148704499
 21
198.4753150784527
 31
0.0
  0
LINE
  5
11A
  8
1
 62
     7
 10
-119.61935148704499
 20
198.4753150784527
 30
0.0
 11
-119.41935148704501
 21
198.12890491693889
 31
0.0
  0
LINE
  5
11B
  8
1
 62
     7
 10
-119.41935148704501
 20
198.12890491693889
 30
0.0
 11
-119.41935148704501
 21
193.32172523996641
 31
0.0
  0
LINE
  5
11C
  8
1
 62
     7
 10
-119.41935148704501
 20
193.32172523996641
 30
0.0
 11
-119.61935148704499
 21
192.97531507845261
 31
0.0
  0
LINE
  5
11D
  8
1
 62
     7
 10
-119.61935148704499
 20
192.97531507845261
 30
0.0
 11
-122.41935148704501
 21
192.97531507845261
 31
0.0
  0
LINE
  5
11E
  8
1
 62
     7
 10
-123.11935148704499
 20
159.76375823647609
 30
0.0
 11
-122.41935148704501
 21
160.16790342490879
 31
0.0
  0
LINE
  5
11F
  8
1
 62
     7
 10
-123.11935148704499
 20
160.57204861334171
 30
0.0
 11
-122.41935148704501
 21
160.9761938017744
 31
0.0
  0
LINE
  5
120
  8
1
 62
     7
 10
-122.41935148704501
 20
157.4199760191253
 30
0.0
 11
-123.11935148704499
 21
157.4199760191253
 31
0.0
  0
LINE
  5
121
  8
1
 62
     7
 10
-122.41935148704501
 20
163.31997601912531
 30
0.0
 11
-122.41935148704501
 21
157.4199760191253
 31
0.0
  0
LINE
  5
122
  8
1
 62
     7
 10
-123.11935148704499
 20
163.31997601912531
 30
0.0
 11
-122.41935148704501
 21
163.31997601912531
 31
0.0
  0
LINE
  5
123
  8
1
 62
     7
 10
-119.61935148704499
 20
163.11997601912529
 30
0.0
 11
-119.61935148704499
 21
157.61997601912529
 31
0.0
  0
LINE
  5
124
  8
1
 62
     7
 10
-122.41935148704501
 20
163.11997601912529
 30
0.0
 11
-119.61935148704499
 21
163.11997601912529
 31
0.0
  0
LINE
  5
125
  8
1
 62
     7
 10
-119.61935148704499
 20
163.11997601912529
 30
0.0
 11
-119.41935148704501
 21
162.77356585761149
 31
0.0
  0
LINE
  5
126
  8
1
 62
     7
 10
-119.41935148704501
 20
162.77356585761149
 30
0.0
 11
-119.41935148704501
 21
157.96638618063901
 31
0.0
  0
LINE
  5
127
  8
1
 62
     7
 10
-119.41935148704501
 20
157.96638618063901
 30
0.0
 11
-119.61935148704499
 21
157.61997601912529
 31
0.0
  0
LINE
  5
128
  8
1
 62
     7
 10
-119.61935148704499
 20
157.61997601912529
 30
0.0
 11
-122.41935148704501
 21
157.61997601912529
 31
0.0
  0
LINE
  5
129
  8
1
 62
     7
 10
-133.85685148704499
 20
172.79764554878889
 30
0.0
 11
-134.381851487045
 21
172.79764554878889
 31
0.0
  0
LINE
  5
12A
  8
1
 62
     7
 10
-135.86935148704501
 20
171.31014554878891
 30
0.0
 11
-135.86935148704501
 21
170.78514554878879
 31
0.0
  0
LINE
  5
12B
  8
1
 62
     7
 10
-134.381851487045
 20
169.29764554878889
 30
0.0
 11
-133.85685148704499
 21
169.29764554878889
 31
0.0
  0
LINE
  5
12C
  8
1
 62
     7
 10
-132.36935148704501
 20
170.78514554878879
 30
0.0
 11
-132.36935148704501
 21
171.31014554878891
 31
0.0
  0
LINE
  5
12D
  8
1
 62
     7
 10
-136.7651027981095
 20
168.04764554878901
 30
0.0
 11
-169.47360017598041
 21
168.04764554878901
 31
0.0
  0
LINE
  5
12E
  8
1
 62
     7
 10
-151.11935148704501
 20
168.04764554878901
 30
0.0
 11
-151.11935148704501
 21
152.54764554878901
 31
0.0
  0
LINE
  5
12F
  8
1
 62
     7
 10
-130.11935148704501
 20
168.04764554878901
 30
0.0
 11
-131.47360017598021
 21
168.04764554878901
 31
0.0
  0
LINE
  5
130
  8
1
 62
     7
 10
-130.11935148704501
 20
205.04764554878889
 30
0.0
 11
-130.11935148704501
 21
168.04764554878901
 31
0.0
  0
LINE
  5
131
  8
1
 62
     7
 10
-127.6193514870449
 20
205.04764554878889
 30
0.0
 11
-178.61935148704509
 21
205.04764554878889
 31
0.0
  0
LINE
  5
132
  8
1
 62
     7
 10
1.470280380154086
 20
196.4470029149397
 30
0.0
 11
0.2202803801540867
 21
197.16869075142679
 31
0.0
  0
LINE
  5
133
  8
1
 62
     7
 10
0.2202803801540867
 20
197.16869075142679
 30
0.0
 11
-1.029719619845912
 21
196.4470029149397
 31
0.0
  0
LINE
  5
134
  8
1
 62
     7
 10
-1.029719619845912
 20
196.4470029149397
 30
0.0
 11
-1.029719619845912
 21
195.00362724196569
 31
0.0
  0
LINE
  5
135
  8
1
 62
     7
 10
-1.029719619845912
 20
195.00362724196569
 30
0.0
 11
0.2202803801540867
 21
194.2819394054786
 31
0.0
  0
LINE
  5
136
  8
1
 62
     7
 10
0.2202803801540867
 20
194.2819394054786
 30
0.0
 11
1.470280380154086
 21
195.00362724196569
 31
0.0
  0
LINE
  5
137
  8
1
 62
     7
 10
1.470280380154086
 20
195.00362724196569
 30
0.0
 11
1.470280380154086
 21
196.4470029149397
 31
0.0
  0
LINE
  5
138
  8
1
 62
     7
 10
0.2202803801540867
 20
158.92660034615119
 30
0.0
 11
1.470280380154086
 21
159.64828818263831
 31
0.0
  0
LINE
  5
139
  8
1
 62
     7
 10
-1.029719619845912
 20
159.64828818263831
 30
0.0
 11
0.2202803801540867
 21
158.92660034615119
 31
0.0
  0
LINE
  5
13A
  8
1
 62
     7
 10
-1.029719619845912
 20
161.09166385561241
 30
0.0
 11
-1.029719619845912
 21
159.64828818263831
 31
0.0
  0
LINE
  5
13B
  8
1
 62
     7
 10
0.2202803801540867
 20
161.8133516920993
 30
0.0
 11
-1.029719619845912
 21
161.09166385561241
 31
0.0
  0
LINE
  5
13C
  8
1
 62
     7
 10
1.470280380154086
 20
161.09166385561241
 30
0.0
 11
0.2202803801540867
 21
161.8133516920993
 31
0.0
  0
LINE
  5
13D
  8
1
 62
     7
 10
1.470280380154086
 20
159.64828818263831
 30
0.0
 11
1.470280380154086
 21
161.09166385561241
 31
0.0
  0
LINE
  5
13E
  8
1
 62
     7
 10
-35.135058679173277
 20
197.16869075142679
 30
0.0
 11
-36.385058679173277
 21
196.4470029149397
 31
0.0
  0
LINE
  5
13F
  8
1
 62
     7
 10
-33.885058679173277
 20
196.4470029149397
 30
0.0
 11
-35.135058679173277
 21
197.16869075142679
 31
0.0
  0
LINE
  5
140
  8
1
 62
     7
 10
-33.885058679173277
 20
195.00362724196569
 30
0.0
 11
-33.885058679173277
 21
196.4470029149397
 31
0.0
  0
LINE
  5
141
  8
1
 62
     7
 10
-35.135058679173277
 20
194.2819394054786
 30
0.0
 11
-33.885058679173277
 21
195.00362724196569
 31
0.0
  0
LINE
  5
142
  8
1
 62
     7
 10
-36.385058679173277
 20
195.00362724196569
 30
0.0
 11
-35.135058679173277
 21
194.2819394054786
 31
0.0
  0
LINE
  5
143
  8
1
 62
     7
 10
-36.385058679173277
 20
196.4470029149397
 30
0.0
 11
-36.385058679173277
 21
195.00362724196569
 31
0.0
  0
LINE
  5
144
  8
1
 62
     7
 10
-36.385058679173277
 20
159.64828818263831
 30
0.0
 11
-35.135058679173277
 21
158.92660034615119
 31
0.0
  0
LINE
  5
145
  8
1
 62
     7
 10
-35.135058679173277
 20
158.92660034615119
 30
0.0
 11
-33.885058679173277
 21
159.64828818263831
 31
0.0
  0
LINE
  5
146
  8
1
 62
     7
 10
-33.885058679173277
 20
159.64828818263831
 30
0.0
 11
-33.885058679173277
 21
161.09166385561241
 31
0.0
  0
LINE
  5
147
  8
1
 62
     7
 10
-33.885058679173277
 20
161.09166385561241
 30
0.0
 11
-35.135058679173277
 21
161.8133516920993
 31
0.0
  0
LINE
  5
148
  8
1
 62
     7
 10
-35.135058679173277
 20
161.8133516920993
 30
0.0
 11
-36.385058679173277
 21
161.09166385561241
 31
0.0
  0
LINE
  5
149
  8
1
 62
     7
 10
-36.385058679173277
 20
161.09166385561241
 30
0.0
 11
-36.385058679173277
 21
159.64828818263831
 31
0.0
  0
LINE
  5
14A
  8
1
 62
     7
 10
-127.319351487045
 20
146.54764554878901
 30
0.0
 11
-128.11935148704501
 21
146.54764554878901
 31
0.0
  0
LINE
  5
14B
  8
1
 62
     7
 10
-127.319351487045
 20
151.54764554878901
 30
0.0
 11
-127.319351487045
 21
146.54764554878901
 31
0.0
  0
LINE
  5
14C
  8
1
 62
     7
 10
-128.11935148704501
 20
151.54764554878901
 30
0.0
 11
-127.319351487045
 21
151.54764554878901
 31
0.0
  0
LINE
  5
14D
  8
1
 62
     7
 10
-155.11935148704501
 20
152.54764554878901
 30
0.0
 11
-155.11935148704501
 21
168.04764554878901
 31
0.0
  0
LINE
  5
14E
  8
1
 62
     7
 10
-125.61935148704499
 20
154.04764554878901
 30
0.0
 11
-125.61935148704499
 21
202.04764554878901
 31
0.0
  0
LINE
  5
14F
  8
1
 62
     7
 10
-127.11935148704499
 20
154.04764554878901
 30
0.0
 11
-124.11935148704499
 21
154.04764554878901
 31
0.0
  0
LINE
  5
150
  8
1
 62
     7
 10
-130.11935148704501
 20
204.04764554878901
 30
0.0
 11
-127.6193514870449
 21
204.04764554878901
 31
0.0
  0
LINE
  5
151
  8
1
 62
     7
 10
-128.11935148704501
 20
142.54764554878889
 30
0.0
 11
-128.11935148704501
 21
204.04764554878901
 31
0.0
  0
LINE
  5
152
  8
1
 62
     7
 10
-177.1193514870449
 20
149.54764554878901
 30
0.0
 11
-129.11935148704501
 21
149.54764554878901
 31
0.0
  0
LINE
  5
153
  8
1
 62
     7
 10
-178.1193514870449
 20
142.54764554878889
 30
0.0
 11
-128.11935148704501
 21
142.54764554878889
 31
0.0
  0
LINE
  5
154
  8
1
 62
     7
 10
-53.348738360733464
 20
149.0009628589039
 30
0.0
 11
-44.157627892336123
 21
167.07326868856731
 31
0.0
  0
LINE
  5
155
  8
1
 62
     7
 10
-53.457389149509602
 20
142.54764554878889
 30
0.0
 11
-37.457389149509602
 21
142.54764554878889
 31
0.0
  0
LINE
  5
156
  8
1
 62
     7
 10
2.542610850490397
 20
142.54764554878889
 30
0.0
 11
18.542610850490391
 21
142.54764554878889
 31
0.0
  0
LINE
  5
157
  8
1
 62
     7
 10
-36.457389149509602
 20
143.54764554878901
 30
0.0
 11
1.5426108504903979
 21
143.54764554878901
 31
0.0
  0
LINE
  5
158
  8
1
 62
     7
 10
-53.457389149509602
 20
148.54764554878901
 30
0.0
 11
-53.457389149509602
 21
142.54764554878889
 31
0.0
  0
LINE
  5
159
  8
1
 62
     7
 10
18.542610850490391
 20
148.54764554878901
 30
0.0
 11
18.542610850490391
 21
142.54764554878889
 31
0.0
  0
LINE
  5
15A
  8
1
 62
     7
 10
-52.457389149509602
 20
149.54764554878901
 30
0.0
 11
-41.495076289822741
 21
149.54764554878901
 31
0.0
  0
LINE
  5
15B
  8
1
 62
     7
 10
6.5802979908035324
 20
149.54764554878901
 30
0.0
 11
17.542610850490401
 21
149.54764554878901
 31
0.0
  0
LINE
  5
15C
  8
1
 62
     7
 10
-124.11935148704499
 20
202.04764554878901
 30
0.0
 11
-127.11935148704499
 21
202.04764554878901
 31
0.0
  0
LINE
  5
15D
  8
1
 62
     7
 10
-119.99531675245581
 20
166.43814989061261
 30
0.0
 11
-122.2433862216341
 21
166.15714120696529
 31
0.0
  0
LINE
  5
15E
  8
1
 62
     7
 10
-123.11935148704499
 20
155.04764554878889
 30
0.0
 11
-123.11935148704499
 21
201.04764554878889
 31
0.0
  0
LINE
  5
15F
  8
1
 62
     7
 10
-119.11935148704499
 20
167.43042776732631
 30
0.0
 11
-119.11935148704499
 21
188.66486333025171
 31
0.0
  0
LINE
  5
160
  8
1
 62
     7
 10
-122.2433862216341
 20
189.93814989061269
 30
0.0
 11
-119.99531675245581
 21
189.65714120696521
 31
0.0
  0
LINE
  5
161
  8
1
 62
     7
 10
-18.45738914950962
 20
180.14764554878889
 30
0.0
 11
-18.45738914950962
 21
181.9476455487889
 31
0.0
  0
LINE
  5
162
  8
1
 62
     7
 10
-18.45738914950962
 20
181.9476455487889
 30
0.0
 11
-16.45738914950968
 21
181.9476455487889
 31
0.0
  0
LINE
  5
163
  8
1
 62
     7
 10
-16.45738914950968
 20
181.9476455487889
 30
0.0
 11
-16.45738914950968
 21
180.14764554878889
 31
0.0
  0
LINE
  5
164
  8
1
 62
     7
 10
-16.45738914950968
 20
180.14764554878889
 30
0.0
 11
-18.45738914950962
 21
180.14764554878889
 31
0.0
  0
LINE
  5
165
  8
1
  6
DASHDOT
 62
     3
 10
-15.866780904091931
 20
178.04764554878889
 30
0.0
 11
-19.0479973949273
 21
178.04764554878889
 31
0.0
  0
LINE
  5
166
  8
1
  6
DASHDOT
 62
     3
 10
-17.45738914950963
 20
179.63825379420669
 30
0.0
 11
-17.45738914950963
 21
176.45703730337129
 31
0.0
  0
LINE
  5
167
  8
1
 62
     7
 10
-15.057389149509641
 20
174.45305490840681
 30
0.0
 11
-15.057389149509641
 21
173.3626832374691
 31
0.0
  0
LINE
  5
168
  8
1
 62
     7
 10
-17.157389149509669
 20
172.46268323746901
 30
0.0
 11
-15.95738914950968
 21
172.46268323746901
 31
0.0
  0
LINE
  5
169
  8
1
 62
     7
 10
-17.157389149509669
 20
172.46268323746901
 30
0.0
 11
-17.157389149509669
 21
173.2626832374691
 31
0.0
  0
LINE
  5
16A
  8
1
 62
     7
 10
-17.157389149509669
 20
173.2626832374691
 30
0.0
 11
-16.407389149509669
 21
173.2626832374691
 31
0.0
  0
LINE
  5
16B
  8
1
 62
     7
 10
-16.407389149509669
 20
174.3626832374691
 30
0.0
 11
-17.157389149509669
 21
174.3626832374691
 31
0.0
  0
LINE
  5
16C
  8
1
 62
     7
 10
-17.157389149509669
 20
174.3626832374691
 30
0.0
 11
-17.157389149509669
 21
175.062683237469
 31
0.0
  0
LINE
  5
16D
  8
1
 62
     7
 10
-17.757389149509649
 20
175.062683237469
 30
0.0
 11
-17.757389149509649
 21
174.3626832374691
 31
0.0
  0
LINE
  5
16E
  8
1
 62
     7
 10
-17.757389149509649
 20
174.3626832374691
 30
0.0
 11
-18.507389149509638
 21
174.3626832374691
 31
0.0
  0
LINE
  5
16F
  8
1
 62
     7
 10
-18.507389149509638
 20
173.2626832374691
 30
0.0
 11
-17.757389149509649
 21
173.2626832374691
 31
0.0
  0
LINE
  5
170
  8
1
 62
     7
 10
-17.757389149509649
 20
173.2626832374691
 30
0.0
 11
-17.757389149509649
 21
172.46268323746901
 31
0.0
  0
LINE
  5
171
  8
1
 62
     7
 10
-18.95738914950962
 20
172.46268323746901
 30
0.0
 11
-17.757389149509649
 21
172.46268323746901
 31
0.0
  0
LINE
  5
172
  8
1
 62
     7
 10
-19.857389149509661
 20
173.3626832374691
 30
0.0
 11
-19.857389149509661
 21
174.45305490840681
 31
0.0
  0
LINE
  5
173
  8
1
 62
     7
 10
-43.743012744848073
 20
167.88851857298329
 30
0.0
 11
-43.659266873271648
 21
168.05318648860731
 31
0.0
  0
LINE
  5
174
  8
1
 62
     7
 10
-45.001412474022381
 20
174.862844175596
 30
0.0
 11
-44.50432033797923
 21
174.9166903294421
 31
0.0
  0
LINE
  5
175
  8
1
 62
     7
 10
-45.601618709392312
 20
173.54051628177459
 30
0.0
 11
-45.165052371032957
 21
173.5878061431803
 31
0.0
  0
LINE
  5
176
  8
1
 62
     7
 10
-44.572744678725293
 20
168.11979264670541
 30
0.0
 11
-45.009311017084713
 21
168.07250278529969
 31
0.0
  0
LINE
  5
177
  8
1
 62
     7
 10
-44.50432033797923
 20
174.9166903294421
 30
0.0
 11
-43.6427818764408
 21
166.9632161527511
 31
0.0
  0
LINE
  5
178
  8
1
 62
     7
 10
-45.001412474022381
 20
174.862844175596
 30
0.0
 11
-44.139874012483979
 21
166.90936999890491
 31
0.0
  0
LINE
  5
179
  8
1
 62
     7
 10
-44.139874012483979
 20
166.90936999890491
 30
0.0
 11
-43.6427818764408
 21
166.9632161527511
 31
0.0
  0
LINE
  5
17A
  8
1
 62
     7
 10
-43.695414870709953
 20
168.04764554878901
 30
0.0
 11
-42.706959935540247
 21
168.19916070030411
 31
0.0
  0
LINE
  5
17B
  8
1
 62
     7
 10
8.7444885742524736
 20
168.05318648860731
 30
0.0
 11
8.8282344458288762
 21
167.88851857298329
 31
0.0
  0
LINE
  5
17C
  8
1
 62
     7
 10
9.5895420389600563
 20
174.9166903294421
 30
0.0
 11
10.086634175003191
 21
174.862844175596
 31
0.0
  0
LINE
  5
17D
  8
1
 62
     7
 10
10.25027407201376
 20
173.5878061431803
 30
0.0
 11
10.68684041037311
 21
173.54051628177459
 31
0.0
  0
LINE
  5
17E
  8
1
 62
     7
 10
10.09453271806551
 20
168.07250278529969
 30
0.0
 11
9.6579663797061031
 21
168.11979264670541
 31
0.0
  0
LINE
  5
17F
  8
1
 62
     7
 10
8.728003577421612
 20
166.9632161527511
 30
0.0
 11
9.5895420389600563
 21
174.9166903294421
 31
0.0
  0
LINE
  5
180
  8
1
 62
     7
 10
9.2250957134648051
 20
166.90936999890491
 30
0.0
 11
10.086634175003191
 21
174.862844175596
 31
0.0
  0
LINE
  5
181
  8
1
 62
     7
 10
8.728003577421612
 20
166.9632161527511
 30
0.0
 11
9.2250957134648051
 21
166.90936999890491
 31
0.0
  0
LINE
  5
182
  8
1
 62
     7
 10
7.7921816365210717
 20
168.19916070030411
 30
0.0
 11
8.7806365716907724
 21
168.04764554878901
 31
0.0
  0
LINE
  5
183
  8
1
 62
     7
 10
9.2428495933169206
 20
167.07326868856731
 30
0.0
 11
18.43396006171427
 21
149.0009628589039
 31
0.0
  0
LINE
  5
184
  8
1
 62
     7
 10
-127.11935148704499
 20
296.69503655961802
 30
0.0
 11
-127.11935148704499
 21
302.69503655961802
 31
0.0
  0
LINE
  5
185
  8
1
 62
     7
 10
-130.11935148704501
 20
295.69503655961807
 30
0.0
 11
-130.11935148704501
 21
272.55270382630619
 31
0.0
  0
LINE
  5
186
  8
1
 62
     7
 10
-179.1193514870449
 20
296.69503655961802
 30
0.0
 11
-179.1193514870449
 21
302.69503655961802
 31
0.0
  0
LINE
  5
187
  8
1
 62
     7
 10
-176.1193514870449
 20
303.69503655961768
 30
0.0
 11
-176.1193514870449
 21
326.83736929292968
 31
0.0
  0
LINE
  5
188
  8
1
  6
DASHDOT
 62
     3
 10
-139.61628760430099
 20
330.69503655961802
 30
0.0
 11
-126.622415369789
 21
330.69503655961802
 31
0.0
  0
LINE
  5
189
  8
1
  6
DASHDOT
 62
     3
 10
-133.11935148704501
 20
324.19810044236181
 30
0.0
 11
-133.11935148704501
 21
337.19197267687412
 31
0.0
  0
ARC
  5
18A
  8
1
 62
     7
 10
-158.1193514870449
 20
332.69503655961807
 30
0.0
 40
3.0
 50
0.0
 51
90.0
  0
ARC
  5
18B
  8
1
 62
     7
 10
-148.11935148704501
 20
332.69503655961807
 30
0.0
 40
3.0
 50
90.0
 51
180.0
  0
ARC
  5
18C
  8
1
 62
     7
 10
-158.1193514870449
 20
266.69503655961802
 30
0.0
 40
3.0
 50
270.0
 51
0.0
  0
ARC
  5
18D
  8
1
 62
     7
 10
-148.11935148704501
 20
266.69503655961802
 30
0.0
 40
3.0
 50
180.0
 51
270.0
  0
ARC
  5
18E
  8
1
 62
     7
 10
-190.1193514870449
 20
299.69503655961802
 30
0.0
 40
1.0
 50
270.0
 51
90.0
  0
ARC
  5
18F
  8
1
 62
     7
 10
-175.11935148704509
 20
300.89503655961801
 30
0.0
 40
1.2000000000000171
 50
0.0
 51
180.0
  0
ARC
  5
190
  8
1
 62
     7
 10
-175.11935148704509
 20
298.49503655961797
 30
0.0
 40
1.1999999999999891
 50
180.0
 51
0.0
  0
ARC
  5
191
  8
1
 62
     7
 10
-175.6193514870449
 20
299.69503655961802
 30
0.0
 40
3.9999999999999432
 50
270.0
 51
90.0
  0
ARC
  5
192
  8
1
 62
     7
 10
-173.1193514870449
 20
327.69503655961807
 30
0.0
 40
5.4999999999999751
 50
204.61997732865649
 51
207.3970255792112
  0
ARC
  5
193
  8
1
 62
     7
 10
-179.1193514870449
 20
324.69503655961807
 30
0.0
 40
1.0
 50
270.0
 51
0.0
  0
ARC
  5
194
  8
1
 62
     7
 10
-184.1193514870449
 20
312.57781877815529
 30
0.0
 40
0.9999999999999468
 50
277.1250163489018
 51
0.0
  0
ARC
  5
195
  8
1
 62
     7
 10
-172.1193514870449
 20
321.83736929292979
 30
0.0
 40
7.0000000000000684
 50
73.042236699994902
 51
106.95776330000329
  0
ARC
  5
196
  8
1
 62
     7
 10
-173.1193514870449
 20
271.69503655961802
 30
0.0
 40
5.500000000000016
 50
152.60297442078831
 51
155.38002267134351
  0
ARC
  5
197
  8
1
 62
     7
 10
-179.1193514870449
 20
274.6950365596179
 30
0.0
 40
1.0
 50
0.0
 51
90.0
  0
ARC
  5
198
  8
1
 62
     7
 10
-184.1193514870449
 20
286.81225434108057
 30
0.0
 40
1.0
 50
0.0
 51
82.874983651098191
  0
ARC
  5
199
  8
1
 62
     7
 10
-172.1193514870449
 20
277.55270382630607
 30
0.0
 40
7.0000000000000071
 50
253.04223669999629
 51
286.95776330000513
  0
ARC
  5
19A
  8
1
 62
     7
 10
-173.8693514870449
 20
172.79764554878889
 30
0.0
 40
1.4874999999999821
 50
270.0
 51
0.0
  0
ARC
  5
19B
  8
1
 62
     7
 10
-170.36935148704501
 20
172.79764554878889
 30
0.0
 40
1.4874999999999821
 50
180.0
 51
270.0
  0
ARC
  5
19C
  8
1
 62
     7
 10
-170.36935148704501
 20
169.29764554878889
 30
0.0
 40
1.48750000000001
 50
90.0
 51
180.0
  0
ARC
  5
19D
  8
1
 62
     7
 10
-173.8693514870449
 20
169.29764554878889
 30
0.0
 40
1.48750000000001
 50
0.0
 51
90.0
  0
ARC
  5
19E
  8
1
 62
     7
 10
-179.1193514870449
 20
153.04764554878901
 30
0.0
 40
1.0
 50
0.0
 51
90.0
  0
ARC
  5
19F
  8
1
 62
     7
 10
-179.1193514870449
 20
203.04764554878889
 30
0.0
 40
1.0
 50
270.0
 51
0.0
  0
ARC
  5
1A0
  8
1
 62
     7
 10
-184.1193514870449
 20
190.93042776732631
 30
0.0
 40
0.9999999999999468
 50
277.1250163489018
 51
0.0
  0
ARC
  5
1A1
  8
1
 62
     7
 10
-184.1193514870449
 20
165.16486333025171
 30
0.0
 40
1.0
 50
0.0
 51
82.874983651098006
  0
ARC
  5
1A2
  8
1
 62
     7
 10
-116.11935148704499
 20
299.69503655961802
 30
0.0
 40
1.0
 50
90.0
 51
270.0
  0
ARC
  5
1A3
  8
1
 62
     7
 10
-17.457389149509591
 20
139.04764554878901
 30
0.0
 40
65.999999999999929
 50
72.362551309410733
 51
86.960161534269844
  0
ARC
  5
1A4
  8
1
 62
     7
 10
-17.457389149509591
 20
139.04764554878901
 30
0.0
 40
64.999999999999957
 50
72.362551309410733
 51
87.354639658437634
  0
ARC
  5
1A5
  8
1
 62
     7
 10
-131.11935148704481
 20
300.89503655961801
 30
0.0
 40
1.2000000000001021
 50
0.0
 51
180.0
  0
ARC
  5
1A6
  8
1
 62
     7
 10
-131.11935148704481
 20
298.49503655961797
 30
0.0
 40
1.2000000000000171
 50
180.0
 51
0.0
  0
ARC
  5
1A7
  8
1
 62
     7
 10
-130.61935148704501
 20
299.69503655961802
 30
0.0
 40
3.9999999999997722
 50
90.0
 51
270.0
  0
ARC
  5
1A8
  8
1
 62
     7
 10
-133.11935148704561
 20
327.69503655961682
 30
0.0
 40
5.4999999999998961
 50
332.60297442080218
 51
335.38002267135801
  0
ARC
  5
1A9
  8
1
 62
     7
 10
-127.11935148704499
 20
324.69503655961807
 30
0.0
 40
1.0000000000000131
 50
180.0
 51
270.0
  0
ARC
  5
1AA
  8
1
 62
     7
 10
-122.11935148704499
 20
312.57781877815529
 30
0.0
 40
1.0
 50
180.0
 51
262.87498365109809
  0
ARC
  5
1AB
  8
1
 62
     7
 10
-134.11935148704501
 20
321.83736929292979
 30
0.0
 40
6.9999999999999822
 50
73.042236699997105
 51
106.95776330000599
  0
ARC
  5
1AC
  8
1
 62
     7
 10
-133.11935148704501
 20
271.69503655961802
 30
0.0
 40
5.4999999999999751
 50
24.619977328656539
 51
27.397025579212119
  0
ARC
  5
1AD
  8
1
 62
     7
 10
-127.11935148704499
 20
274.6950365596179
 30
0.0
 40
1.0
 50
90.0
 51
180.0
  0
ARC
  5
1AE
  8
1
 62
     7
 10
-122.11935148704499
 20
286.81225434108057
 30
0.0
 40
0.9999999999999468
 50
97.125016348901795
 51
180.0
  0
ARC
  5
1AF
  8
1
 62
     7
 10
-134.11935148704501
 20
277.55270382630607
 30
0.0
 40
7.0000000000000933
 50
253.04223669999419
 51
286.95776330000263
  0
ARC
  5
1B0
  8
1
 62
     7
 10
-132.36935148704501
 20
172.79764554878889
 30
0.0
 40
1.4874999999999821
 50
180.0
 51
270.0
  0
ARC
  5
1B1
  8
1
 62
     7
 10
-135.86935148704501
 20
172.79764554878889
 30
0.0
 40
1.4874999999999821
 50
270.0
 51
0.0
  0
ARC
  5
1B2
  8
1
 62
     7
 10
-135.86935148704501
 20
169.29764554878889
 30
0.0
 40
1.48750000000001
 50
0.0
 51
90.0
  0
ARC
  5
1B3
  8
1
 62
     7
 10
-132.36935148704501
 20
169.29764554878889
 30
0.0
 40
1.48750000000001
 50
90.0
 51
180.0
  0
ARC
  5
1B4
  8
1
 62
     7
 10
-148.11935148704501
 20
152.54764554878901
 30
0.0
 40
3.0
 50
180.0
 51
270.0
  0
ARC
  5
1B5
  8
1
 62
     7
 10
-158.11935148704501
 20
152.54764554878901
 30
0.0
 40
3.0
 50
270.0
 51
0.0
  0
ARC
  5
1B6
  8
1
 62
     7
 10
-127.11935148704499
 20
153.04764554878901
 30
0.0
 40
1.0
 50
90.0
 51
180.0
  0
ARC
  5
1B7
  8
1
 62
     7
 10
-127.11935148704499
 20
203.04764554878889
 30
0.0
 40
1.0000000000000131
 50
180.0
 51
270.0
  0
ARC
  5
1B8
  8
1
 62
     7
 10
-36.457389149509602
 20
142.54764554878889
 30
0.0
 40
1.0
 50
90.0
 51
180.0
  0
ARC
  5
1B9
  8
1
 62
     7
 10
1.5426108504903979
 20
142.54764554878889
 30
0.0
 40
1.0
 50
0.0
 51
90.0
  0
ARC
  5
1BA
  8
1
 62
     7
 10
-41.495076289822741
 20
152.54764554878901
 30
0.0
 40
3.0
 50
270.0
 51
22.024312837042171
  0
ARC
  5
1BB
  8
1
 62
     7
 10
21.542610850490391
 20
178.04764554878889
 30
0.0
 40
65.000000000000043
 50
162.3625513094108
 51
202.02431283704209
  0
ARC
  5
1BC
  8
1
 62
     7
 10
-17.457389149509591
 20
139.04764554878901
 30
0.0
 40
64.999999999999986
 50
92.64536034156238
 51
107.6374486905893
  0
ARC
  5
1BD
  8
1
 62
     7
 10
-56.457389149509602
 20
178.04764554878889
 30
0.0
 40
64.999999999999957
 50
337.9756871629578
 51
17.637448690589231
  0
ARC
  5
1BE
  8
1
 62
     7
 10
6.5802979908035324
 20
152.54764554878901
 30
0.0
 40
3.0000000000000409
 50
157.97568716295629
 51
270.0
  0
ARC
  5
1BF
  8
1
 62
     7
 10
21.542610850490391
 20
178.04764554878889
 30
0.0
 40
62.999999999999993
 50
162.36255130941049
 51
197.6374486905892
  0
ARC
  5
1C0
  8
1
 62
     7
 10
-17.457389149509591
 20
139.04764554878901
 30
0.0
 40
63.0
 50
72.362551309410762
 51
107.6374486905893
  0
ARC
  5
1C1
  8
1
 62
     7
 10
-56.457389149509602
 20
178.04764554878889
 30
0.0
 40
62.999999999999993
 50
342.36255130941078
 51
17.63744869058927
  0
ARC
  5
1C2
  8
1
 62
     7
 10
-17.457389149509591
 20
217.04764554878889
 30
0.0
 40
63.0
 50
252.3625513094108
 51
287.63744869058911
  0
ARC
  5
1C3
  8
1
 62
     7
 10
-122.11935148704499
 20
190.93042776732631
 30
0.0
 40
1.0
 50
180.0
 51
262.87498365109809
  0
ARC
  5
1C4
  8
1
 62
     7
 10
-122.11935148704499
 20
165.16486333025171
 30
0.0
 40
0.9999999999999188
 50
97.125016348901994
 51
180.0
  0
ARC
  5
1C5
  8
1
 62
     7
 10
-17.457389149509591
 20
178.04764554878889
 30
0.0
 40
3.000000000000008
 50
109.4712206344914
 51
70.528779365510303
  0
ARC
  5
1C6
  8
1
 62
     7
 10
-17.457389149509591
 20
178.04764554878889
 30
0.0
 40
2.499999999999988
 50
113.5781784782029
 51
66.421821521801249
  0
ARC
  5
1C7
  8
1
 62
     7
 10
-17.45738914950963
 20
178.14764554878889
 30
0.0
 40
3.900000000000031
 50
315.80579627707192
 51
75.142834455077107
  0
ARC
  5
1C8
  8
1
 62
     7
 10
-17.45738914950963
 20
178.14764554878889
 30
0.0
 40
3.9000000000000008
 50
76.997175533201116
 51
103.00282446679959
  0
ARC
  5
1C9
  8
1
 62
     7
 10
-16.407389149509669
 20
173.81268323746909
 30
0.0
 40
0.549999999999983
 50
270.0
 51
90.0
  0
ARC
  5
1CA
  8
1
 62
     7
 10
-18.507389149509638
 20
173.81268323746909
 30
0.0
 40
0.5500000000000114
 50
90.0
 51
270.0
  0
ARC
  5
1CB
  8
1
 62
     7
 10
-17.45738914950963
 20
178.14764554878889
 30
0.0
 40
3.900000000000039
 50
104.8571655449236
 51
224.19420372292799
  0
ARC
  5
1CC
  8
1
 62
     7
 10
0.7221809117318047
 20
196.22721561003041
 30
0.0
 40
6.0000000000000018
 50
17.637448690589579
 51
72.362551309410691
  0
ARC
  5
1CD
  8
1
 62
     7
 10
-17.457389149509591
 20
139.04764554878901
 30
0.0
 40
65.999999999999957
 50
93.039838465730142
 51
107.6374486905893
  0
ARC
  5
1CE
  8
1
 62
     7
 10
-35.636959210751023
 20
196.22721561003041
 30
0.0
 40
5.9999999999999618
 50
107.63744869058949
 51
162.36255130941021
  0
ARC
  5
1CF
  8
1
 62
     7
 10
-39.599721882821342
 20
171.4245686257118
 30
0.0
 40
7.0000000000000346
 50
169.22454093638731
 51
203.14006753639609
  0
ARC
  5
1D0
  8
1
 62
     7
 10
21.542610850490391
 20
178.04764554878889
 30
0.0
 40
65.999999999999972
 50
162.36255130941061
 51
188.7147420186181
  0
ARC
  5
1D1
  8
1
 62
     7
 10
4.6849435838021547
 20
171.4245686257118
 30
0.0
 40
6.9999999999999654
 50
336.85993246360363
 51
10.77545906361278
  0
ARC
  5
1D2
  8
1
 62
     7
 10
-56.457389149509602
 20
178.04764554878889
 30
0.0
 40
66.000000000000014
 50
351.2852579813819
 51
17.637448690589281
  0
ARC
  5
1D3
  8
1
 62
     7
 10
-177.1193514870449
 20
334.69503655961807
 30
0.0
 40
0.9999999999999431
 50
90.0
 51
180.0
  0
ARC
  5
1D4
  8
1
 62
     7
 10
-177.1193514870449
 20
324.69503655961807
 30
0.0
 40
1.0
 50
90.0
 51
180.0
  0
ARC
  5
1D5
  8
1
 62
     7
 10
-182.1193514870449
 20
322.69503655961807
 30
0.0
 40
1.0
 50
90.0
 51
180.0
  0
ARC
  5
1D6
  8
1
 62
     7
 10
-186.11935148704501
 20
310.3122543410808
 30
0.0
 40
0.999999999999834
 50
97.125016348902591
 51
180.0
  0
ARC
  5
1D7
  8
1
 62
     7
 10
-169.069351487045
 20
327.1373692929298
 30
0.0
 40
0.3000000000000114
 50
180.0
 51
270.0
  0
ARC
  5
1D8
  8
1
 62
     7
 10
-170.36935148704501
 20
327.57648943455428
 30
0.0
 40
1.000000000000113
 50
0.0
 51
73.042236699989331
  0
ARC
  5
1D9
  8
1
 62
     7
 10
-173.86935148704481
 20
327.57648943455428
 30
0.0
 40
1.000000000000165
 50
106.9577633000041
 51
180.0
  0
ARC
  5
1DA
  8
1
 62
     7
 10
-175.16935148704491
 20
327.13736929292969
 30
0.0
 40
0.2999999999998977
 50
270.0
 51
0.0
  0
ARC
  5
1DB
  8
1
 62
     7
 10
-177.1193514870449
 20
264.69503655961802
 30
0.0
 40
1.0
 50
180.0
 51
270.0
  0
ARC
  5
1DC
  8
1
 62
     7
 10
-177.1193514870449
 20
274.6950365596179
 30
0.0
 40
1.0
 50
180.0
 51
270.0
  0
ARC
  5
1DD
  8
1
 62
     7
 10
-182.1193514870449
 20
276.6950365596179
 30
0.0
 40
1.0
 50
180.0
 51
270.0
  0
ARC
  5
1DE
  8
1
 62
     7
 10
-186.11935148704501
 20
289.07781877815512
 30
0.0
 40
1.0
 50
180.0
 51
262.87498365109781
  0
ARC
  5
1DF
  8
1
 62
     7
 10
-169.069351487045
 20
272.25270382630612
 30
0.0
 40
0.3000000000000114
 50
90.0
 51
180.0
  0
ARC
  5
1E0
  8
1
 62
     7
 10
-170.36935148704501
 20
271.81358368468159
 30
0.0
 40
1.0000000000000819
 50
286.95776330001058
 51
0.0
  0
ARC
  5
1E1
  8
1
 62
     7
 10
-173.86935148704481
 20
271.81358368468182
 30
0.0
 40
0.9999999999999149
 50
180.0
 51
253.0422366999959
  0
ARC
  5
1E2
  8
1
 62
     7
 10
-175.16935148704491
 20
272.25270382630612
 30
0.0
 40
0.3000000000002103
 50
0.0
 51
90.0
  0
ARC
  5
1E3
  8
1
 62
     7
 10
-177.1193514870449
 20
203.04764554878889
 30
0.0
 40
1.0
 50
90.0
 51
180.0
  0
ARC
  5
1E4
  8
1
 62
     7
 10
-177.1193514870449
 20
148.54764554878901
 30
0.0
 40
1.0
 50
90.0
 51
180.0
  0
ARC
  5
1E5
  8
1
 62
     7
 10
-182.1193514870449
 20
201.04764554878889
 30
0.0
 40
1.0
 50
90.0
 51
180.0
  0
ARC
  5
1E6
  8
1
 62
     7
 10
-182.1193514870449
 20
155.04764554878889
 30
0.0
 40
1.0
 50
180.0
 51
270.0
  0
ARC
  5
1E7
  8
1
 62
     7
 10
-186.11935148704501
 20
167.43042776732631
 30
0.0
 40
1.0
 50
180.0
 51
262.87498365109809
  0
ARC
  5
1E8
  8
1
 62
     7
 10
-186.11935148704501
 20
188.66486333025171
 30
0.0
 40
0.9999999999999188
 50
97.125016348901994
 51
180.0
  0
ARC
  5
1E9
  8
1
 62
     7
 10
-129.11935148704501
 20
334.69503655961807
 30
0.0
 40
1.0
 50
0.0
 51
90.0
  0
ARC
  5
1EA
  8
1
 62
     7
 10
-129.11935148704501
 20
324.69503655961807
 30
0.0
 40
1.0
 50
0.0
 51
90.0
  0
ARC
  5
1EB
  8
1
 62
     7
 10
-124.11935148704499
 20
322.69503655961807
 30
0.0
 40
1.0
 50
0.0
 51
90.0
  0
ARC
  5
1EC
  8
1
 62
     7
 10
-120.11935148704499
 20
310.3122543410808
 30
0.0
 40
1.0
 50
0.0
 51
82.874983651098191
  0
ARC
  5
1ED
  8
1
 62
     7
 10
-137.16935148704491
 20
327.1373692929298
 30
0.0
 40
0.3000000000001251
 50
270.0
 51
0.0
  0
ARC
  5
1EE
  8
1
 62
     7
 10
-135.86935148704501
 20
327.57648943455428
 30
0.0
 40
0.9999999999999975
 50
106.95776330001721
 51
180.0
  0
ARC
  5
1EF
  8
1
 62
     7
 10
-132.36935148704501
 20
327.57648943455428
 30
0.0
 40
0.9999999999998864
 50
0.0
 51
73.042236700000245
  0
ARC
  5
1F0
  8
1
 62
     7
 10
-131.06935148704511
 20
327.13736929292969
 30
0.0
 40
0.3000000000001819
 50
180.0
 51
270.0
  0
ARC
  5
1F1
  8
1
 62
     7
 10
-129.11935148704501
 20
264.69503655961802
 30
0.0
 40
1.0
 50
270.0
 51
0.0
  0
ARC
  5
1F2
  8
1
 62
     7
 10
-129.11935148704501
 20
274.6950365596179
 30
0.0
 40
1.0
 50
270.0
 51
0.0
  0
ARC
  5
1F3
  8
1
 62
     7
 10
-124.11935148704499
 20
276.6950365596179
 30
0.0
 40
1.0
 50
270.0
 51
0.0
  0
ARC
  5
1F4
  8
1
 62
     7
 10
-120.11935148704499
 20
289.07781877815512
 30
0.0
 40
0.9999999999998888
 50
277.1250163489014
 51
0.0
  0
ARC
  5
1F5
  8
1
 62
     7
 10
-137.16935148704491
 20
272.25270382630612
 30
0.0
 40
0.2999999999998977
 50
0.0
 51
90.0
  0
ARC
  5
1F6
  8
1
 62
     7
 10
-135.86935148704501
 20
271.81358368468159
 30
0.0
 40
1.000000000000199
 50
180.0
 51
253.0422366999845
  0
ARC
  5
1F7
  8
1
 62
     7
 10
-132.36935148704501
 20
271.81358368468182
 30
0.0
 40
1.0000000000001861
 50
286.95776329999683
 51
0.0
  0
ARC
  5
1F8
  8
1
 62
     7
 10
-131.06935148704511
 20
272.25270382630612
 30
0.0
 40
0.3000000000000114
 50
90.0
 51
180.0
  0
ARC
  5
1F9
  8
1
 62
     7
 10
-129.11935148704501
 20
203.04764554878889
 30
0.0
 40
1.0
 50
0.0
 51
90.0
  0
ARC
  5
1FA
  8
1
 62
     7
 10
-129.11935148704501
 20
148.54764554878901
 30
0.0
 40
1.0
 50
0.0
 51
90.0
  0
ARC
  5
1FB
  8
1
 62
     7
 10
17.542610850490401
 20
148.54764554878901
 30
0.0
 40
1.0
 50
0.0
 51
90.0
  0
ARC
  5
1FC
  8
1
 62
     7
 10
-52.457389149509602
 20
148.54764554878901
 30
0.0
 40
1.0
 50
90.0
 51
180.0
  0
ARC
  5
1FD
  8
1
 62
     7
 10
0.7221809117318047
 20
196.22721561003041
 30
0.0
 40
2.999999999999996
 50
17.637448690589601
 51
72.362551309410861
  0
ARC
  5
1FE
  8
1
 62
     7
 10
-35.636959210751023
 20
196.22721561003041
 30
0.0
 40
3.0000000000000111
 50
107.63744869058949
 51
162.36255130940791
  0
ARC
  5
1FF
  8
1
 62
     7
 10
-35.636959210751023
 20
159.86807548754749
 30
0.0
 40
2.999999999999976
 50
197.63744869058959
 51
252.3625513094116
  0
ARC
  5
200
  8
1
 62
     7
 10
0.7221809117318081
 20
159.86807548754749
 30
0.0
 40
3.0000000000000169
 50
287.6374486905882
 51
342.36255130941038
  0
ARC
  5
201
  8
1
 62
     7
 10
0.7221809117318047
 20
196.22721561003041
 30
0.0
 40
4.9999999999999778
 50
17.63744869058899
 51
72.362551309410705
  0
ARC
  5
202
  8
1
 62
     7
 10
-35.636959210751023
 20
196.22721561003041
 30
0.0
 40
4.9999999999999796
 50
107.63744869058949
 51
162.36255130941109
  0
ARC
  5
203
  8
1
 62
     7
 10
-124.11935148704499
 20
201.04764554878889
 30
0.0
 40
1.0
 50
0.0
 51
90.0
  0
ARC
  5
204
  8
1
 62
     7
 10
-124.11935148704499
 20
155.04764554878889
 30
0.0
 40
1.0
 50
270.0
 51
0.0
  0
ARC
  5
205
  8
1
 62
     7
 10
-120.11935148704499
 20
167.43042776732631
 30
0.0
 40
0.9999999999999452
 50
277.125016348901
 51
0.0
  0
ARC
  5
206
  8
1
 62
     7
 10
-120.11935148704499
 20
188.66486333025171
 30
0.0
 40
1.0
 50
0.0
 51
82.87498365109883
  0
ARC
  5
207
  8
1
 62
     7
 10
-13.657389149509671
 20
174.45305490840681
 30
0.0
 40
1.3999999999999071
 50
135.8057962770699
 51
180.0
  0
ARC
  5
208
  8
1
 62
     7
 10
-15.95738914950968
 20
173.3626832374691
 30
0.0
 40
0.9000000000000056
 50
270.0
 51
0.0
  0
ARC
  5
209
  8
1
 62
     7
 10
-18.95738914950962
 20
173.3626832374691
 30
0.0
 40
0.9000000000000306
 50
180.0
 51
270.0
  0
ARC
  5
20A
  8
1
 62
     7
 10
-21.257389149509638
 20
174.45305490840681
 30
0.0
 40
1.3999999999999879
 50
0.0
 51
44.19420372292825
  0
ARC
  5
20B
  8
1
 62
     7
 10
-45.197360063340639
 20
173.88606142480609
 30
0.0
 40
0.2999999999999883
 50
276.1823042363946
 51
6.1823042364356384
  0
ARC
  5
20C
  8
1
 62
     7
 10
-45.493926401700051
 20
172.5463320096882
 30
0.0
 40
1.000000000000123
 50
96.182304236390024
 51
169.22454093638021
  0
ARC
  5
20D
  8
1
 62
     7
 10
-45.117003324776967
 20
169.06668705738591
 30
0.0
 40
1.000000000000123
 50
203.14006753639509
 51
276.18230423639079
  0
ARC
  5
20E
  8
1
 62
     7
 10
-44.540436986417639
 20
167.82153736507931
 30
0.0
 40
0.3000000000000907
 50
6.1823042363733558
 51
96.182304236379693
  0
ARC
  5
20F
  8
1
 62
     7
 10
10.282581764321449
 20
173.88606142480609
 30
0.0
 40
0.3000000000000448
 50
173.81769576356561
 51
263.81769576360682
  0
ARC
  5
210
  8
1
 62
     7
 10
10.57914810268085
 20
172.5463320096882
 30
0.0
 40
0.9999999999999623
 50
10.775459063620479
 51
83.817695763609976
  0
ARC
  5
211
  8
1
 62
     7
 10
10.20222502575777
 20
169.06668705738591
 30
0.0
 40
0.999999999999926
 50
263.81769576360881
 51
336.85993246360277
  0
ARC
  5
212
  8
1
 62
     7
 10
9.6256586873984524
 20
167.82153736507931
 30
0.0
 40
0.3000000000001815
 50
83.817695763617621
 51
173.81769576362851
  0
ARC
  5
213
  8
1
 62
     7
 10
-133.11935148704501
 20
330.69503655961802
 30
0.0
 40
2.74999999999996
 50
300.74226122442462
 51
224.41027584230329
  0
ARC
  5
214
  8
1
 62
     7
 10
-173.1193514870449
 20
330.69503655961802
 30
0.0
 40
2.7499999999999512
 50
315.5897241576983
 51
239.25773877557799
  0
ARC
  5
215
  8
1
 62
     7
 10
-133.11935148704501
 20
268.69503655961802
 30
0.0
 40
2.75
 50
180.0
 51
59.257738775579277
  0
ARC
  5
216
  8
1
 62
     7
 10
-133.11935148704501
 20
268.69503655961802
 30
0.0
 40
2.750000000000052
 50
135.58972415769861
 51
180.0
  0
ARC
  5
217
  8
1
 62
     7
 10
-173.1193514870449
 20
268.69503655961802
 30
0.0
 40
2.7500000000000542
 50
120.7422612244255
 51
44.410275842304237
  0
CIRCLE
  5
218
  8
1
 62
     7
 10
-175.11935148704509
 20
298.49503655961797
 30
0.0
 40
0.920000000000016
  0
CIRCLE
  5
219
  8
1
 62
     7
 10
-175.11935148704509
 20
300.89503655961801
 30
0.0
 40
0.920000000000016
  0
CIRCLE
  5
21A
  8
1
 62
     7
 10
-175.11935148704509
 20
299.69503655961802
 30
0.0
 40
3.5
  0
CIRCLE
  5
21B
  8
1
 62
     7
 10
-172.1193514870449
 20
171.04764554878889
 30
0.0
 40
2.75
  0
CIRCLE
  5
21C
  8
1
 62
     7
 10
-172.1193514870449
 20
171.04764554878889
 30
0.0
 40
4.0
  0
CIRCLE
  5
21D
  8
1
 62
     7
 10
-131.11935148704481
 20
298.49503655961797
 30
0.0
 40
0.9199999999999022
  0
CIRCLE
  5
21E
  8
1
 62
     7
 10
-131.11935148704481
 20
300.89503655961801
 30
0.0
 40
0.9199999999999022
  0
CIRCLE
  5
21F
  8
1
 62
     7
 10
-131.11935148704481
 20
299.69503655961802
 30
0.0
 40
3.5
  0
CIRCLE
  5
220
  8
1
 62
     7
 10
-134.11935148704501
 20
171.04764554878889
 30
0.0
 40
2.75
  0
CIRCLE
  5
221
  8
1
 62
     7
 10
-134.11935148704501
 20
171.04764554878889
 30
0.0
 40
4.0
  0
CIRCLE
  5
222
  8
1
 62
     7
 10
-17.457389149509591
 20
178.04764554878889
 30
0.0
 40
9.5
  0
CIRCLE
  5
223
  8
1
 62
     7
 10
0.2202803801540938
 20
195.72531507845261
 30
0.0
 40
2.9499999999999811
  0
CIRCLE
  5
224
  8
1
 62
     7
 10
0.2202803801540938
 20
195.72531507845261
 30
0.0
 40
2.7499999999999929
  0
CIRCLE
  5
225
  8
1
 62
     7
 10
0.2202803801540938
 20
195.72531507845261
 30
0.0
 40
2.40358983848619
  0
CIRCLE
  5
226
  8
1
 62
     7
 10
0.2202803801540867
 20
160.36997601912529
 30
0.0
 40
2.9499999999999882
  0
CIRCLE
  5
227
  8
1
 62
     7
 10
0.2202803801540867
 20
160.36997601912529
 30
0.0
 40
2.75
  0
CIRCLE
  5
228
  8
1
 62
     7
 10
0.2202803801540867
 20
160.36997601912529
 30
0.0
 40
2.403589838486198
  0
CIRCLE
  5
229
  8
1
 62
     7
 10
-35.135058679173277
 20
195.72531507845261
 30
0.0
 40
2.9499999999999948
  0
CIRCLE
  5
22A
  8
1
 62
     7
 10
-35.135058679173277
 20
195.72531507845261
 30
0.0
 40
2.75
  0
CIRCLE
  5
22B
  8
1
 62
     7
 10
-35.135058679173277
 20
195.72531507845261
 30
0.0
 40
2.4035898384861838
  0
CIRCLE
  5
22C
  8
1
 62
     7
 10
-35.135058679173277
 20
160.36997601912529
 30
0.0
 40
2.9499999999999948
  0
CIRCLE
  5
22D
  8
1
 62
     7
 10
-35.135058679173277
 20
160.36997601912529
 30
0.0
 40
2.75
  0
CIRCLE
  5
22E
  8
1
 62
     7
 10
-35.135058679173277
 20
160.36997601912529
 30
0.0
 40
2.4035898384861838
  0
CIRCLE
  5
22F
  8
1
 62
     7
 10
-17.457389149509591
 20
178.04764554878889
 30
0.0
 40
12.0
  0
CIRCLE
  5
230
  8
1
 62
     7
 10
-17.457389149509591
 20
178.04764554878889
 30
0.0
 40
11.5
  0
CIRCLE
  5
231
  8
1
 62
     7
 10
-17.457389149509591
 20
193.04764554878889
 30
0.0
 40
1.9000000000000019
  0
CIRCLE
  5
232
  8
1
 62
     7
 10
-32.457389149509588
 20
178.04764554878889
 30
0.0
 40
1.900000000000009
  0
CIRCLE
  5
233
  8
1
 62
     7
 10
-17.457389149509591
 20
163.04764554878901
 30
0.0
 40
1.899999999999991
  0
CIRCLE
  5
234
  8
1
 62
     7
 10
-2.4573891495095932
 20
178.04764554878889
 30
0.0
 40
1.900000000000005
  0
TEXT
  5
235
  8
1
 62
     7
 10
-162.31431957981189
 20
241.21931105940789
 30
0.0
 40
3.5
  1
AMU 5C
 41
0.9
  7
SIMPLEX
  0
TEXT
  5
237
  8
1
 62
     3
 10
-28.707389149509591
 20
146.54764554878901
 30
0.0
 40
5.0
  1
INPUT
 41
0.8732690999999999
  7
COMPLEX
  0
ENDSEC
  0
EOF
