  0
SECTION
  2
HEADER
  9
$ACADVER
  1
AC1009
  9
$INSBASE
 10
0.0
 20
0.0
 30
0.0
  9
$EXTMIN
 10
-230.15059662416809
 20
484.47687482411578
 30
0.0
  9
$EXTMAX
 10
137.91190233055099
 20
778.36062468067962
 30
0.0
  9
$LIMMIN
 10
-230.15059662416809
 20
484.47687482411578
  9
$LIMMAX
 10
137.49768876817791
 20
777.32509077474708
  9
$ORTHOMODE
 70
     0
  9
$REGENMODE
 70
     1
  9
$FILLMODE
 70
     1
  9
$QTEXTMODE
 70
     0
  9
$MIRRTEXT
 70
     1
  9
$DRAGMODE
 70
     2
  9
$LTSCALE
 40
1.0
  9
$OSMODE
 70
    37
  9
$ATTMODE
 70
     1
  9
$TEXTSIZE
 40
3.5
  9
$TRACEWID
 40
0.5
  9
$TEXTSTYLE
  7
STANDARD
  9
$CLAYER
  8
0
  9
$CELTYPE
  6
BYLAYER
  9
$CECOLOR
 62
   256
  9
$DIMSCALE
 40
1.0
  9
$DIMASZ
 40
0.18
  9
$DIMEXO
 40
0.0625
  9
$DIMDLI
 40
0.38
  9
$DIMRND
 40
0.0
  9
$DIMDLE
 40
0.0
  9
$DIMEXE
 40
0.18
  9
$DIMTP
 40
0.0
  9
$DIMTM
 40
0.0
  9
$DIMTXT
 40
0.18
  9
$DIMCEN
 40
0.09
  9
$DIMTSZ
 40
0.0
  9
$DIMTOL
 70
     0
  9
$DIMLIM
 70
     0
  9
$DIMTIH
 70
     1
  9
$DIMTOH
 70
     1
  9
$DIMSE1
 70
     0
  9
$DIMSE2
 70
     0
  9
$DIMTAD
 70
     0
  9
$DIMZIN
 70
     0
  9
$DIMBLK
  1

  9
$DIMASO
 70
     1
  9
$DIMSHO
 70
     1
  9
$DIMPOST
  1

  9
$DIMAPOST
  1

  9
$DIMALT
 70
     0
  9
$DIMALTD
 70
     2
  9
$DIMALTF
 40
25.399999999999999
  9
$DIMLFAC
 40
1.0
  9
$DIMTOFL
 70
     0
  9
$DIMTVP
 40
0.0
  9
$DIMTIX
 70
     0
  9
$DIMSOXD
 70
     0
  9
$DIMSAH
 70
     0
  9
$DIMBLK1
  1

  9
$DIMBLK2
  1

  9
$DIMSTYLE
  2
STANDARD
  9
$DIMCLRD
 70
     0
  9
$DIMCLRE
 70
     0
  9
$DIMCLRT
 70
     0
  9
$DIMTFAC
 40
1.0
  9
$DIMGAP
 40
0.09
  9
$LUNITS
 70
     2
  9
$LUPREC
 70
     4
  9
$SKETCHINC
 40
0.1
  9
$FILLETRAD
 40
2.0
  9
$AUNITS
 70
     0
  9
$AUPREC
 70
     0
  9
$MENU
  1
ACAD
  9
$ELEVATION
 40
0.0
  9
$PELEVATION
 40
0.0
  9
$THICKNESS
 40
0.0
  9
$LIMCHECK
 70
     0
  9
$BLIPMODE
 70
     0
  9
$CHAMFERA
 40
0.0
  9
$CHAMFERB
 40
0.0
  9
$SKPOLY
 70
     0
  9
$TDCREATE
 40
2452093.9131611111
  9
$TDUPDATE
 40
2452093.9138857638
  9
$TDINDWG
 40
0.0007284722
  9
$TDUSRTIMER
 40
0.0007284722
  9
$USRTIMER
 70
     1
  9
$ANGBASE
 50
0.0
  9
$ANGDIR
 70
     0
  9
$PDMODE
 70
     0
  9
$PDSIZE
 40
0.0
  9
$PLINEWID
 40
0.0
  9
$COORDS
 70
     1
  9
$SPLFRAME
 70
     0
  9
$SPLINETYPE
 70
     6
  9
$SPLINESEGS
 70
     8
  9
$ATTDIA
 70
     0
  9
$ATTREQ
 70
     1
  9
$HANDLING
 70
 10241
  9
$HANDSEED
  5
22D
  9
$SURFTAB1
 70
     6
  9
$SURFTAB2
 70
     6
  9
$SURFTYPE
 70
     6
  9
$SURFU
 70
     6
  9
$SURFV
 70
     6
  9
$UCSNAME
  2

  9
$UCSORG
 10
0.0
 20
0.0
 30
0.0
  9
$UCSXDIR
 10
1.0
 20
0.0
 30
0.0
  9
$UCSYDIR
 10
0.0
 20
1.0
 30
0.0
  9
$PUCSNAME
  2

  9
$PUCSORG
 10
0.0
 20
0.0
 30
0.0
  9
$PUCSXDIR
 10
1.0
 20
0.0
 30
0.0
  9
$PUCSYDIR
 10
0.0
 20
1.0
 30
0.0
  9
$USERI1
 70
     0
  9
$USERI2
 70
     0
  9
$USERI3
 70
     0
  9
$USERI4
 70
     0
  9
$USERI5
 70
     0
  9
$USERR1
 40
0.0
  9
$USERR2
 40
0.0
  9
$USERR3
 40
0.0
  9
$USERR4
 40
0.0
  9
$USERR5
 40
0.0
  9
$WORLDVIEW
 70
     1
  9
$SHADEDGE
 70
     3
  9
$SHADEDIF
 70
    70
  9
$TILEMODE
 70
     1
  9
$MAXACTVP
 70
    64
  9
$PLIMCHECK
 70
     0
  9
$PEXTMIN
 10
1.0000000000000000E+020
 20
1.0000000000000000E+020
 30
1.0000000000000000E+020
  9
$PEXTMAX
 10
-1.0000000000000000E+020
 20
-1.0000000000000000E+020
 30
-1.0000000000000000E+020
  9
$PLIMMIN
 10
0.0
 20
0.0
  9
$PLIMMAX
 10
12.0
 20
9.0
  9
$UNITMODE
 70
     0
  9
$VISRETAIN
 70
     1
  9
$PLINEGEN
 70
     0
  9
$PSLTSCALE
 70
     1
  0
ENDSEC
  0
SECTION
  2
TABLES
  0
TABLE
  2
VPORT
 70
     2
  0
VPORT
  2
*ACTIVE
 70
     0
 10
0.0
 20
0.0
 11
1.0
 21
1.0
 12
-135.17912042015311
 22
624.4086328577821
 13
0.0
 23
0.0
 14
1.0
 24
1.0
 15
0.0
 25
0.0
 16
0.0
 26
0.0
 36
1.0
 17
0.0
 27
0.0
 37
0.0
 40
8.9999999737560312
 41
2.5693779904306222
 42
50.0
 43
0.0
 44
0.0
 50
0.0
 51
0.0
 71
     0
 72
   100
 73
     1
 74
     1
 75
     0
 76
     0
 77
     0
 78
     0
  0
ENDTAB
  0
TABLE
  2
LTYPE
 70
     9
  0
LTYPE
  2
CONTINUOUS
 70
     0
  3
Solid line
 72
    65
 73
     0
 40
0.0
  0
LTYPE
  2
BORDER
 70
     0
  3
__ __ . __ __ .
 72
    65
 73
     6
 40
16.931171037805409
 49
4.8374774393729716
 49
-2.4187387196864858
 49
4.8374774393729716
 49
-2.4187387196864858
 49
0.0
 49
-2.4187387196864858
  0
LTYPE
  2
CENTER
 70
     0
  3
____ _ ____ _
 72
    65
 73
     4
 40
19.349909757491879
 49
12.09369359843242
 49
-2.4187387196864858
 49
2.4187387196864858
 49
-2.4187387196864858
  0
LTYPE
  2
DASHDOT
 70
     0
  3
__ . __ . __ .
 72
    65
 73
     4
 40
9.6749548787459467
 49
4.8374774393729716
 49
-2.4187387196864858
 49
0.0
 49
-2.4187387196864858
  0
LTYPE
  2
DASHED
 70
     0
  3
__ __ __ __ __
 72
    65
 73
     2
 40
7.25621615905946
 49
4.8374774393729716
 49
-2.4187387196864858
  0
LTYPE
  2
DIVIDE
 70
     0
  3
__ . . __ . . 
 72
    65
 73
     6
 40
12.09369359843242
 49
4.8374774393729716
 49
-2.4187387196864858
 49
0.0
 49
-2.4187387196864858
 49
0.0
 49
-2.4187387196864858
  0
LTYPE
  2
DOT
 70
     0
  3
..............
 72
    65
 73
     4
 40
4.8374774393729716
 49
0.0
 49
-2.4187387196864858
 49
0.0
 49
-2.4187387196864858
  0
LTYPE
  2
HIDDEN
 70
     0
  3
_ _ _ _ _ _ _
 72
    65
 73
     2
 40
3.62810807952973
 49
2.4187387196864858
 49
-1.209369359843242
  0
LTYPE
  2
PHANTOM
 70
     0
  3
_____ _ _ _____ _ _ 
 72
    65
 73
     6
 40
24.187387196864869
 49
12.09369359843242
 49
-2.4187387196864858
 49
2.4187387196864858
 49
-2.4187387196864858
 49
2.4187387196864858
 49
-2.4187387196864858
  0
ENDTAB
  0
TABLE
  2
LAYER
 70
     2
  0
LAYER
  2
0
 70
     0
 62
     7
  6
CONTINUOUS
  0
LAYER
  2
1
 70
     0
 62
     7
  6
CONTINUOUS
  0
ENDTAB
  0
TABLE
  2
STYLE
 70
     4
  0
STYLE
  2
STANDARD
 70
     0
 40
0.0
 41
1.0
 50
0.0
 71
     0
 42
3.5
  3
txt
  4

  0
STYLE
  2
SIMPLEX
 70
     0
 40
0.0
 41
1.0
 50
0.0
 71
     0
 42
3.5
  3
simplex
  4

  0
STYLE
  2
COMPLEX
 70
     0
 40
0.0
 41
1.0
 50
0.0
 71
     0
 42
3.5
  3
complex
  4

  0
STYLE
  2
ITALIC
 70
     0
 40
0.0
 41
1.0
 50
0.0
 71
     0
 42
3.5
  3
italic
  4

  0
ENDTAB
  0
TABLE
  2
VIEW
 70
     0
  0
ENDTAB
  0
TABLE
  2
UCS
 70
     0
  0
ENDTAB
  0
TABLE
  2
APPID
 70
     1
  0
APPID
  2
ACAD
 70
     0
  0
ENDTAB
  0
TABLE
  2
DIMSTYLE
 70
     1
  0
DIMSTYLE
  2
STANDARD
 70
     0
  3

  4

  5

  6

  7

 40
1.0
 41
0.18
 42
0.0625
 43
0.38
 44
0.18
 45
0.0
 46
0.0
 47
0.0
 48
0.0
140
0.18
141
0.09
142
0.0
143
25.399999999999999
144
1.0
145
0.0
146
1.0
147
0.09
 71
     0
 72
     0
 73
     1
 74
     1
 75
     0
 76
     0
 77
     0
 78
     0
170
     0
171
     2
172
     0
173
     0
174
     0
175
     0
176
     0
177
     0
178
     0
  0
ENDTAB
  0
ENDSEC
  0
SECTION
  2
BLOCKS
  0
BLOCK
  8
0
  2
$MODEL_SPACE
 70
     0
 10
0.0
 20
0.0
 30
0.0
  3
$MODEL_SPACE
  1

  0
ENDBLK
  5
20
  8
0
  0
BLOCK
 67
     1
  8
0
  2
$PAPER_SPACE
 70
     0
 10
0.0
 20
0.0
 30
0.0
  3
$PAPER_SPACE
  1

  0
ENDBLK
  5
1C
 67
     1
  8
0
  0
ENDSEC
  0
SECTION
  2
ENTITIES
  0
LINE
  5
33
  8
1
  6
DASHDOT
 62
     3
 10
81.407412861290126
 20
551.07830541452677
 30
0.0
 11
73.587964675065663
 21
551.07830541452677
 31
0.0
  0
LINE
  5
34
  8
1
  6
DASHDOT
 62
     3
 10
77.497688768177909
 20
554.98802950763888
 30
0.0
 11
77.497688768177909
 21
547.16858132141454
 31
0.0
  0
LINE
  5
35
  8
1
 62
     7
 10
-173.2305966241681
 20
608.47504098731315
 30
0.0
 11
-173.2305966241681
 21
594.07830541452665
 31
0.0
  0
LINE
  5
36
  8
1
 62
     7
 10
-175.07059662416799
 20
608.47504098731315
 30
0.0
 11
-175.07059662416799
 21
594.07830541452665
 31
0.0
  0
LINE
  5
37
  8
1
 62
     3
 10
-97.760596624168002
 20
611.43584613195094
 30
0.0
 11
-97.760596624168002
 21
608.47504098731315
 31
0.0
  0
LINE
  5
38
  8
1
 62
     3
 10
-98.540596624168074
 20
608.47504098731315
 30
0.0
 11
-98.540596624168074
 21
611.43584613195094
 31
0.0
  0
LINE
  5
39
  8
1
 62
     7
 10
-97.230596624168129
 20
608.47504098731315
 30
0.0
 11
-97.230596624168129
 21
594.07830541452665
 31
0.0
  0
LINE
  5
3A
  8
1
 62
     7
 10
-99.070596624168061
 20
608.47504098731315
 30
0.0
 11
-99.070596624168061
 21
594.07830541452665
 31
0.0
  0
LINE
  5
3B
  8
1
 62
     7
 10
-99.070596624168061
 20
608.47504098731315
 30
0.0
 11
-97.230596624168129
 21
608.47504098731315
 31
0.0
  0
LINE
  5
3C
  8
1
 62
     7
 10
-177.150596624168
 20
593.07830541452665
 30
0.0
 11
-177.650596624168
 21
593.07830541452665
 31
0.0
  0
LINE
  5
3D
  8
1
 62
     7
 10
-177.650596624168
 20
593.07830541452665
 30
0.0
 11
-177.650596624168
 21
594.07830541452665
 31
0.0
  0
LINE
  5
3E
  8
1
 62
     7
 10
-177.650596624168
 20
594.07830541452665
 30
0.0
 11
-94.650596624168074
 21
594.07830541452665
 31
0.0
  0
LINE
  5
3F
  8
1
 62
     7
 10
-94.650596624168074
 20
593.07830541452665
 30
0.0
 11
-95.150596624168074
 21
593.07830541452665
 31
0.0
  0
LINE
  5
40
  8
1
 62
     7
 10
-94.650596624168074
 20
594.07830541452665
 30
0.0
 11
-94.650596624168074
 21
593.07830541452665
 31
0.0
  0
LINE
  5
41
  8
1
 62
     7
 10
-179.15059662416809
 20
714.32509077474697
 30
0.0
 11
-179.15059662416809
 21
677.32509077474697
 31
0.0
  0
LINE
  5
42
  8
1
 62
     7
 10
-177.150596624168
 20
713.32509077474685
 30
0.0
 11
-177.150596624168
 21
674.32509077474685
 31
0.0
  0
LINE
  5
43
  8
1
 62
     7
 10
-180.15059662416809
 20
714.32509077474697
 30
0.0
 11
-180.15059662416809
 21
720.32509077474685
 31
0.0
  0
LINE
  5
44
  8
1
 62
     7
 10
-175.35059662416799
 20
716.1250907747467
 30
0.0
 11
-175.35059662416799
 21
718.5250907747469
 31
0.0
  0
LINE
  5
45
  8
1
 62
     7
 10
-172.95059662416801
 20
718.5250907747469
 30
0.0
 11
-172.95059662416801
 21
716.1250907747467
 31
0.0
  0
LINE
  5
46
  8
1
 62
     7
 10
-181.650596624168
 20
714.32509077474697
 30
0.0
 11
-175.95337226190011
 21
714.32509077474697
 31
0.0
  0
LINE
  5
47
  8
1
 62
     7
 10
-175.95337226190011
 20
720.32509077474685
 30
0.0
 11
-181.650596624168
 21
720.32509077474685
 31
0.0
  0
LINE
  5
48
  8
1
 62
     7
 10
-177.150596624168
 20
713.32509077474685
 30
0.0
 11
-174.150596624168
 21
713.32509077474685
 31
0.0
  0
LINE
  5
49
  8
1
 62
     7
 10
-174.150596624168
 20
721.32509077474685
 30
0.0
 11
-177.150596624168
 21
721.32509077474685
 31
0.0
  0
LINE
  5
4A
  8
1
 62
     7
 10
-92.150596624168074
 20
720.32509077474685
 30
0.0
 11
-92.150596624168074
 21
714.32509077474697
 31
0.0
  0
LINE
  5
4B
  8
1
 62
     7
 10
-96.950596624168057
 20
718.5250907747469
 30
0.0
 11
-96.950596624168057
 21
716.1250907747467
 31
0.0
  0
LINE
  5
4C
  8
1
 62
     7
 10
-99.350596624168134
 20
716.1250907747467
 30
0.0
 11
-99.350596624168134
 21
718.5250907747469
 31
0.0
  0
LINE
  5
4D
  8
1
 62
     7
 10
-96.347820986436076
 20
714.32509077474697
 30
0.0
 11
-90.650596624168074
 21
714.32509077474697
 31
0.0
  0
LINE
  5
4E
  8
1
 62
     7
 10
-93.150596624168088
 20
720.32509077474685
 30
0.0
 11
-93.150596624168088
 21
757.32509077474685
 31
0.0
  0
LINE
  5
4F
  8
1
 62
     7
 10
-90.650596624168074
 20
720.32509077474685
 30
0.0
 11
-96.347820986436076
 21
720.32509077474685
 31
0.0
  0
LINE
  5
50
  8
1
 62
     7
 10
-95.150596624168074
 20
721.32509077474685
 30
0.0
 11
-95.150596624168074
 21
760.32509077474697
 31
0.0
  0
LINE
  5
51
  8
1
 62
     7
 10
-98.150596624168074
 20
713.32509077474685
 30
0.0
 11
-95.150596624168074
 21
713.32509077474685
 31
0.0
  0
LINE
  5
52
  8
1
 62
     7
 10
-95.150596624168074
 20
721.32509077474685
 30
0.0
 11
-98.150596624168074
 21
721.32509077474685
 31
0.0
  0
LINE
  5
53
  8
1
 62
     7
 10
-139.650596624168
 20
760.32509077474685
 30
0.0
 11
-139.650596624168
 21
772.32509077474685
 31
0.0
  0
LINE
  5
54
  8
1
 62
     7
 10
-132.650596624168
 20
772.32509077474685
 30
0.0
 11
-132.650596624168
 21
760.32509077474685
 31
0.0
  0
LINE
  5
55
  8
1
 62
     7
 10
-139.650596624168
 20
662.32509077474685
 30
0.0
 11
-139.650596624168
 21
674.32509077474685
 31
0.0
  0
LINE
  5
56
  8
1
 62
     7
 10
-132.650596624168
 20
674.32509077474685
 30
0.0
 11
-132.650596624168
 21
662.32509077474685
 31
0.0
  0
LINE
  5
57
  8
1
 62
     7
 10
-175.650596624168
 20
760.59838609263522
 30
0.0
 11
-175.650596624168
 21
761.27741041838453
 31
0.0
  0
LINE
  5
58
  8
1
 62
     7
 10
-168.650596624168
 20
761.27741041838453
 30
0.0
 11
-168.650596624168
 21
760.59838609263522
 31
0.0
  0
LINE
  5
59
  8
1
  6
DASHDOT
 62
     3
 10
-171.150596624168
 20
761.41521832323212
 30
0.0
 11
-171.150596624168
 21
773.23496322626204
 31
0.0
  0
LINE
  5
5A
  8
1
  6
DASHDOT
 62
     3
 10
-177.0604690756831
 20
767.3250907747472
 30
0.0
 11
-165.24072417265299
 21
767.3250907747472
 31
0.0
  0
LINE
  5
5B
  8
1
 62
     7
 10
-179.15059662416809
 20
775.3250907747472
 30
0.0
 11
-179.15059662416809
 21
757.96259069748078
 31
0.0
  0
LINE
  5
5C
  8
1
 62
     7
 10
-183.150596624168
 20
757.32509077474708
 30
0.0
 11
-180.61469823930571
 21
757.32509077474708
 31
0.0
  0
LINE
  5
5D
  8
1
 62
     7
 10
-96.650596624168145
 20
761.27741041838453
 30
0.0
 11
-96.650596624168145
 21
760.59838609263522
 31
0.0
  0
LINE
  5
5E
  8
1
 62
     7
 10
-103.650596624168
 20
760.59838609263522
 30
0.0
 11
-103.650596624168
 21
761.27741041838453
 31
0.0
  0
LINE
  5
5F
  8
1
  6
DASHDOT
 62
     3
 10
-101.150596624168
 20
773.23496322626204
 30
0.0
 11
-101.150596624168
 21
761.41521832323212
 31
0.0
  0
LINE
  5
60
  8
1
  6
DASHDOT
 62
     3
 10
-107.060469075683
 20
767.3250907747472
 30
0.0
 11
-95.240724172653103
 21
767.3250907747472
 31
0.0
  0
LINE
  5
61
  8
1
 62
     7
 10
-93.150596624168088
 20
757.96259069748078
 30
0.0
 11
-93.150596624168074
 21
775.3250907747472
 31
0.0
  0
LINE
  5
62
  8
1
 62
     7
 10
-95.150596624168074
 20
777.32509077474708
 30
0.0
 11
-177.150596624168
 21
777.32509077474708
 31
0.0
  0
LINE
  5
63
  8
1
 62
     7
 10
-91.686495009030367
 20
757.32509077474708
 30
0.0
 11
-89.150596624168074
 21
757.32509077474708
 31
0.0
  0
LINE
  5
64
  8
1
 62
     7
 10
-177.150596624168
 20
760.32509077474697
 30
0.0
 11
-95.150596624168074
 21
760.32509077474697
 31
0.0
  0
LINE
  5
65
  8
1
 62
     7
 10
-102.650596624168
 20
534.07830541452677
 30
0.0
 11
-169.650596624168
 21
534.07830541452677
 31
0.0
  0
LINE
  5
66
  8
1
 62
     7
 10
-102.650596624168
 20
534.07830541452677
 30
0.0
 11
-102.650596624168
 21
534.24817839560467
 31
0.0
  0
LINE
  5
67
  8
1
 62
     7
 10
-95.150596624168074
 20
534.07830541452677
 30
0.0
 11
-95.150596624168074
 21
594.07830541452665
 31
0.0
  0
LINE
  5
68
  8
1
 62
     7
 10
-97.650596624168074
 20
534.07830541452677
 30
0.0
 11
-95.150596624168074
 21
534.07830541452677
 31
0.0
  0
LINE
  5
69
  8
1
 62
     7
 10
-175.650596624168
 20
673.37277113110952
 30
0.0
 11
-175.650596624168
 21
674.05179545685871
 31
0.0
  0
LINE
  5
6A
  8
1
 62
     7
 10
-168.650596624168
 20
674.05179545685871
 30
0.0
 11
-168.650596624168
 21
673.37277113110952
 31
0.0
  0
LINE
  5
6B
  8
1
  6
DASHDOT
 62
     3
 10
-171.150596624168
 20
661.41521832323201
 30
0.0
 11
-171.150596624168
 21
673.23496322626193
 31
0.0
  0
LINE
  5
6C
  8
1
  6
DASHDOT
 62
     3
 10
-165.24072417265299
 20
667.32509077474685
 30
0.0
 11
-177.0604690756831
 21
667.32509077474685
 31
0.0
  0
LINE
  5
6D
  8
1
 62
     7
 10
-179.15059662416809
 20
676.68759085201339
 30
0.0
 11
-179.15059662416809
 21
659.32509077474685
 31
0.0
  0
LINE
  5
6E
  8
1
 62
     7
 10
-180.61469823930571
 20
677.32509077474697
 30
0.0
 11
-183.150596624168
 21
677.32509077474697
 31
0.0
  0
LINE
  5
6F
  8
1
 62
     7
 10
-96.650596624168145
 20
674.05179545685871
 30
0.0
 11
-96.650596624168145
 21
673.37277113110952
 31
0.0
  0
LINE
  5
70
  8
1
 62
     7
 10
-103.650596624168
 20
673.37277113110952
 30
0.0
 11
-103.650596624168
 21
674.05179545685871
 31
0.0
  0
LINE
  5
71
  8
1
  6
DASHDOT
 62
     3
 10
-101.150596624168
 20
673.23496322626193
 30
0.0
 11
-101.150596624168
 21
661.41521832323201
 31
0.0
  0
LINE
  5
72
  8
1
  6
DASHDOT
 62
     3
 10
-95.240724172653103
 20
667.32509077474685
 30
0.0
 11
-107.060469075683
 21
667.32509077474685
 31
0.0
  0
LINE
  5
73
  8
1
 62
     7
 10
-93.150596624168074
 20
659.32509077474685
 30
0.0
 11
-93.150596624168088
 21
676.68759085201339
 31
0.0
  0
LINE
  5
74
  8
1
 62
     7
 10
-177.150596624168
 20
657.32509077474685
 30
0.0
 11
-95.150596624168074
 21
657.32509077474685
 31
0.0
  0
LINE
  5
75
  8
1
 62
     7
 10
-223.150596624168
 20
714.82509077474697
 30
0.0
 11
-200.65059662416809
 21
714.82509077474697
 31
0.0
  0
LINE
  5
76
  8
1
 62
     7
 10
-200.65059662416809
 20
719.82509077474685
 30
0.0
 11
-223.150596624168
 21
719.82509077474685
 31
0.0
  0
LINE
  5
77
  8
1
 62
     7
 10
-222.650596624168
 20
724.82509077474685
 30
0.0
 11
-222.650596624168
 21
719.82509077474685
 31
0.0
  0
LINE
  5
78
  8
1
  6
DASHDOT
 62
     3
 10
-230.15059662416809
 20
717.32509077474685
 30
0.0
 11
-223.150596624168
 21
717.32509077474685
 31
0.0
  0
LINE
  5
79
  8
1
 62
     7
 10
-222.650596624168
 20
724.82509077474685
 30
0.0
 11
-193.150596624168
 21
724.82509077474685
 31
0.0
  0
LINE
  5
7A
  8
1
 62
     7
 10
-223.150596624168
 20
724.32509077474685
 30
0.0
 11
-223.150596624168
 21
710.32509077474697
 31
0.0
  0
LINE
  5
7B
  8
1
 62
     7
 10
-193.150596624168
 20
709.82509077474697
 30
0.0
 11
-222.650596624168
 21
709.82509077474697
 31
0.0
  0
LINE
  5
7C
  8
1
 62
     7
 10
-222.650596624168
 20
724.82509077474685
 30
0.0
 11
-223.150596624168
 21
724.32509077474685
 31
0.0
  0
LINE
  5
7D
  8
1
 62
     7
 10
-223.150596624168
 20
710.32509077474697
 30
0.0
 11
-222.650596624168
 21
709.82509077474697
 31
0.0
  0
LINE
  5
7E
  8
1
 62
     7
 10
-222.650596624168
 20
714.82509077474697
 30
0.0
 11
-222.650596624168
 21
709.82509077474697
 31
0.0
  0
LINE
  5
7F
  8
1
 62
     7
 10
-71.650596624168074
 20
714.82509077474697
 30
0.0
 11
-49.150596624168081
 21
714.82509077474697
 31
0.0
  0
LINE
  5
80
  8
1
 62
     7
 10
-49.150596624168081
 20
719.82509077474685
 30
0.0
 11
-71.650596624168074
 21
719.82509077474685
 31
0.0
  0
LINE
  5
81
  8
1
 62
     7
 10
-49.650596624168088
 20
719.82509077474685
 30
0.0
 11
-49.650596624168088
 21
724.82509077474685
 31
0.0
  0
LINE
  5
82
  8
1
 62
     7
 10
-95.150596624168074
 20
674.32509077474685
 30
0.0
 11
-95.150596624168074
 21
713.32509077474685
 31
0.0
  0
LINE
  5
83
  8
1
 62
     7
 10
-93.150596624168088
 20
677.32509077474697
 30
0.0
 11
-93.150596624168088
 21
714.32509077474697
 31
0.0
  0
LINE
  5
84
  8
1
 62
     7
 10
-89.150596624168074
 20
677.32509077474697
 30
0.0
 11
-91.686495009030367
 21
677.32509077474697
 31
0.0
  0
LINE
  5
85
  8
1
 62
     7
 10
-95.150596624168074
 20
674.32509077474685
 30
0.0
 11
-177.150596624168
 21
674.32509077474685
 31
0.0
  0
LINE
  5
86
  8
1
  6
DASHDOT
 62
     3
 10
-49.150596624168081
 20
717.32509077474685
 30
0.0
 11
-42.150596624168088
 21
717.32509077474685
 31
0.0
  0
LINE
  5
87
  8
1
 62
     7
 10
-79.150596624168074
 20
737.0595263376722
 30
0.0
 11
-79.150596624168074
 21
697.59065521182163
 31
0.0
  0
LINE
  5
88
  8
1
 62
     7
 10
-80.902527154989684
 20
695.60609945839428
 30
0.0
 11
-85.39866609334652
 21
695.04408209109965
 31
0.0
  0
LINE
  5
89
  8
1
 62
     7
 10
-85.39866609334652
 20
739.60609945839417
 30
0.0
 11
-80.902527154989684
 21
739.04408209109965
 31
0.0
  0
LINE
  5
8A
  8
1
 62
     7
 10
-87.150596624168088
 20
679.32509077474685
 30
0.0
 11
-87.150596624168088
 21
755.32509077474685
 31
0.0
  0
LINE
  5
8B
  8
1
 62
     7
 10
-90.650596624168074
 20
677.32509077474697
 30
0.0
 11
-90.650596624168074
 21
757.32509077474685
 31
0.0
  0
LINE
  5
8C
  8
1
 62
     7
 10
-79.150596624168074
 20
724.82509077474685
 30
0.0
 11
-49.650596624168088
 21
724.82509077474685
 31
0.0
  0
LINE
  5
8D
  8
1
 62
     7
 10
-49.150596624168081
 20
710.32509077474697
 30
0.0
 11
-49.150596624168081
 21
724.32509077474685
 31
0.0
  0
LINE
  5
8E
  8
1
 62
     7
 10
-49.650596624168088
 20
709.82509077474697
 30
0.0
 11
-79.150596624168074
 21
709.82509077474697
 31
0.0
  0
LINE
  5
8F
  8
1
 62
     7
 10
-49.150596624168081
 20
724.32509077474685
 30
0.0
 11
-49.650596624168088
 21
724.82509077474685
 31
0.0
  0
LINE
  5
90
  8
1
 62
     7
 10
-49.650596624168088
 20
709.82509077474697
 30
0.0
 11
-49.150596624168081
 21
710.32509077474697
 31
0.0
  0
LINE
  5
91
  8
1
 62
     7
 10
-49.650596624168088
 20
709.82509077474697
 30
0.0
 11
-49.650596624168088
 21
714.82509077474697
 31
0.0
  0
LINE
  5
92
  8
1
 62
     7
 10
-87.150596624168088
 20
692.22660596491176
 30
0.0
 11
-85.850596624168077
 21
692.22660596491176
 31
0.0
  0
LINE
  5
93
  8
1
 62
     7
 10
-85.850596624168077
 20
692.22660596491176
 30
0.0
 11
-85.850596624168077
 21
683.02660596491194
 31
0.0
  0
LINE
  5
94
  8
1
 62
     7
 10
-85.850596624168077
 20
683.02660596491194
 30
0.0
 11
-87.150596624168088
 21
683.02660596491194
 31
0.0
  0
LINE
  5
95
  8
1
 62
     7
 10
-87.150596624168088
 20
688.00188363988491
 30
0.0
 11
-85.850596624168077
 21
688.75243898983172
 31
0.0
  0
LINE
  5
96
  8
1
 62
     7
 10
-87.150596624168088
 20
686.50077293999209
 30
0.0
 11
-85.850596624168077
 21
687.25132828993867
 31
0.0
  0
LINE
  5
97
  8
1
 62
     7
 10
-85.850596624168077
 20
691.87660596491185
 30
0.0
 11
-81.350596624168077
 21
691.87660596491185
 31
0.0
  0
LINE
  5
98
  8
1
 62
     7
 10
-80.850596624168077
 20
691.37660596491185
 30
0.0
 11
-80.850596624168077
 21
683.87660596491185
 31
0.0
  0
LINE
  5
99
  8
1
 62
     7
 10
-81.350596624168077
 20
683.37660596491185
 30
0.0
 11
-85.850596624168077
 21
683.37660596491185
 31
0.0
  0
LINE
  5
9A
  8
1
 62
     7
 10
-80.850596624168077
 20
691.37660596491185
 30
0.0
 11
-81.350596624168077
 21
691.87660596491185
 31
0.0
  0
LINE
  5
9B
  8
1
 62
     7
 10
-81.350596624168077
 20
683.37660596491185
 30
0.0
 11
-80.850596624168077
 21
683.87660596491185
 31
0.0
  0
LINE
  5
9C
  8
1
 62
     7
 10
-81.350596624168077
 20
683.37660596491185
 30
0.0
 11
-81.350596624168077
 21
691.87660596491185
 31
0.0
  0
LINE
  5
9D
  8
1
 62
     7
 10
-87.150596624168088
 20
751.62357558458177
 30
0.0
 11
-85.850596624168077
 21
751.62357558458177
 31
0.0
  0
LINE
  5
9E
  8
1
 62
     7
 10
-85.850596624168077
 20
751.62357558458177
 30
0.0
 11
-85.850596624168077
 21
742.42357558458195
 31
0.0
  0
LINE
  5
9F
  8
1
 62
     7
 10
-85.850596624168077
 20
742.42357558458195
 30
0.0
 11
-87.150596624168088
 21
742.42357558458195
 31
0.0
  0
LINE
  5
A0
  8
1
 62
     7
 10
-87.150596624168088
 20
747.39885325955515
 30
0.0
 11
-85.850596624168077
 21
748.14940860950185
 31
0.0
  0
LINE
  5
A1
  8
1
 62
     7
 10
-87.150596624168088
 20
745.89774255966233
 30
0.0
 11
-85.850596624168077
 21
746.64829790960869
 31
0.0
  0
LINE
  5
A2
  8
1
 62
     7
 10
-85.850596624168077
 20
751.27357558458198
 30
0.0
 11
-81.350596624168077
 21
751.27357558458198
 31
0.0
  0
LINE
  5
A3
  8
1
 62
     7
 10
-80.850596624168077
 20
750.77357558458198
 30
0.0
 11
-80.850596624168077
 21
743.27357558458198
 31
0.0
  0
LINE
  5
A4
  8
1
 62
     7
 10
-81.350596624168077
 20
742.77357558458198
 30
0.0
 11
-85.850596624168077
 21
742.77357558458198
 31
0.0
  0
LINE
  5
A5
  8
1
 62
     7
 10
-80.850596624168077
 20
750.77357558458198
 30
0.0
 11
-81.350596624168077
 21
751.27357558458198
 31
0.0
  0
LINE
  5
A6
  8
1
 62
     7
 10
-81.350596624168077
 20
742.77357558458198
 30
0.0
 11
-80.850596624168077
 21
743.27357558458198
 31
0.0
  0
LINE
  5
A7
  8
1
 62
     7
 10
-81.350596624168077
 20
742.77357558458198
 30
0.0
 11
-81.350596624168077
 21
751.27357558458198
 31
0.0
  0
LINE
  5
A8
  8
1
 62
     7
 10
-193.150596624168
 20
697.59065521182163
 30
0.0
 11
-193.150596624168
 21
737.0595263376722
 31
0.0
  0
LINE
  5
A9
  8
1
 62
     7
 10
-186.90252715498971
 20
695.04408209109965
 30
0.0
 11
-191.39866609334641
 21
695.60609945839428
 31
0.0
  0
LINE
  5
AA
  8
1
 62
     7
 10
-191.39866609334641
 20
739.04408209109965
 30
0.0
 11
-186.90252715498971
 21
739.60609945839417
 31
0.0
  0
LINE
  5
AB
  8
1
 62
     7
 10
-185.150596624168
 20
755.32509077474685
 30
0.0
 11
-185.150596624168
 21
679.32509077474685
 31
0.0
  0
LINE
  5
AC
  8
1
 62
     7
 10
-181.650596624168
 20
757.32509077474685
 30
0.0
 11
-181.650596624168
 21
677.32509077474697
 31
0.0
  0
LINE
  5
AD
  8
1
 62
     7
 10
-179.15059662416809
 20
757.32509077474685
 30
0.0
 11
-179.15059662416809
 21
720.32509077474685
 31
0.0
  0
LINE
  5
AE
  8
1
 62
     7
 10
-177.150596624168
 20
760.32509077474697
 30
0.0
 11
-177.150596624168
 21
721.32509077474685
 31
0.0
  0
LINE
  5
AF
  8
1
 62
     7
 10
-186.45059662416801
 20
692.22660596491176
 30
0.0
 11
-185.150596624168
 21
692.22660596491176
 31
0.0
  0
LINE
  5
B0
  8
1
 62
     7
 10
-186.45059662416801
 20
683.02660596491194
 30
0.0
 11
-186.45059662416801
 21
692.22660596491176
 31
0.0
  0
LINE
  5
B1
  8
1
 62
     7
 10
-185.150596624168
 20
683.02660596491194
 30
0.0
 11
-186.45059662416801
 21
683.02660596491194
 31
0.0
  0
LINE
  5
B2
  8
1
 62
     7
 10
-185.150596624168
 20
687.25132828993867
 30
0.0
 11
-186.45059662416801
 21
686.50077293999198
 31
0.0
  0
LINE
  5
B3
  8
1
 62
     7
 10
-185.150596624168
 20
688.75243898983149
 30
0.0
 11
-186.45059662416801
 21
688.00188363988491
 31
0.0
  0
LINE
  5
B4
  8
1
 62
     7
 10
-190.9505966241681
 20
691.87660596491185
 30
0.0
 11
-186.45059662416801
 21
691.87660596491185
 31
0.0
  0
LINE
  5
B5
  8
1
 62
     7
 10
-191.45059662416801
 20
683.87660596491185
 30
0.0
 11
-191.45059662416801
 21
691.37660596491185
 31
0.0
  0
LINE
  5
B6
  8
1
 62
     7
 10
-186.45059662416801
 20
683.37660596491185
 30
0.0
 11
-190.9505966241681
 21
683.37660596491185
 31
0.0
  0
LINE
  5
B7
  8
1
 62
     7
 10
-190.9505966241681
 20
691.87660596491185
 30
0.0
 11
-191.45059662416801
 21
691.37660596491185
 31
0.0
  0
LINE
  5
B8
  8
1
 62
     7
 10
-191.45059662416801
 20
683.87660596491185
 30
0.0
 11
-190.9505966241681
 21
683.37660596491185
 31
0.0
  0
LINE
  5
B9
  8
1
 62
     7
 10
-190.9505966241681
 20
691.87660596491185
 30
0.0
 11
-190.9505966241681
 21
683.37660596491185
 31
0.0
  0
LINE
  5
BA
  8
1
 62
     7
 10
-186.45059662416801
 20
751.62357558458177
 30
0.0
 11
-185.150596624168
 21
751.62357558458177
 31
0.0
  0
LINE
  5
BB
  8
1
 62
     7
 10
-186.45059662416801
 20
742.42357558458195
 30
0.0
 11
-186.45059662416801
 21
751.62357558458177
 31
0.0
  0
LINE
  5
BC
  8
1
 62
     7
 10
-185.150596624168
 20
742.42357558458195
 30
0.0
 11
-186.45059662416801
 21
742.42357558458195
 31
0.0
  0
LINE
  5
BD
  8
1
 62
     7
 10
-185.150596624168
 20
746.64829790960869
 30
0.0
 11
-186.45059662416801
 21
745.89774255966211
 31
0.0
  0
LINE
  5
BE
  8
1
 62
     7
 10
-185.150596624168
 20
748.14940860950162
 30
0.0
 11
-186.45059662416801
 21
747.39885325955515
 31
0.0
  0
LINE
  5
BF
  8
1
 62
     7
 10
-190.9505966241681
 20
751.27357558458198
 30
0.0
 11
-186.45059662416801
 21
751.27357558458198
 31
0.0
  0
LINE
  5
C0
  8
1
 62
     7
 10
-191.45059662416801
 20
743.27357558458198
 30
0.0
 11
-191.45059662416801
 21
750.77357558458198
 31
0.0
  0
LINE
  5
C1
  8
1
 62
     7
 10
-186.45059662416801
 20
742.77357558458198
 30
0.0
 11
-190.9505966241681
 21
742.77357558458198
 31
0.0
  0
LINE
  5
C2
  8
1
 62
     7
 10
-190.9505966241681
 20
751.27357558458198
 30
0.0
 11
-191.45059662416801
 21
750.77357558458198
 31
0.0
  0
LINE
  5
C3
  8
1
 62
     7
 10
-191.45059662416801
 20
743.27357558458198
 30
0.0
 11
-190.9505966241681
 21
742.77357558458198
 31
0.0
  0
LINE
  5
C4
  8
1
 62
     7
 10
-190.9505966241681
 20
751.27357558458198
 30
0.0
 11
-190.9505966241681
 21
742.77357558458198
 31
0.0
  0
LINE
  5
C5
  8
1
  6
DASHDOT
 62
     3
 10
-230.15059662416809
 20
551.07830541452677
 30
0.0
 11
-223.150596624168
 21
551.07830541452677
 31
0.0
  0
LINE
  5
C6
  8
1
  6
DASHDOT
 62
     3
 10
-49.150596624168081
 20
551.07830541452677
 30
0.0
 11
-42.150596624168088
 21
551.07830541452677
 31
0.0
  0
LINE
  5
C7
  8
1
 62
     7
 10
-74.150596624168074
 20
560.57830541452688
 30
0.0
 11
-49.150596624168081
 21
560.57830541452688
 31
0.0
  0
LINE
  5
C8
  8
1
 62
     7
 10
-74.150596624168074
 20
558.57830541452677
 30
0.0
 11
-74.150596624168074
 21
560.57830541452688
 31
0.0
  0
LINE
  5
C9
  8
1
 62
     7
 10
-79.150596624168074
 20
570.81274097745211
 30
0.0
 11
-79.150596624168074
 21
531.34386985160143
 31
0.0
  0
LINE
  5
CA
  8
1
 62
     7
 10
-80.902527154989684
 20
529.35931409817397
 30
0.0
 11
-85.39866609334652
 21
528.79729673087945
 31
0.0
  0
LINE
  5
CB
  8
1
 62
     7
 10
-85.39866609334652
 20
573.35931409817397
 30
0.0
 11
-80.902527154989684
 21
572.79729673087957
 31
0.0
  0
LINE
  5
CC
  8
1
 62
     7
 10
-87.150596624168088
 20
513.07830541452677
 30
0.0
 11
-87.150596624168088
 21
589.07830541452665
 31
0.0
  0
LINE
  5
CD
  8
1
 62
     7
 10
-92.150596624168088
 20
502.07830541452682
 30
0.0
 11
-93.150596624168088
 21
502.07830541452682
 31
0.0
  0
LINE
  5
CE
  8
1
 62
     7
 10
-92.150596624168088
 20
494.07830541452682
 30
0.0
 11
-92.150596624168088
 21
502.07830541452682
 31
0.0
  0
LINE
  5
CF
  8
1
 62
     7
 10
-93.150596624168088
 20
494.07830541452682
 30
0.0
 11
-92.150596624168088
 21
494.07830541452682
 31
0.0
  0
LINE
  5
D0
  8
1
 62
     7
 10
-91.150596624168088
 20
511.0783054145266
 30
0.0
 11
-89.150596624168074
 21
511.0783054145266
 31
0.0
  0
LINE
  5
D1
  8
1
 62
     7
 10
-91.686495009030367
 20
591.07830541452677
 30
0.0
 11
-89.150596624168074
 21
591.07830541452677
 31
0.0
  0
LINE
  5
D2
  8
1
 62
     7
 10
-90.650596624168074
 20
511.0783054145266
 30
0.0
 11
-90.650596624168074
 21
591.07830541452677
 31
0.0
  0
LINE
  5
D3
  8
1
 62
     7
 10
-93.150596624168088
 20
488.07830541452671
 30
0.0
 11
-93.150596624168088
 21
591.07830541452677
 31
0.0
  0
LINE
  5
D4
  8
1
 62
     7
 10
-177.150596624168
 20
500.07830541452682
 30
0.0
 11
-95.150596624168074
 21
500.07830541452682
 31
0.0
  0
LINE
  5
D5
  8
1
 62
     7
 10
-179.15059662416809
 20
488.07830541452671
 30
0.0
 11
-93.150596624168088
 21
488.07830541452671
 31
0.0
  0
LINE
  5
D6
  8
1
 62
     7
 10
34.625425753850116
 20
534.89942925469518
 30
0.0
 11
33.950095418762388
 21
534.82869755409615
 31
0.0
  0
LINE
  5
D7
  8
1
 62
     7
 10
33.22092875209573
 20
541.7906165404263
 30
0.0
 11
33.896259087183459
 21
541.8613482410251
 31
0.0
  0
LINE
  5
D8
  8
1
 62
     7
 10
35.080043710407118
 20
533.43883947191011
 30
0.0
 11
34.038377043740439
 21
543.38443802381016
 31
0.0
  0
LINE
  5
D9
  8
1
 62
     7
 10
34.038377043740439
 20
543.38443802381016
 30
0.0
 11
34.635112956854456
 21
543.44693802381005
 31
0.0
  0
LINE
  5
DA
  8
1
 62
     7
 10
34.635112956854456
 20
543.44693802381005
 30
0.0
 11
35.676779623521099
 21
533.50133947191
 31
0.0
  0
LINE
  5
DB
  8
1
 62
     7
 10
35.676779623521099
 20
533.50133947191
 30
0.0
 11
35.080043710407118
 21
533.43883947191011
 31
0.0
  0
LINE
  5
DC
  8
1
 62
     7
 10
-99.843096624168126
 20
540.62830541452684
 30
0.0
 11
-100.45809662416799
 21
540.62830541452684
 31
0.0
  0
LINE
  5
DD
  8
1
 62
     7
 10
-102.200596624168
 20
538.88580541452677
 30
0.0
 11
-102.200596624168
 21
538.27080541452676
 31
0.0
  0
LINE
  5
DE
  8
1
 62
     7
 10
-100.45809662416799
 20
536.52830541452681
 30
0.0
 11
-99.843096624168126
 21
536.52830541452681
 31
0.0
  0
LINE
  5
DF
  8
1
 62
     7
 10
-98.100596624168134
 20
538.27080541452676
 30
0.0
 11
-98.100596624168134
 21
538.88580541452677
 31
0.0
  0
LINE
  5
E0
  8
1
 62
     7
 10
121.0452821175934
 20
534.82869755409615
 30
0.0
 11
120.36995178250569
 21
534.89942925469518
 31
0.0
  0
LINE
  5
E1
  8
1
 62
     7
 10
121.09911844917229
 20
541.8613482410251
 30
0.0
 11
121.7744487842601
 21
541.7906165404263
 31
0.0
  0
LINE
  5
E2
  8
1
 62
     7
 10
120.95700049261519
 20
543.38443802381016
 30
0.0
 11
119.91533382594869
 21
533.43883947191011
 31
0.0
  0
LINE
  5
E3
  8
1
 62
     7
 10
120.3602645795013
 20
543.44693802381005
 30
0.0
 11
120.95700049261519
 21
543.38443802381016
 31
0.0
  0
LINE
  5
E4
  8
1
 62
     7
 10
119.3185979128347
 20
533.50133947191
 30
0.0
 11
120.3602645795013
 21
543.44693802381005
 31
0.0
  0
LINE
  5
E5
  8
1
 62
     7
 10
119.91533382594869
 20
533.43883947191011
 30
0.0
 11
119.3185979128347
 21
533.50133947191
 31
0.0
  0
LINE
  5
E6
  8
1
 62
     7
 10
17.497688768177898
 20
488.07830541452671
 30
0.0
 11
47.497688768177881
 21
488.07830541452671
 31
0.0
  0
LINE
  5
E7
  8
1
 62
     7
 10
107.49768876817789
 20
488.07830541452671
 30
0.0
 11
137.49768876817791
 21
488.07830541452671
 31
0.0
  0
LINE
  5
E8
  8
1
 62
     7
 10
48.497688768177888
 20
489.07830541452682
 30
0.0
 11
106.49768876817789
 21
489.07830541452682
 31
0.0
  0
LINE
  5
E9
  8
1
 62
     7
 10
17.497688768177898
 20
488.07830541452671
 30
0.0
 11
17.497688768177898
 21
498.07830541452682
 31
0.0
  0
LINE
  5
EA
  8
1
 62
     7
 10
19.497688768177891
 20
500.07830541452682
 30
0.0
 11
40.750139774746209
 21
500.07830541452682
 31
0.0
  0
LINE
  5
EB
  8
1
 62
     7
 10
137.49768876817791
 20
498.07830541452682
 30
0.0
 11
137.49768876817791
 21
488.07830541452671
 31
0.0
  0
LINE
  5
EC
  8
1
 62
     7
 10
107.1961735780128
 20
578.46738914760306
 30
0.0
 11
105.1961735780128
 21
579.62208968598259
 31
0.0
  0
LINE
  5
ED
  8
1
 62
     7
 10
109.1961735780128
 20
579.62208968598259
 30
0.0
 11
107.1961735780128
 21
578.46738914760306
 31
0.0
  0
LINE
  5
EE
  8
1
 62
     7
 10
109.1961735780128
 20
581.93149076274096
 30
0.0
 11
109.1961735780128
 21
579.62208968598259
 31
0.0
  0
LINE
  5
EF
  8
1
 62
     7
 10
107.1961735780128
 20
583.08619130112027
 30
0.0
 11
109.1961735780128
 21
581.93149076274096
 31
0.0
  0
LINE
  5
F0
  8
1
 62
     7
 10
105.1961735780128
 20
581.93149076274096
 30
0.0
 11
107.1961735780128
 21
583.08619130112027
 31
0.0
  0
LINE
  5
F1
  8
1
 62
     7
 10
105.1961735780128
 20
579.62208968598259
 30
0.0
 11
105.1961735780128
 21
581.93149076274096
 31
0.0
  0
LINE
  5
F2
  8
1
 62
     7
 10
105.1961735780128
 20
520.22512006631234
 30
0.0
 11
105.1961735780128
 21
522.53452114307083
 31
0.0
  0
LINE
  5
F3
  8
1
 62
     7
 10
107.1961735780128
 20
519.07041952793315
 30
0.0
 11
105.1961735780128
 21
520.22512006631234
 31
0.0
  0
LINE
  5
F4
  8
1
 62
     7
 10
109.1961735780128
 20
520.22512006631234
 30
0.0
 11
107.1961735780128
 21
519.07041952793315
 31
0.0
  0
LINE
  5
F5
  8
1
 62
     7
 10
109.1961735780128
 20
522.53452114307083
 30
0.0
 11
109.1961735780128
 21
520.22512006631234
 31
0.0
  0
LINE
  5
F6
  8
1
 62
     7
 10
107.1961735780128
 20
523.68922168145014
 30
0.0
 11
109.1961735780128
 21
522.53452114307083
 31
0.0
  0
LINE
  5
F7
  8
1
 62
     7
 10
105.1961735780128
 20
522.53452114307083
 30
0.0
 11
107.1961735780128
 21
523.68922168145014
 31
0.0
  0
LINE
  5
F8
  8
1
 62
     7
 10
49.799203958342908
 20
581.93149076274096
 30
0.0
 11
49.799203958342908
 21
579.62208968598259
 31
0.0
  0
LINE
  5
F9
  8
1
 62
     7
 10
47.799203958342908
 20
583.08619130112027
 30
0.0
 11
49.799203958342908
 21
581.93149076274096
 31
0.0
  0
LINE
  5
FA
  8
1
 62
     7
 10
45.799203958342908
 20
581.93149076274096
 30
0.0
 11
47.799203958342908
 21
583.08619130112027
 31
0.0
  0
LINE
  5
FB
  8
1
 62
     7
 10
45.799203958342908
 20
579.62208968598259
 30
0.0
 11
45.799203958342908
 21
581.93149076274096
 31
0.0
  0
LINE
  5
FC
  8
1
 62
     7
 10
47.799203958342908
 20
578.46738914760306
 30
0.0
 11
45.799203958342908
 21
579.62208968598259
 31
0.0
  0
LINE
  5
FD
  8
1
 62
     7
 10
49.799203958342908
 20
579.62208968598259
 30
0.0
 11
47.799203958342908
 21
578.46738914760306
 31
0.0
  0
LINE
  5
FE
  8
1
 62
     7
 10
47.799203958342908
 20
523.68922168145014
 30
0.0
 11
49.799203958342908
 21
522.53452114307083
 31
0.0
  0
LINE
  5
FF
  8
1
 62
     7
 10
45.799203958342908
 20
522.53452114307083
 30
0.0
 11
47.799203958342908
 21
523.68922168145014
 31
0.0
  0
LINE
  5
100
  8
1
 62
     7
 10
45.799203958342908
 20
520.22512006631234
 30
0.0
 11
45.799203958342908
 21
522.53452114307083
 31
0.0
  0
LINE
  5
101
  8
1
 62
     7
 10
47.799203958342908
 20
519.07041952793315
 30
0.0
 11
45.799203958342908
 21
520.22512006631234
 31
0.0
  0
LINE
  5
102
  8
1
 62
     7
 10
49.799203958342908
 20
520.22512006631234
 30
0.0
 11
47.799203958342908
 21
519.07041952793315
 31
0.0
  0
LINE
  5
103
  8
1
 62
     7
 10
49.799203958342908
 20
522.53452114307083
 30
0.0
 11
49.799203958342908
 21
520.22512006631234
 31
0.0
  0
LINE
  5
104
  8
1
 62
     7
 10
114.2452377616095
 20
500.07830541452682
 30
0.0
 11
135.49768876817791
 21
500.07830541452682
 31
0.0
  0
LINE
  5
105
  8
1
  6
DASHDOT
 62
     3
 10
27.497688768177898
 20
503.67973600493769
 30
0.0
 11
27.497688768177898
 21
484.47687482411578
 31
0.0
  0
LINE
  5
106
  8
1
  6
DASHDOT
 62
     3
 10
127.49768876817789
 20
484.47687482411578
 30
0.0
 11
127.49768876817789
 21
503.67973600493769
 31
0.0
  0
LINE
  5
107
  8
1
 62
     7
 10
74.997688768177909
 20
555.57830541452677
 30
0.0
 11
74.997688768177909
 21
560.57830541452688
 31
0.0
  0
LINE
  5
108
  8
1
 62
     7
 10
74.997688768177909
 20
560.57830541452688
 30
0.0
 11
79.997688768177909
 21
560.57830541452688
 31
0.0
  0
LINE
  5
109
  8
1
 62
     7
 10
79.997688768177909
 20
560.57830541452688
 30
0.0
 11
79.997688768177909
 21
555.57830541452677
 31
0.0
  0
LINE
  5
10A
  8
1
 62
     7
 10
79.997688768177909
 20
555.57830541452677
 30
0.0
 11
74.997688768177909
 21
555.57830541452677
 31
0.0
  0
LINE
  5
10B
  8
1
 62
     7
 10
35.697855713202379
 20
534.07830541452677
 30
0.0
 11
36.687936978119517
 21
534.21880128229532
 31
0.0
  0
LINE
  5
10C
  8
1
 62
     7
 10
118.30744055823619
 20
534.21880128229532
 30
0.0
 11
119.2975218231534
 21
534.07830541452677
 31
0.0
  0
LINE
  5
10D
  8
1
 62
     7
 10
73.497688768177895
 20
593.01162021904622
 30
0.0
 11
73.497688768177895
 21
594.01217163900492
 31
0.0
  0
LINE
  5
10E
  8
1
 62
     7
 10
81.497688768177909
 20
594.01217163900492
 30
0.0
 11
81.497688768177909
 21
593.01162021904622
 31
0.0
  0
LINE
  5
10F
  8
1
 62
     7
 10
36.074697576612529
 20
534.13178054478863
 30
0.0
 11
17.7249817892111
 21
499.00432375490823
 31
0.0
  0
LINE
  5
110
  8
1
 62
     7
 10
137.2703957471447
 20
499.00432375490823
 30
0.0
 11
118.9206799597432
 21
534.13178054478863
 31
0.0
  0
LINE
  5
111
  8
1
 62
     7
 10
81.897688768177915
 20
542.85617415275112
 30
0.0
 11
81.897688768177915
 21
542.11104353348901
 31
0.0
  0
LINE
  5
112
  8
1
 62
     7
 10
78.197688768177912
 20
540.1110435334889
 30
0.0
 11
79.897688768177915
 21
540.1110435334889
 31
0.0
  0
LINE
  5
113
  8
1
 62
     7
 10
78.197688768177912
 20
540.1110435334889
 30
0.0
 11
78.197688768177912
 21
543.61104353348901
 31
0.0
  0
LINE
  5
114
  8
1
 62
     7
 10
76.797688768177892
 20
543.61104353348901
 30
0.0
 11
76.797688768177892
 21
540.1110435334889
 31
0.0
  0
LINE
  5
115
  8
1
 62
     7
 10
75.097688768177889
 20
540.1110435334889
 30
0.0
 11
76.797688768177892
 21
540.1110435334889
 31
0.0
  0
LINE
  5
116
  8
1
 62
     7
 10
73.097688768177889
 20
542.11104353348901
 30
0.0
 11
73.097688768177889
 21
542.85617415275112
 31
0.0
  0
LINE
  5
117
  8
1
 62
     7
 10
74.497688768177909
 20
593.07830541452665
 30
0.0
 11
74.497688768177909
 21
591.04016365692655
 31
0.0
  0
LINE
  5
118
  8
1
 62
     7
 10
80.497688768177909
 20
593.07830541452665
 30
0.0
 11
80.497688768177909
 21
591.04016365692655
 31
0.0
  0
LINE
  5
119
  8
1
 62
     7
 10
73.997688768177909
 20
593.07830541452665
 30
0.0
 11
80.997688768177895
 21
593.07830541452665
 31
0.0
  0
LINE
  5
11A
  8
1
 62
     7
 10
73.997688768177909
 20
594.07830541452665
 30
0.0
 11
80.997688768177895
 21
594.07830541452665
 31
0.0
  0
LINE
  5
11B
  8
1
 62
     7
 10
80.997688768177895
 20
593.07830541452665
 30
0.0
 11
80.997688768177895
 21
594.07830541452665
 31
0.0
  0
LINE
  5
11C
  8
1
 62
     7
 10
73.997688768177909
 20
593.07830541452665
 30
0.0
 11
73.997688768177909
 21
594.07830541452665
 31
0.0
  0
LINE
  5
11D
  8
1
 62
     7
 10
79.337688768177941
 20
608.47504098731315
 30
0.0
 11
79.337688768177941
 21
594.07830541452665
 31
0.0
  0
LINE
  5
11E
  8
1
 62
     7
 10
77.497688768177909
 20
608.47504098731315
 30
0.0
 11
77.497688768177909
 21
594.07830541452665
 31
0.0
  0
LINE
  5
11F
  8
1
 62
     7
 10
75.657688768177991
 20
608.47504098731315
 30
0.0
 11
75.657688768177991
 21
594.07830541452665
 31
0.0
  0
LINE
  5
120
  8
1
  6
DASHDOT
 62
     3
 10
-101.150596624168
 20
503.67973600493769
 30
0.0
 11
-101.150596624168
 21
484.47687482411578
 31
0.0
  0
LINE
  5
121
  8
1
 62
     7
 10
-97.650596624168074
 20
534.24817839560467
 30
0.0
 11
-97.650596624168074
 21
534.07830541452677
 31
0.0
  0
LINE
  5
122
  8
1
 62
     7
 10
-132.650596624168
 20
534.07830541452677
 30
0.0
 11
-132.650596624168
 21
505.07830541452682
 31
0.0
  0
LINE
  5
123
  8
1
 62
     7
 10
-79.150596624168074
 20
558.57830541452677
 30
0.0
 11
-49.650596624168088
 21
558.57830541452677
 31
0.0
  0
LINE
  5
124
  8
1
 62
     7
 10
-49.150596624168081
 20
544.07830541452688
 30
0.0
 11
-49.150596624168081
 21
560.57830541452688
 31
0.0
  0
LINE
  5
125
  8
1
 62
     7
 10
-49.650596624168088
 20
543.57830541452677
 30
0.0
 11
-79.150596624168074
 21
543.57830541452677
 31
0.0
  0
LINE
  5
126
  8
1
 62
     7
 10
-49.150596624168081
 20
558.07830541452677
 30
0.0
 11
-49.650596624168088
 21
558.57830541452677
 31
0.0
  0
LINE
  5
127
  8
1
 62
     7
 10
-49.650596624168088
 20
543.57830541452677
 30
0.0
 11
-49.150596624168081
 21
544.07830541452688
 31
0.0
  0
LINE
  5
128
  8
1
 62
     7
 10
-49.650596624168088
 20
543.57830541452677
 30
0.0
 11
-49.650596624168088
 21
558.57830541452677
 31
0.0
  0
LINE
  5
129
  8
1
 62
     7
 10
-87.150596624168088
 20
525.97982060469155
 30
0.0
 11
-85.850596624168077
 21
525.97982060469155
 31
0.0
  0
LINE
  5
12A
  8
1
 62
     7
 10
-85.850596624168077
 20
525.97982060469155
 30
0.0
 11
-85.850596624168077
 21
516.77982060469174
 31
0.0
  0
LINE
  5
12B
  8
1
 62
     7
 10
-85.850596624168077
 20
516.77982060469174
 30
0.0
 11
-87.150596624168088
 21
516.77982060469174
 31
0.0
  0
LINE
  5
12C
  8
1
 62
     7
 10
-87.150596624168088
 20
521.75509827966482
 30
0.0
 11
-85.850596624168077
 21
522.5056536296114
 31
0.0
  0
LINE
  5
12D
  8
1
 62
     7
 10
-87.150596624168088
 20
520.25398757977177
 30
0.0
 11
-85.850596624168077
 21
521.00454292971835
 31
0.0
  0
LINE
  5
12E
  8
1
 62
     7
 10
-85.850596624168077
 20
525.62982060469164
 30
0.0
 11
-81.350596624168077
 21
525.62982060469164
 31
0.0
  0
LINE
  5
12F
  8
1
 62
     7
 10
-80.850596624168077
 20
525.12982060469164
 30
0.0
 11
-80.850596624168077
 21
517.62982060469164
 31
0.0
  0
LINE
  5
130
  8
1
 62
     7
 10
-81.350596624168077
 20
517.12982060469164
 30
0.0
 11
-85.850596624168077
 21
517.12982060469164
 31
0.0
  0
LINE
  5
131
  8
1
 62
     7
 10
-80.850596624168077
 20
525.12982060469164
 30
0.0
 11
-81.350596624168077
 21
525.62982060469164
 31
0.0
  0
LINE
  5
132
  8
1
 62
     7
 10
-81.350596624168077
 20
517.12982060469164
 30
0.0
 11
-80.850596624168077
 21
517.62982060469164
 31
0.0
  0
LINE
  5
133
  8
1
 62
     7
 10
-81.350596624168077
 20
517.12982060469164
 30
0.0
 11
-81.350596624168077
 21
525.62982060469164
 31
0.0
  0
LINE
  5
134
  8
1
 62
     7
 10
-87.150596624168088
 20
585.37679022436168
 30
0.0
 11
-85.850596624168077
 21
585.37679022436168
 31
0.0
  0
LINE
  5
135
  8
1
 62
     7
 10
-85.850596624168077
 20
585.37679022436168
 30
0.0
 11
-85.850596624168077
 21
576.17679022436175
 31
0.0
  0
LINE
  5
136
  8
1
 62
     7
 10
-85.850596624168077
 20
576.17679022436175
 30
0.0
 11
-87.150596624168088
 21
576.17679022436175
 31
0.0
  0
LINE
  5
137
  8
1
 62
     7
 10
-87.150596624168088
 20
581.15206789933507
 30
0.0
 11
-85.850596624168077
 21
581.90262324928142
 31
0.0
  0
LINE
  5
138
  8
1
 62
     7
 10
-87.150596624168088
 20
579.65095719944202
 30
0.0
 11
-85.850596624168077
 21
580.40151254938849
 31
0.0
  0
LINE
  5
139
  8
1
 62
     7
 10
-85.850596624168077
 20
585.02679022436178
 30
0.0
 11
-81.350596624168077
 21
585.02679022436178
 31
0.0
  0
LINE
  5
13A
  8
1
 62
     7
 10
-80.850596624168077
 20
584.52679022436178
 30
0.0
 11
-80.850596624168077
 21
577.02679022436178
 31
0.0
  0
LINE
  5
13B
  8
1
 62
     7
 10
-81.350596624168077
 20
576.52679022436178
 30
0.0
 11
-85.850596624168077
 21
576.52679022436178
 31
0.0
  0
LINE
  5
13C
  8
1
 62
     7
 10
-80.850596624168077
 20
584.52679022436178
 30
0.0
 11
-81.350596624168077
 21
585.02679022436178
 31
0.0
  0
LINE
  5
13D
  8
1
 62
     7
 10
-81.350596624168077
 20
576.52679022436178
 30
0.0
 11
-80.850596624168077
 21
577.02679022436178
 31
0.0
  0
LINE
  5
13E
  8
1
 62
     7
 10
-81.350596624168077
 20
576.52679022436178
 30
0.0
 11
-81.350596624168077
 21
585.02679022436178
 31
0.0
  0
LINE
  5
13F
  8
1
 62
     7
 10
-223.150596624168
 20
560.57830541452688
 30
0.0
 11
-198.150596624168
 21
560.57830541452688
 31
0.0
  0
LINE
  5
140
  8
1
 62
     7
 10
-198.150596624168
 20
560.57830541452688
 30
0.0
 11
-198.150596624168
 21
558.57830541452677
 31
0.0
  0
LINE
  5
141
  8
1
 62
     7
 10
-193.150596624168
 20
531.34386985160143
 30
0.0
 11
-193.150596624168
 21
570.81274097745211
 31
0.0
  0
LINE
  5
142
  8
1
 62
     7
 10
-186.90252715498971
 20
528.79729673087945
 30
0.0
 11
-191.39866609334641
 21
529.35931409817397
 31
0.0
  0
LINE
  5
143
  8
1
 62
     7
 10
-191.39866609334641
 20
572.79729673087957
 30
0.0
 11
-186.90252715498971
 21
573.35931409817397
 31
0.0
  0
LINE
  5
144
  8
1
 62
     7
 10
-185.150596624168
 20
589.07830541452665
 30
0.0
 11
-185.150596624168
 21
513.07830541452677
 31
0.0
  0
LINE
  5
145
  8
1
 62
     7
 10
-179.15059662416809
 20
502.07830541452682
 30
0.0
 11
-180.15059662416809
 21
502.07830541452682
 31
0.0
  0
LINE
  5
146
  8
1
 62
     7
 10
-180.15059662416809
 20
502.07830541452682
 30
0.0
 11
-180.15059662416809
 21
494.07830541452682
 31
0.0
  0
LINE
  5
147
  8
1
 62
     7
 10
-180.15059662416809
 20
494.07830541452682
 30
0.0
 11
-179.15059662416809
 21
494.07830541452682
 31
0.0
  0
LINE
  5
148
  8
1
 62
     7
 10
-183.150596624168
 20
511.0783054145266
 30
0.0
 11
-181.150596624168
 21
511.0783054145266
 31
0.0
  0
LINE
  5
149
  8
1
 62
     7
 10
-183.150596624168
 20
591.07830541452677
 30
0.0
 11
-180.61469823930571
 21
591.07830541452677
 31
0.0
  0
LINE
  5
14A
  8
1
 62
     7
 10
-181.650596624168
 20
591.07830541452677
 30
0.0
 11
-181.650596624168
 21
511.0783054145266
 31
0.0
  0
LINE
  5
14B
  8
1
 62
     7
 10
-179.15059662416809
 20
591.07830541452677
 30
0.0
 11
-179.15059662416809
 21
488.07830541452671
 31
0.0
  0
LINE
  5
14C
  8
1
 62
     7
 10
-171.843096624168
 20
540.62830541452684
 30
0.0
 11
-172.45809662416801
 21
540.62830541452684
 31
0.0
  0
LINE
  5
14D
  8
1
 62
     7
 10
-170.10059662416799
 20
538.27080541452676
 30
0.0
 11
-170.10059662416799
 21
538.88580541452677
 31
0.0
  0
LINE
  5
14E
  8
1
 62
     7
 10
-172.45809662416801
 20
536.52830541452681
 30
0.0
 11
-171.843096624168
 21
536.52830541452681
 31
0.0
  0
LINE
  5
14F
  8
1
 62
     7
 10
-174.2005966241681
 20
538.88580541452677
 30
0.0
 11
-174.2005966241681
 21
538.27080541452676
 31
0.0
  0
LINE
  5
150
  8
1
  6
DASHDOT
 62
     3
 10
-171.150596624168
 20
484.47687482411578
 30
0.0
 11
-171.150596624168
 21
503.67973600493769
 31
0.0
  0
LINE
  5
151
  8
1
 62
     7
 10
-177.150596624168
 20
594.07830541452665
 30
0.0
 11
-177.150596624168
 21
534.07830541452677
 31
0.0
  0
LINE
  5
152
  8
1
 62
     7
 10
-169.650596624168
 20
534.24817839560467
 30
0.0
 11
-169.650596624168
 21
534.07830541452677
 31
0.0
  0
LINE
  5
153
  8
1
 62
     7
 10
-174.650596624168
 20
534.07830541452677
 30
0.0
 11
-174.650596624168
 21
534.24817839560467
 31
0.0
  0
LINE
  5
154
  8
1
 62
     7
 10
-177.150596624168
 20
534.07830541452677
 30
0.0
 11
-174.650596624168
 21
534.07830541452677
 31
0.0
  0
LINE
  5
155
  8
1
 62
     7
 10
-139.650596624168
 20
505.07830541452682
 30
0.0
 11
-139.650596624168
 21
534.07830541452677
 31
0.0
  0
LINE
  5
156
  8
1
 62
     7
 10
-222.650596624168
 20
558.57830541452677
 30
0.0
 11
-193.150596624168
 21
558.57830541452677
 31
0.0
  0
LINE
  5
157
  8
1
 62
     7
 10
-223.150596624168
 20
560.57830541452688
 30
0.0
 11
-223.150596624168
 21
544.07830541452688
 31
0.0
  0
LINE
  5
158
  8
1
 62
     7
 10
-193.150596624168
 20
543.57830541452677
 30
0.0
 11
-222.650596624168
 21
543.57830541452677
 31
0.0
  0
LINE
  5
159
  8
1
 62
     7
 10
-222.650596624168
 20
558.57830541452677
 30
0.0
 11
-223.150596624168
 21
558.07830541452677
 31
0.0
  0
LINE
  5
15A
  8
1
 62
     7
 10
-223.150596624168
 20
544.07830541452688
 30
0.0
 11
-222.650596624168
 21
543.57830541452677
 31
0.0
  0
LINE
  5
15B
  8
1
 62
     7
 10
-222.650596624168
 20
558.57830541452677
 30
0.0
 11
-222.650596624168
 21
543.57830541452677
 31
0.0
  0
LINE
  5
15C
  8
1
 62
     7
 10
-186.45059662416801
 20
525.97982060469155
 30
0.0
 11
-185.150596624168
 21
525.97982060469155
 31
0.0
  0
LINE
  5
15D
  8
1
 62
     7
 10
-186.45059662416801
 20
516.77982060469174
 30
0.0
 11
-186.45059662416801
 21
525.97982060469155
 31
0.0
  0
LINE
  5
15E
  8
1
 62
     7
 10
-185.150596624168
 20
516.77982060469174
 30
0.0
 11
-186.45059662416801
 21
516.77982060469174
 31
0.0
  0
LINE
  5
15F
  8
1
 62
     7
 10
-185.150596624168
 20
521.00454292971835
 30
0.0
 11
-186.45059662416801
 21
520.25398757977166
 31
0.0
  0
LINE
  5
160
  8
1
 62
     7
 10
-185.150596624168
 20
522.50565362961117
 30
0.0
 11
-186.45059662416801
 21
521.75509827966482
 31
0.0
  0
LINE
  5
161
  8
1
 62
     7
 10
-190.9505966241681
 20
525.62982060469164
 30
0.0
 11
-186.45059662416801
 21
525.62982060469164
 31
0.0
  0
LINE
  5
162
  8
1
 62
     7
 10
-191.45059662416801
 20
517.62982060469164
 30
0.0
 11
-191.45059662416801
 21
525.12982060469164
 31
0.0
  0
LINE
  5
163
  8
1
 62
     7
 10
-186.45059662416801
 20
517.12982060469164
 30
0.0
 11
-190.9505966241681
 21
517.12982060469164
 31
0.0
  0
LINE
  5
164
  8
1
 62
     7
 10
-190.9505966241681
 20
525.62982060469164
 30
0.0
 11
-191.45059662416801
 21
525.12982060469164
 31
0.0
  0
LINE
  5
165
  8
1
 62
     7
 10
-191.45059662416801
 20
517.62982060469164
 30
0.0
 11
-190.9505966241681
 21
517.12982060469164
 31
0.0
  0
LINE
  5
166
  8
1
 62
     7
 10
-190.9505966241681
 20
525.62982060469164
 30
0.0
 11
-190.9505966241681
 21
517.12982060469164
 31
0.0
  0
LINE
  5
167
  8
1
 62
     7
 10
-186.45059662416801
 20
585.37679022436168
 30
0.0
 11
-185.150596624168
 21
585.37679022436168
 31
0.0
  0
LINE
  5
168
  8
1
 62
     7
 10
-186.45059662416801
 20
576.17679022436175
 30
0.0
 11
-186.45059662416801
 21
585.37679022436168
 31
0.0
  0
LINE
  5
169
  8
1
 62
     7
 10
-185.150596624168
 20
576.17679022436175
 30
0.0
 11
-186.45059662416801
 21
576.17679022436175
 31
0.0
  0
LINE
  5
16A
  8
1
 62
     7
 10
-185.150596624168
 20
580.40151254938849
 30
0.0
 11
-186.45059662416801
 21
579.6509571994419
 31
0.0
  0
LINE
  5
16B
  8
1
 62
     7
 10
-185.150596624168
 20
581.90262324928142
 30
0.0
 11
-186.45059662416801
 21
581.15206789933507
 31
0.0
  0
LINE
  5
16C
  8
1
 62
     7
 10
-190.9505966241681
 20
585.02679022436178
 30
0.0
 11
-186.45059662416801
 21
585.02679022436178
 31
0.0
  0
LINE
  5
16D
  8
1
 62
     7
 10
-191.45059662416801
 20
577.02679022436178
 30
0.0
 11
-191.45059662416801
 21
584.52679022436178
 31
0.0
  0
LINE
  5
16E
  8
1
 62
     7
 10
-186.45059662416801
 20
576.52679022436178
 30
0.0
 11
-190.9505966241681
 21
576.52679022436178
 31
0.0
  0
LINE
  5
16F
  8
1
 62
     7
 10
-190.9505966241681
 20
585.02679022436178
 30
0.0
 11
-191.45059662416801
 21
584.52679022436178
 31
0.0
  0
LINE
  5
170
  8
1
 62
     7
 10
-191.45059662416801
 20
577.02679022436178
 30
0.0
 11
-190.9505966241681
 21
576.52679022436178
 31
0.0
  0
LINE
  5
171
  8
1
 62
     7
 10
-190.9505966241681
 20
585.02679022436178
 30
0.0
 11
-190.9505966241681
 21
576.52679022436178
 31
0.0
  0
LINE
  5
172
  8
1
 62
     3
 10
-98.150596624168074
 20
608.47504098731315
 30
0.0
 11
-98.150596624168074
 21
611.43584613195094
 31
0.0
  0
LINE
  5
173
  8
1
 62
     3
 10
-173.76059662416779
 20
611.43584613195094
 30
0.0
 11
-173.76059662416779
 21
608.47504098731315
 31
0.0
  0
LINE
  5
174
  8
1
 62
     3
 10
-174.54059662416799
 20
608.47504098731315
 30
0.0
 11
-174.54059662416799
 21
611.43584613195094
 31
0.0
  0
LINE
  5
175
  8
1
 62
     7
 10
-175.07059662416799
 20
608.47504098731315
 30
0.0
 11
-173.2305966241681
 21
608.47504098731315
 31
0.0
  0
LINE
  5
176
  8
1
 62
     3
 10
-174.150596624168
 20
608.47504098731315
 30
0.0
 11
-174.150596624168
 21
611.43584613195094
 31
0.0
  0
LINE
  5
177
  8
1
 62
     3
 10
76.96768876817805
 20
611.43584613195094
 30
0.0
 11
76.96768876817805
 21
608.47504098731315
 31
0.0
  0
LINE
  5
178
  8
1
 62
     3
 10
76.187688768177964
 20
608.47504098731315
 30
0.0
 11
76.187688768177964
 21
611.43584613195094
 31
0.0
  0
LINE
  5
179
  8
1
 62
     3
 10
76.577688768178021
 20
608.47504098731315
 30
0.0
 11
76.577688768178021
 21
611.43584613195094
 31
0.0
  0
LINE
  5
17A
  8
1
 62
     3
 10
78.807688768177954
 20
611.43584613195094
 30
0.0
 11
78.807688768177954
 21
608.47504098731315
 31
0.0
  0
LINE
  5
17B
  8
1
 62
     3
 10
78.027688768177853
 20
608.47504098731315
 30
0.0
 11
78.027688768177995
 21
611.43584613195094
 31
0.0
  0
LINE
  5
17C
  8
1
 62
     7
 10
79.337688768177941
 20
608.47504098731315
 30
0.0
 11
75.657688768177991
 21
608.47504098731315
 31
0.0
  0
LINE
  5
17D
  8
1
 62
     3
 10
78.417688768177939
 20
608.47504098731315
 30
0.0
 11
78.417688768177939
 21
611.43584613195094
 31
0.0
  0
ARC
  5
17E
  8
1
 62
     7
 10
-168.35059662416791
 20
760.59838609263522
 30
0.0
 40
0.3000000000000966
 50
180.0
 51
245.64174376220191
  0
ARC
  5
17F
  8
1
 62
     7
 10
-169.9505966241679
 20
761.27741041838453
 30
0.0
 40
1.30000000000001
 50
0.0
 51
73.398450400977623
  0
ARC
  5
180
  8
1
 62
     7
 10
-174.35059662416799
 20
761.27741041838453
 30
0.0
 40
1.30000000000001
 50
106.6015495990212
 51
180.0
  0
ARC
  5
181
  8
1
 62
     7
 10
-175.95059662416801
 20
760.59838609263522
 30
0.0
 40
0.2999999999999671
 50
294.35825623778732
 51
0.0
  0
ARC
  5
182
  8
1
 62
     7
 10
-177.150596624168
 20
775.3250907747472
 30
0.0
 40
2.0
 50
90.0
 51
180.0
  0
ARC
  5
183
  8
1
 62
     7
 10
-183.150596624168
 20
755.3250907747472
 30
0.0
 40
2.0
 50
90.0
 51
180.0
  0
ARC
  5
184
  8
1
 62
     7
 10
-103.950596624168
 20
760.59838609263522
 30
0.0
 40
0.2999999999999261
 50
294.35825623776981
 51
0.0
  0
ARC
  5
185
  8
1
 62
     7
 10
-102.3505966241682
 20
761.27741041838453
 30
0.0
 40
1.2999999999999019
 50
106.6015495990226
 51
180.0
  0
ARC
  5
186
  8
1
 62
     7
 10
-97.950596624168199
 20
761.27741041838453
 30
0.0
 40
1.300000000000054
 50
0.0
 51
73.398450400978817
  0
ARC
  5
187
  8
1
 62
     7
 10
-96.350596624168205
 20
760.59838609263522
 30
0.0
 40
0.2999999999999403
 50
180.0
 51
245.64174376222499
  0
ARC
  5
188
  8
1
 62
     7
 10
-95.150596624168074
 20
775.3250907747472
 30
0.0
 40
2.0
 50
0.0
 51
90.0
  0
ARC
  5
189
  8
1
 62
     7
 10
-89.150596624168074
 20
755.3250907747472
 30
0.0
 40
2.0
 50
0.0
 51
90.0
  0
ARC
  5
18A
  8
1
 62
     7
 10
-168.35059662416791
 20
674.05179545685871
 30
0.0
 40
0.2999999999999671
 50
114.3582562377872
 51
180.0
  0
ARC
  5
18B
  8
1
 62
     7
 10
-169.9505966241679
 20
673.37277113110952
 30
0.0
 40
1.3000000000000189
 50
286.60154959902229
 51
0.0
  0
ARC
  5
18C
  8
1
 62
     7
 10
-174.35059662416799
 20
673.37277113110952
 30
0.0
 40
1.300000000000096
 50
180.0
 51
253.39845040098029
  0
ARC
  5
18D
  8
1
 62
     7
 10
-175.95059662416801
 20
674.05179545685871
 30
0.0
 40
0.3000000000000114
 50
0.0
 51
65.641743762212741
  0
ARC
  5
18E
  8
1
 62
     7
 10
-177.150596624168
 20
659.32509077474685
 30
0.0
 40
2.0
 50
180.0
 51
270.0
  0
ARC
  5
18F
  8
1
 62
     7
 10
-183.150596624168
 20
679.32509077474685
 30
0.0
 40
2.0
 50
180.0
 51
270.0
  0
ARC
  5
190
  8
1
 62
     7
 10
-103.950596624168
 20
674.05179545685871
 30
0.0
 40
0.2999999999999972
 50
0.0
 51
65.641743762239031
  0
ARC
  5
191
  8
1
 62
     7
 10
-102.3505966241682
 20
673.37277113110952
 30
0.0
 40
1.299999999999897
 50
180.0
 51
253.3984504009774
  0
ARC
  5
192
  8
1
 62
     7
 10
-97.950596624168199
 20
673.37277113110952
 30
0.0
 40
1.3000000000001151
 50
286.60154959901911
 51
0.0
  0
ARC
  5
193
  8
1
 62
     7
 10
-96.350596624168205
 20
674.05179545685871
 30
0.0
 40
0.2999999999999378
 50
114.3582562377748
 51
180.0
  0
ARC
  5
194
  8
1
 62
     7
 10
-95.150596624168074
 20
659.32509077474685
 30
0.0
 40
2.0
 50
270.0
 51
0.0
  0
ARC
  5
195
  8
1
 62
     7
 10
-89.150596624168074
 20
679.32509077474685
 30
0.0
 40
2.0
 50
270.0
 51
0.0
  0
ARC
  5
196
  8
1
 62
     7
 10
-89.150596624168074
 20
513.07830541452677
 30
0.0
 40
2.000000000000056
 50
270.0
 51
0.0
  0
ARC
  5
197
  8
1
 62
     7
 10
-89.150596624168074
 20
589.07830541452665
 30
0.0
 40
2.0
 50
0.0
 51
90.0
  0
ARC
  5
198
  8
1
 62
     7
 10
-95.150596624168074
 20
498.07830541452682
 30
0.0
 40
2.0
 50
0.0
 51
90.0
  0
ARC
  5
199
  8
1
 62
     7
 10
33.356345418762388
 20
540.49768872867935
 30
0.0
 40
1.2999999999999481
 50
95.979156796301453
 51
169.3776071972818
  0
ARC
  5
19A
  8
1
 62
     7
 10
33.81467875209573
 20
536.12162536584333
 30
0.0
 40
1.3000000000000571
 50
202.58070639532031
 51
275.9791567963012
  0
ARC
  5
19B
  8
1
 62
     7
 10
33.865009087183438
 20
542.15971619758216
 30
0.0
 40
0.3000000000000584
 50
275.97915679630142
 51
5.9791567963001571
  0
ARC
  5
19C
  8
1
 62
     7
 10
34.656675753850116
 20
534.60106129813823
 30
0.0
 40
0.3000000000000012
 50
5.9791567963012877
 51
95.979156796302433
  0
ARC
  5
19D
  8
1
 62
     7
 10
121.6390321175934
 20
540.49768872867935
 30
0.0
 40
1.299999999999895
 50
10.62239280271868
 51
84.020843203696998
  0
ARC
  5
19E
  8
1
 62
     7
 10
121.18069878426
 20
536.12162536584333
 30
0.0
 40
1.300000000000064
 50
264.02084320369761
 51
337.41929360467958
  0
ARC
  5
19F
  8
1
 62
     7
 10
121.13036844917229
 20
542.15971619758216
 30
0.0
 40
0.3000000000000012
 50
174.0208432036986
 51
264.02084320369983
  0
ARC
  5
1A0
  8
1
 62
     7
 10
120.33870178250569
 20
534.60106129813823
 30
0.0
 40
0.2999999999999446
 50
84.020843203697567
 51
174.02084320369639
  0
ARC
  5
1A1
  8
1
 62
     7
 10
47.570190627015073
 20
581.00580355568945
 30
0.0
 40
6.0000000000000133
 50
105.4983012106954
 51
164.50169878930271
  0
ARC
  5
1A2
  8
1
 62
     7
 10
107.4251869093407
 20
581.00580355568945
 30
0.0
 40
5.9999999999999476
 50
15.498301210697401
 51
74.501698789304299
  0
ARC
  5
1A3
  8
1
 62
     7
 10
47.570190627015087
 20
521.15080727336397
 30
0.0
 40
6.0000000000000684
 50
195.4983012106949
 51
254.5016987893049
  0
ARC
  5
1A4
  8
1
 62
     7
 10
107.4251869093407
 20
521.15080727336397
 30
0.0
 40
5.999999999999952
 50
285.49830121069738
 51
344.50169878930262
  0
ARC
  5
1A5
  8
1
 62
     7
 10
107.4251869093407
 20
581.00580355568945
 30
0.0
 40
8.0000000000000373
 50
15.498301210695789
 51
74.501698789304683
  0
ARC
  5
1A6
  8
1
 62
     7
 10
47.570190627015073
 20
581.00580355568945
 30
0.0
 40
7.9999999999999432
 50
105.4983012106955
 51
164.50169878930399
  0
ARC
  5
1A7
  8
1
 62
     7
 10
135.49768876817791
 20
498.07830541452682
 30
0.0
 40
2.0
 50
0.0
 51
90.0
  0
ARC
  5
1A8
  8
1
 62
     7
 10
19.497688768177891
 20
498.07830541452682
 30
0.0
 40
2.0
 50
90.0
 51
180.0
  0
ARC
  5
1A9
  8
1
 62
     7
 10
84.397688768177915
 20
542.85617415275112
 30
0.0
 40
2.499999999999964
 50
128.0298135110435
 51
180.0
  0
ARC
  5
1AA
  8
1
 62
     7
 10
79.897688768177915
 20
542.11104353348901
 30
0.0
 40
2.0
 50
270.0
 51
0.0
  0
ARC
  5
1AB
  8
1
 62
     7
 10
75.097688768177889
 20
542.11104353348901
 30
0.0
 40
2.0
 50
180.0
 51
270.0
  0
ARC
  5
1AC
  8
1
 62
     7
 10
70.597688768177889
 20
542.85617415275112
 30
0.0
 40
2.5
 50
0.0
 51
51.970186488955932
  0
ARC
  5
1AD
  8
1
 62
     7
 10
-183.150596624168
 20
513.07830541452677
 30
0.0
 40
2.0
 50
180.0
 51
270.0
  0
ARC
  5
1AE
  8
1
 62
     7
 10
-183.150596624168
 20
589.07830541452665
 30
0.0
 40
2.0
 50
90.0
 51
180.0
  0
ARC
  5
1AF
  8
1
 62
     7
 10
-177.150596624168
 20
498.07830541452682
 30
0.0
 40
2.0
 50
90.0
 51
180.0
  0
ARC
  5
1B0
  8
1
 62
     7
 10
-174.150596624168
 20
718.5250907747469
 30
0.0
 40
1.200000000000073
 50
0.0
 51
180.0
  0
ARC
  5
1B1
  8
1
 62
     7
 10
-174.150596624168
 20
716.1250907747467
 30
0.0
 40
1.2000000000000171
 50
180.0
 51
0.0
  0
ARC
  5
1B2
  8
1
 62
     7
 10
-174.150596624168
 20
717.32509077474685
 30
0.0
 40
4.0
 50
270.0
 51
90.0
  0
ARC
  5
1B3
  8
1
 62
     7
 10
-98.150596624168074
 20
718.5250907747469
 30
0.0
 40
1.200000000000045
 50
0.0
 51
180.0
  0
ARC
  5
1B4
  8
1
 62
     7
 10
-98.150596624168074
 20
716.1250907747467
 30
0.0
 40
1.200000000000045
 50
180.0
 51
0.0
  0
ARC
  5
1B5
  8
1
 62
     7
 10
-98.150596624168074
 20
717.32509077474685
 30
0.0
 40
4.0
 50
90.0
 51
270.0
  0
ARC
  5
1B6
  8
1
 62
     7
 10
-144.650596624168
 20
772.32509077474685
 30
0.0
 40
5.0
 50
0.0
 51
90.0
  0
ARC
  5
1B7
  8
1
 62
     7
 10
-127.650596624168
 20
772.32509077474685
 30
0.0
 40
5.0
 50
90.0
 51
180.0
  0
ARC
  5
1B8
  8
1
 62
     7
 10
-144.650596624168
 20
662.32509077474685
 30
0.0
 40
5.0
 50
270.0
 51
0.0
  0
ARC
  5
1B9
  8
1
 62
     7
 10
-127.650596624168
 20
662.32509077474685
 30
0.0
 40
4.9999999999999858
 50
180.0
 51
270.0
  0
ARC
  5
1BA
  8
1
 62
     7
 10
-172.150596624168
 20
753.89838609263506
 30
0.0
 40
8.9999999999999787
 50
73.398450400978874
 51
106.6015495990199
  0
ARC
  5
1BB
  8
1
 62
     7
 10
-177.150596624168
 20
757.32509077474708
 30
0.0
 40
2.0
 50
90.0
 51
180.0
  0
ARC
  5
1BC
  8
1
 62
     7
 10
-180.61469823930571
 20
759.3250907747472
 30
0.0
 40
2.0
 50
270.0
 51
329.99999999999858
  0
ARC
  5
1BD
  8
1
 62
     7
 10
-100.150596624168
 20
753.89838609263506
 30
0.0
 40
8.9999999999999272
 50
73.39845040098001
 51
106.6015495990213
  0
ARC
  5
1BE
  8
1
 62
     7
 10
-95.150596624168074
 20
757.32509077474708
 30
0.0
 40
2.0
 50
0.0
 51
90.0
  0
ARC
  5
1BF
  8
1
 62
     7
 10
-91.686495009030367
 20
759.3250907747472
 30
0.0
 40
1.999999999999992
 50
210.0
 51
270.0
  0
ARC
  5
1C0
  8
1
 62
     7
 10
-172.150596624168
 20
680.75179545685864
 30
0.0
 40
9.0000000000000338
 50
253.39845040098029
 51
286.6015495990211
  0
ARC
  5
1C1
  8
1
 62
     7
 10
-177.150596624168
 20
677.32509077474697
 30
0.0
 40
2.0
 50
180.0
 51
270.0
  0
ARC
  5
1C2
  8
1
 62
     7
 10
-180.61469823930571
 20
675.32509077474685
 30
0.0
 40
1.9999999999999181
 50
30.000000000001361
 51
90.0
  0
ARC
  5
1C3
  8
1
 62
     7
 10
-100.150596624168
 20
680.75179545685864
 30
0.0
 40
8.9999999999998685
 50
253.3984504009787
 51
286.60154959901962
  0
ARC
  5
1C4
  8
1
 62
     7
 10
-200.65059662416809
 20
717.32509077474685
 30
0.0
 40
2.5
 50
270.0
 51
90.0
  0
ARC
  5
1C5
  8
1
 62
     7
 10
-71.650596624168074
 20
717.32509077474685
 30
0.0
 40
2.5
 50
90.0
 51
270.0
  0
ARC
  5
1C6
  8
1
 62
     7
 10
-95.150596624168074
 20
677.32509077474697
 30
0.0
 40
2.0
 50
270.0
 51
0.0
  0
ARC
  5
1C7
  8
1
 62
     7
 10
-91.686495009030367
 20
675.32509077474685
 30
0.0
 40
2.0
 50
90.0
 51
150.0
  0
ARC
  5
1C8
  8
1
 62
     7
 10
-81.150596624168088
 20
697.59065521182163
 30
0.0
 40
2.0000000000000071
 50
277.1250163489018
 51
0.0
  0
ARC
  5
1C9
  8
1
 62
     7
 10
-85.150596624168074
 20
693.05952633767231
 30
0.0
 40
2.0000000000000071
 50
97.125016348901795
 51
180.0
  0
ARC
  5
1CA
  8
1
 62
     7
 10
-81.150596624168088
 20
737.0595263376722
 30
0.0
 40
2.0
 50
0.0
 51
82.874983651098191
  0
ARC
  5
1CB
  8
1
 62
     7
 10
-85.150596624168074
 20
741.59065521182163
 30
0.0
 40
2.0
 50
180.0
 51
262.87498365109809
  0
ARC
  5
1CC
  8
1
 62
     7
 10
-191.150596624168
 20
697.59065521182163
 30
0.0
 40
2.0
 50
180.0
 51
262.8749836510986
  0
ARC
  5
1CD
  8
1
 62
     7
 10
-187.150596624168
 20
693.05952633767231
 30
0.0
 40
2.0
 50
0.0
 51
82.874983651099427
  0
ARC
  5
1CE
  8
1
 62
     7
 10
-191.150596624168
 20
737.0595263376722
 30
0.0
 40
2.0000000000000062
 50
97.125016348901426
 51
180.0
  0
ARC
  5
1CF
  8
1
 62
     7
 10
-187.150596624168
 20
741.59065521182163
 30
0.0
 40
2.0000000000000031
 50
277.1250163489006
 51
0.0
  0
ARC
  5
1D0
  8
1
 62
     7
 10
-81.150596624168088
 20
531.34386985160143
 30
0.0
 40
2.0000000000000071
 50
277.1250163489018
 51
0.0
  0
ARC
  5
1D1
  8
1
 62
     7
 10
-85.150596624168074
 20
526.81274097745199
 30
0.0
 40
2.0000000000000071
 50
97.125016348901795
 51
180.0
  0
ARC
  5
1D2
  8
1
 62
     7
 10
-81.150596624168088
 20
570.81274097745211
 30
0.0
 40
2.0
 50
0.0
 51
82.874983651098191
  0
ARC
  5
1D3
  8
1
 62
     7
 10
-85.150596624168074
 20
575.34386985160131
 30
0.0
 40
2.0
 50
180.0
 51
262.87498365109809
  0
ARC
  5
1D4
  8
1
 62
     7
 10
-91.150596624168088
 20
509.0783054145266
 30
0.0
 40
2.0
 50
90.0
 51
180.0
  0
ARC
  5
1D5
  8
1
 62
     7
 10
-95.150596624168074
 20
591.07830541452677
 30
0.0
 40
2.0
 50
0.0
 51
90.0
  0
ARC
  5
1D6
  8
1
 62
     7
 10
-91.686495009030367
 20
593.07830541452665
 30
0.0
 40
1.999999999999992
 50
210.0
 51
270.0
  0
ARC
  5
1D7
  8
1
 62
     7
 10
40.924393450289799
 20
539.07830541452677
 30
0.0
 40
8.9999999999999822
 50
169.37760719728021
 51
202.58070639532059
  0
ARC
  5
1D8
  8
1
 62
     7
 10
-98.100596624168134
 20
540.62830541452684
 30
0.0
 40
1.7425000000000059
 50
180.0
 51
270.0
  0
ARC
  5
1D9
  8
1
 62
     7
 10
-102.200596624168
 20
540.62830541452684
 30
0.0
 40
1.7424999999999491
 50
270.0
 51
0.0
  0
ARC
  5
1DA
  8
1
 62
     7
 10
-102.200596624168
 20
536.52830541452681
 30
0.0
 40
1.7424999999999931
 50
0.0
 51
90.0
  0
ARC
  5
1DB
  8
1
 62
     7
 10
-98.100596624168134
 20
536.52830541452681
 30
0.0
 40
1.7425000000000641
 50
90.0
 51
180.0
  0
ARC
  5
1DC
  8
1
 62
     7
 10
114.07098408606601
 20
539.07830541452677
 30
0.0
 40
9.0000000000000426
 50
337.4192936046793
 51
10.62239280271972
  0
ARC
  5
1DD
  8
1
 62
     7
 10
155.49768876817791
 20
551.07830541452677
 30
0.0
 40
118.0
 50
164.50169878930379
 51
195.49830121069601
  0
ARC
  5
1DE
  8
1
 62
     7
 10
77.497688768177866
 20
629.07830541452677
 30
0.0
 40
118.0000000000001
 50
254.5016987893039
 51
285.49830121069613
  0
ARC
  5
1DF
  8
1
 62
     7
 10
-0.5023112318221195
 20
551.07830541452677
 30
0.0
 40
118.0
 50
344.50169878930382
 51
15.4983012106961
  0
ARC
  5
1E0
  8
1
 62
     7
 10
77.497688768177838
 20
473.07830541452682
 30
0.0
 40
119.9999999999999
 50
91.432543737566476
 51
105.4983012106959
  0
ARC
  5
1E1
  8
1
 62
     7
 10
77.497688768177838
 20
473.07830541452682
 30
0.0
 40
117.9999999999999
 50
74.501698789303944
 51
105.4983012106959
  0
ARC
  5
1E2
  8
1
 62
     7
 10
48.497688768177888
 20
488.07830541452671
 30
0.0
 40
1.0
 50
90.0
 51
180.0
  0
ARC
  5
1E3
  8
1
 62
     7
 10
106.49768876817789
 20
488.07830541452671
 30
0.0
 40
1.0
 50
0.0
 51
90.0
  0
ARC
  5
1E4
  8
1
 62
     7
 10
155.49768876817791
 20
551.07830541452677
 30
0.0
 40
120.0
 50
164.50169878930399
 51
202.2737513736584
  0
ARC
  5
1E5
  8
1
 62
     7
 10
40.750139774746209
 20
504.07830541452682
 30
0.0
 40
4.0
 50
270.0
 51
22.273751373657461
  0
ARC
  5
1E6
  8
1
 62
     7
 10
-0.5023112318221195
 20
551.07830541452677
 30
0.0
 40
120.0000000000001
 50
337.72624862634137
 51
15.498301210696029
  0
ARC
  5
1E7
  8
1
 62
     7
 10
114.2452377616095
 20
504.07830541452682
 30
0.0
 40
3.9999999999999711
 50
157.7262486263424
 51
270.0
  0
ARC
  5
1E8
  8
1
 62
     7
 10
77.497688768177909
 20
551.07830541452677
 30
0.0
 40
7.5000000000000524
 50
109.47122063449051
 51
70.528779365509479
  0
ARC
  5
1E9
  8
1
 62
     7
 10
77.497688768177909
 20
551.07830541452677
 30
0.0
 40
7.0000000000000071
 50
110.92483242763829
 51
69.075167572361721
  0
ARC
  5
1EA
  8
1
 62
     7
 10
155.49768876817791
 20
551.07830541452677
 30
0.0
 40
121.0
 50
164.50169878930399
 51
188.07654098481461
  0
ARC
  5
1EB
  8
1
 62
     7
 10
47.570190627015073
 20
581.00580355568945
 30
0.0
 40
8.9999999999999627
 50
105.4983012106955
 51
164.50169878930461
  0
ARC
  5
1EC
  8
1
 62
     7
 10
77.497688768177838
 20
473.07830541452682
 30
0.0
 40
120.9999999999999
 50
91.657547133742455
 51
105.4983012106959
  0
ARC
  5
1ED
  8
1
 62
     7
 10
107.4251869093407
 20
581.00580355568945
 30
0.0
 40
8.9999999999999751
 50
15.498301210696191
 51
74.50169878930383
  0
ARC
  5
1EE
  8
1
 62
     7
 10
-0.5023112318221195
 20
551.07830541452677
 30
0.0
 40
121.0
 50
351.92345901518541
 51
15.49830121069605
  0
ARC
  5
1EF
  8
1
 62
     7
 10
77.497688768177909
 20
551.67830541452679
 30
0.0
 40
8.7000000000000171
 50
308.02981351104302
 51
73.300251119737695
  0
ARC
  5
1F0
  8
1
 62
     7
 10
77.497688768177909
 20
551.67830541452679
 30
0.0
 40
8.700000000000049
 50
106.6997488802625
 51
231.97018648895721
  0
ARC
  5
1F1
  8
1
 62
     7
 10
77.497688768177838
 20
473.07830541452682
 30
0.0
 40
121.0
 50
74.501698789303944
 51
88.34245286625746
  0
ARC
  5
1F2
  8
1
 62
     7
 10
77.497688768177838
 20
473.07830541452682
 30
0.0
 40
120.0
 50
74.501698789303973
 51
88.567456262433495
  0
ARC
  5
1F3
  8
1
 62
     7
 10
-127.650596624168
 20
505.07830541452682
 30
0.0
 40
4.9999999999999858
 50
180.0
 51
270.0
  0
ARC
  5
1F4
  8
1
 62
     7
 10
-191.150596624168
 20
531.34386985160143
 30
0.0
 40
2.0
 50
180.0
 51
262.8749836510986
  0
ARC
  5
1F5
  8
1
 62
     7
 10
-187.150596624168
 20
526.81274097745199
 30
0.0
 40
2.0
 50
0.0
 51
82.874983651099427
  0
ARC
  5
1F6
  8
1
 62
     7
 10
-191.150596624168
 20
570.81274097745211
 30
0.0
 40
2.0000000000000062
 50
97.125016348901426
 51
180.0
  0
ARC
  5
1F7
  8
1
 62
     7
 10
-187.150596624168
 20
575.34386985160131
 30
0.0
 40
2.0000000000000031
 50
277.1250163489006
 51
0.0
  0
ARC
  5
1F8
  8
1
 62
     7
 10
-181.150596624168
 20
509.0783054145266
 30
0.0
 40
2.0
 50
0.0
 51
90.0
  0
ARC
  5
1F9
  8
1
 62
     7
 10
-177.150596624168
 20
591.07830541452677
 30
0.0
 40
2.0
 50
90.0
 51
180.0
  0
ARC
  5
1FA
  8
1
 62
     7
 10
-180.61469823930571
 20
593.07830541452665
 30
0.0
 40
2.0
 50
270.0
 51
329.99999999999858
  0
ARC
  5
1FB
  8
1
 62
     7
 10
-174.2005966241681
 20
540.62830541452684
 30
0.0
 40
1.7424999999999491
 50
270.0
 51
0.0
  0
ARC
  5
1FC
  8
1
 62
     7
 10
-170.10059662416799
 20
540.62830541452684
 30
0.0
 40
1.7425000000000059
 50
180.0
 51
270.0
  0
ARC
  5
1FD
  8
1
 62
     7
 10
-170.10059662416799
 20
536.52830541452681
 30
0.0
 40
1.7425000000000641
 50
90.0
 51
180.0
  0
ARC
  5
1FE
  8
1
 62
     7
 10
-174.2005966241681
 20
536.52830541452681
 30
0.0
 40
1.7425000000000059
 50
0.0
 51
90.0
  0
ARC
  5
1FF
  8
1
 62
     7
 10
-144.650596624168
 20
505.07830541452682
 30
0.0
 40
5.0
 50
270.0
 51
0.0
  0
CIRCLE
  5
200
  8
1
 62
     7
 10
-174.150596624168
 20
716.1250907747467
 30
0.0
 40
0.9199999999999876
  0
CIRCLE
  5
201
  8
1
 62
     7
 10
-174.150596624168
 20
718.5250907747469
 30
0.0
 40
0.9199999999999876
  0
CIRCLE
  5
202
  8
1
 62
     7
 10
-174.150596624168
 20
717.32509077474685
 30
0.0
 40
3.5
  0
CIRCLE
  5
203
  8
1
 62
     7
 10
-98.150596624168074
 20
716.1250907747467
 30
0.0
 40
0.9199999999999592
  0
CIRCLE
  5
204
  8
1
 62
     7
 10
-98.150596624168074
 20
718.5250907747469
 30
0.0
 40
0.9199999999999592
  0
CIRCLE
  5
205
  8
1
 62
     7
 10
-98.150596624168074
 20
717.32509077474685
 30
0.0
 40
3.5000000000000129
  0
CIRCLE
  5
206
  8
1
 62
     7
 10
-171.150596624168
 20
767.3250907747472
 30
0.0
 40
4.25
  0
CIRCLE
  5
207
  8
1
 62
     7
 10
-101.150596624168
 20
767.3250907747472
 30
0.0
 40
4.2500000000000133
  0
CIRCLE
  5
208
  8
1
 62
     7
 10
-171.150596624168
 20
667.32509077474685
 30
0.0
 40
4.25
  0
CIRCLE
  5
209
  8
1
 62
     7
 10
-101.150596624168
 20
667.32509077474685
 30
0.0
 40
4.2500000000000133
  0
CIRCLE
  5
20A
  8
1
 62
     7
 10
-100.150596624168
 20
538.57830541452677
 30
0.0
 40
3.5000000000000129
  0
CIRCLE
  5
20B
  8
1
 62
     7
 10
-100.150596624168
 20
538.57830541452677
 30
0.0
 40
5.0000000000000133
  0
CIRCLE
  5
20C
  8
1
 62
     7
 10
107.1961735780128
 20
580.77679022436166
 30
0.0
 40
4.5999999999999943
  0
CIRCLE
  5
20D
  8
1
 62
     7
 10
107.1961735780128
 20
580.77679022436166
 30
0.0
 40
3.75
  0
CIRCLE
  5
20E
  8
1
 62
     7
 10
107.1961735780128
 20
580.77679022436166
 30
0.0
 40
4.25
  0
CIRCLE
  5
20F
  8
1
 62
     7
 10
107.1961735780128
 20
521.37982060469164
 30
0.0
 40
4.25
  0
CIRCLE
  5
210
  8
1
 62
     7
 10
107.1961735780128
 20
521.37982060469164
 30
0.0
 40
3.75
  0
CIRCLE
  5
211
  8
1
 62
     7
 10
107.1961735780128
 20
521.37982060469164
 30
0.0
 40
4.5999999999999943
  0
CIRCLE
  5
212
  8
1
 62
     7
 10
47.799203958342908
 20
580.77679022436166
 30
0.0
 40
4.25
  0
CIRCLE
  5
213
  8
1
 62
     7
 10
47.799203958342908
 20
580.77679022436166
 30
0.0
 40
3.75
  0
CIRCLE
  5
214
  8
1
 62
     7
 10
47.799203958342908
 20
580.77679022436166
 30
0.0
 40
4.6000000000000156
  0
CIRCLE
  5
215
  8
1
 62
     7
 10
47.799203958342908
 20
521.37982060469164
 30
0.0
 40
4.6000000000000156
  0
CIRCLE
  5
216
  8
1
 62
     7
 10
47.799203958342908
 20
521.37982060469164
 30
0.0
 40
3.75
  0
CIRCLE
  5
217
  8
1
 62
     7
 10
47.799203958342908
 20
521.37982060469164
 30
0.0
 40
4.25
  0
CIRCLE
  5
218
  8
1
 62
     7
 10
77.497688768177909
 20
551.07830541452677
 30
0.0
 40
17.5
  0
CIRCLE
  5
219
  8
1
 62
     7
 10
77.497688768177909
 20
551.07830541452677
 30
0.0
 40
21.499999999999989
  0
CIRCLE
  5
21A
  8
1
 62
     7
 10
77.497688768177909
 20
551.07830541452677
 30
0.0
 40
22.5
  0
CIRCLE
  5
21B
  8
1
 62
     7
 10
77.497688768177909
 20
578.07830541452665
 30
0.0
 40
2.9000000000000061
  0
CIRCLE
  5
21C
  8
1
 62
     7
 10
50.497688768177881
 20
551.07830541452677
 30
0.0
 40
2.8999999999999759
  0
CIRCLE
  5
21D
  8
1
 62
     7
 10
77.497688768177866
 20
524.07830541452688
 30
0.0
 40
2.9000000000000061
  0
CIRCLE
  5
21E
  8
1
 62
     7
 10
104.49768876817789
 20
551.07830541452677
 30
0.0
 40
2.9000000000000061
  0
CIRCLE
  5
21F
  8
1
 62
     7
 10
79.763797107860398
 20
541.82182897616258
 30
0.0
 40
0.9000000000000056
  0
CIRCLE
  5
220
  8
1
 62
     7
 10
75.231580428495377
 20
541.82182897616258
 30
0.0
 40
0.9000000000000056
  0
CIRCLE
  5
221
  8
1
 62
     7
 10
-172.150596624168
 20
538.57830541452677
 30
0.0
 40
3.5
  0
CIRCLE
  5
222
  8
1
 62
     7
 10
-172.150596624168
 20
538.57830541452677
 30
0.0
 40
5.0
  0
TEXT
  5
224
  8
1
 62
     7
 10
-144.6778088545509
 20
630.45089889557289
 30
0.0
 40
4.5
  1
AMU 80C
 41
0.9
  7
SIMPLEX
  0
TEXT
  5
225
  8
1
 62
     3
 10
59.497688768177881
 20
494.07830541452682
 30
0.0
 40
8.0
  1
INPUT
 41
0.8732691000000002
  7
COMPLEX
  0
ENDSEC
  0
EOF
