  0
SECTION
  2
HEADER
  9
$ACADVER
  1
AC1009
  9
$INSBASE
 10
0
 20
0
  9
$EXTMIN
 10
519.2408805113083
 20
-104.0305917100422
  9
$EXTMAX
 10
592.5155131252749
 20
-72.78903326848374
  9
$LIMMIN
 10
519.2408805113083
 20
-104.0305917100422
  9
$LIMMAX
 10
592.5155131252749
 20
-72.78903326848374
  9
$VIEWCTR
 10
10
 20
10
  9
$VIEWSIZE
 40
10
  9
$SNAPMODE
 70
0
  9
$SNAPUNIT
 10
1
 20
1
  9
$SNAPBASE
 10
0
 20
0
  9
$SNAPANG
 50
0
  9
$SNAPSTYLE
 70
0
  9
$SNAPISOPAIR
 70
0
  9
$GRIDMODE
 70
0
  9
$GRIDUNIT
 10
0
 20
0
  9
$ORTHOMODE
 70
0
  9
$REGENMODE
 70
1
  9
$FILLMODE
 70
1
  9
$QTEXTMODE
 70
0
  9
$DRAGMODE
 70
2
  9
$LTSCALE
 40
1
  9
$OSMODE
 70
0
  9
$ATTMODE
 70
1
  9
$TEXTSIZE
 40
3.5
  9
$TRACEWID
 40
0.5
  9
$TEXTSTYLE
  7
STANDARD
  9
$CLAYER
  8
0
  9
$CELTYPE
  6
BYLAYER
  9
$CECOLOR
 62
256
  9
$DIMSCALE
 40
1
  9
$DIMASZ
 40
0.18
  9
$DIMEXO
 40
0.0625
  9
$DIMDLI
 40
0.38
  9
$DIMRND
 40
0
  9
$DIMDLE
 40
0
  9
$DIMEXE
 40
0.18
  9
$DIMTP
 40
0
  9
$DIMTM
 40
0
  9
$DIMTXT
 40
0.18
  9
$DIMCEN
 40
0.09
  9
$DIMTSZ
 40
0
  9
$DIMTOL
 70
0
  9
$DIMLIM
 70
0
  9
$DIMTIH
 70
1
  9
$DIMTOH
 70
1
  9
$DIMSE1
 70
0
  9
$DIMSE2
 70
0
  9
$DIMTAD
 70
0
  9
$DIMZIN
 70
0
  9
$DIMBLK
  1

  9
$DIMASO
 70
1
  9
$DIMSHO
 70
1
  9
$DIMPOST
  1

  9
$DIMAPOST
  1

  9
$DIMALT
 70
0
  9
$DIMALTD
 70
2
  9
$DIMALTF
 40
25.4
  9
$DIMLFAC
 40
1
  9
$DIMTOFL
 70
0
  9
$DIMTVP
 40
0
  9
$DIMTIX
 70
0
  9
$DIMSOXD
 70
0
  9
$DIMSAH
 70
0
  9
$DIMBLK1
  1

  9
$DIMBLK2
  1

  9
$DIMSTYLE
  2
*UNNAMED
  9
$DIMCLRD
 70
0
  9
$DIMCLRE
 70
0
  9
$DIMCLRT
 70
0
  9
$DIMTFAC
 40
1
  9
$DIMGAP
 40
0.09
  9
$LUNITS
 70
2
  9
$LUPREC
 70
4
  9
$AXISMODE
 70
0
  9
$AXISUNIT
 10
0
 20
0
  9
$SKETCHINC
 40
0.1
  9
$FILLETRAD
 40
2
  9
$AUNITS
 70
0
  9
$AUPREC
 70
0
  9
$MENU
  1
ACAD
  9
$ELEVATION
 40
0
  9
$THICKNESS
 40
0
  9
$VIEWDIR
 10
0
 20
0
 30
1
  9
$LIMCHECK
 70
0
  9
$BLIPMODE
 70
1
  9
$CHAMFERA
 40
0
  9
$CHAMFERB
 40
0
  9
$FASTZOOM
 70
1
  9
$SKPOLY
 70
0
  9
$ANGBASE
 50
0
  9
$ANGDIR
 70
0
  9
$PDMODE
 70
0
  9
$PDSIZE
 40
0
  9
$PLINEWID
 40
0
  9
$COORDS
 70
2
  0
ENDSEC
  0
SECTION
  2
TABLES
  0
TABLE
  2
DIMSTYLE
 70
0
  0
ENDTAB
  0
TABLE
  2
LTYPE
 70
9
  0
LTYPE
  2
CONTINUOUS
 70
64
  3
Solid line
 72
65
 73
0
 40
0
  0
LTYPE
  2
BORDER
 70
64
  3
__ __ . __ __ .
 72
65
 73
6
 40
3.374489659853723
 49
0.9641399028153495
 49
-0.4820699514076747
 49
0.9641399028153495
 49
-0.4820699514076747
 49
0
 49
-0.4820699514076747
  0
LTYPE
  2
CENTER
 70
64
  3
____ _ ____ _
 72
65
 73
4
 40
3.856559611261398
 49
2.410349757038373
 49
-0.4820699514076747
 49
0.4820699514076747
 49
-0.4820699514076747
  0
LTYPE
  2
DASHDOT
 70
64
  3
__ . __ . __ .
 72
65
 73
4
 40
1.928279805630699
 49
0.9641399028153495
 49
-0.4820699514076747
 49
0
 49
-0.4820699514076747
  0
LTYPE
  2
DASHED
 70
64
  3
__ __ __ __ __
 72
65
 73
2
 40
1.446209854223024
 49
0.9641399028153495
 49
-0.4820699514076747
  0
LTYPE
  2
DIVIDE
 70
64
  3
__ . . __ . . 
 72
65
 73
6
 40
2.410349757038373
 49
0.9641399028153495
 49
-0.4820699514076747
 49
0
 49
-0.4820699514076747
 49
0
 49
-0.4820699514076747
  0
LTYPE
  2
DOT
 70
64
  3
..............
 72
65
 73
4
 40
0.9641399028153495
 49
0
 49
-0.4820699514076747
 49
0
 49
-0.4820699514076747
  0
LTYPE
  2
HIDDEN
 70
64
  3
_ _ _ _ _ _ _
 72
65
 73
2
 40
0.7231049271115121
 49
0.4820699514076747
 49
-0.2410349757038374
  0
LTYPE
  2
PHANTOM
 70
64
  3
_____ _ _ _____ _ _ 
 72
65
 73
6
 40
4.820699514076747
 49
2.410349757038373
 49
-0.4820699514076747
 49
0.4820699514076747
 49
-0.4820699514076747
 49
0.4820699514076747
 49
-0.4820699514076747
  0
ENDTAB
  0
TABLE
  2
LAYER
 70
3
  0
LAYER
  2
1
 70
0
 62
7
  6
CONTINUOUS
  0
LAYER
  2
0
 70
0
 62
7
  6
CONTINUOUS
  0
ENDTAB
  0
TABLE
  2
STYLE
 70
4
  0
STYLE
  2
STANDARD
 70
0
 40
0
 41
1
 50
0
 71
0
 42
3.5
  3
txt
  4

  0
STYLE
  2
SIMPLEX
 70
0
 40
0
 41
1
 50
0
 71
0
 42
3.5
  3
simplex
  4

  0
STYLE
  2
COMPLEX
 70
0
 40
0
 41
1
 50
0
 71
0
 42
3.5
  3
complex
  4

  0
STYLE
  2
ITALIC
 70
0
 40
0
 41
1
 50
0
 71
0
 42
3.5
  3
italic
  4

  0
ENDTAB
  0
TABLE
  2
VIEW
 70
0
  0
ENDTAB
  0
ENDSEC
  0
SECTION
  2
BLOCKS
  0
BLOCK
  8
1
  2
*X0
 70
1
 10
0
 20
0
 30
0
  0
LINE
  8
1
 62
3
 10
540.8408805113095
 20
-89
 30
0
 11
542.3408805113095
 21
-89
 31
0
  0
LINE
  8
1
 62
3
 10
540.8408805113095
 20
-89.5
 30
0
 11
542.3408805113095
 21
-89.5
 31
0
  0
LINE
  8
1
 62
3
 10
540.8408805113095
 20
-90
 30
0
 11
542.3408805113095
 21
-90
 31
0
  0
LINE
  8
1
 62
3
 10
540.8408805113095
 20
-90.5
 30
0
 11
542.3408805113095
 21
-90.5
 31
0
  0
LINE
  8
1
 62
3
 10
540.8408805113095
 20
-91
 30
0
 11
542.3408805113095
 21
-91
 31
0
  0
LINE
  8
1
 62
3
 10
540.8408805113095
 20
-91.5
 30
0
 11
542.3408805113095
 21
-91.5
 31
0
  0
LINE
  8
1
 62
3
 10
540.8408805113095
 20
-92
 30
0
 11
542.3408805113095
 21
-92
 31
0
  0
LINE
  8
1
 62
3
 10
540.8408805113095
 20
-92.5
 30
0
 11
542.3408805113095
 21
-92.5
 31
0
  0
LINE
  8
1
 62
3
 10
540.8408805113095
 20
-93
 30
0
 11
542.3408805113095
 21
-93
 31
0
  0
LINE
  8
1
 62
3
 10
540.8408805113095
 20
-93.5
 30
0
 11
542.3408805113095
 21
-93.5
 31
0
  0
LINE
  8
1
 62
3
 10
540.8408805113095
 20
-94
 30
0
 11
542.3408805113095
 21
-94
 31
0
  0
LINE
  8
1
 62
3
 10
540.8408805113095
 20
-94.5
 30
0
 11
542.3408805113095
 21
-94.5
 31
0
  0
LINE
  8
1
 62
3
 10
540.8408805113095
 20
-95
 30
0
 11
542.3408805113095
 21
-95
 31
0
  0
LINE
  8
1
 62
3
 10
540.8408805113095
 20
-95.5
 30
0
 11
542.3408805113095
 21
-95.5
 31
0
  0
LINE
  8
1
 62
3
 10
540.8408805113095
 20
-96
 30
0
 11
542.3408805113095
 21
-96
 31
0
  0
LINE
  8
1
 62
3
 10
540.8408805113095
 20
-96.5
 30
0
 11
542.3408805113095
 21
-96.5
 31
0
  0
LINE
  8
1
 62
3
 10
540.8408805113095
 20
-97
 30
0
 11
542.3408805113095
 21
-97
 31
0
  0
LINE
  8
1
 62
3
 10
540.8408805113095
 20
-97.5
 30
0
 11
542.3408805113095
 21
-97.5
 31
0
  0
LINE
  8
1
 62
3
 10
540.8408805113095
 20
-98
 30
0
 11
542.3408805113095
 21
-98
 31
0
  0
LINE
  8
1
 62
3
 10
540.8408805113095
 20
-98.5
 30
0
 11
542.3408805113095
 21
-98.5
 31
0
  0
LINE
  8
1
 62
3
 10
540.8408805113095
 20
-99
 30
0
 11
542.3408805113095
 21
-99
 31
0
  0
LINE
  8
1
 62
3
 10
540.8408805113095
 20
-99.5
 30
0
 11
542.3408805113095
 21
-99.5
 31
0
  0
LINE
  8
1
 62
3
 10
540.8408805113095
 20
-100
 30
0
 11
542.3408805113095
 21
-100
 31
0
  0
LINE
  8
1
 62
3
 10
540.8408805113095
 20
-100.5
 30
0
 11
542.3408805113095
 21
-100.5
 31
0
  0
LINE
  8
1
 62
3
 10
540.8408805113095
 20
-101
 30
0
 11
542.3408805113095
 21
-101
 31
0
  0
LINE
  8
1
 62
3
 10
540.8408805113095
 20
-101.5
 30
0
 11
542.3408805113095
 21
-101.5
 31
0
  0
ENDBLK
  8
0
  0
BLOCK
  8
1
  2
*X1
 70
1
 10
0
 20
0
 30
0
  0
LINE
  8
1
 62
3
 10
540.8408805113095
 20
-76
 30
0
 11
542.3408805113095
 21
-76
 31
0
  0
LINE
  8
1
 62
3
 10
540.8408805113095
 20
-76.5
 30
0
 11
542.3408805113095
 21
-76.5
 31
0
  0
LINE
  8
1
 62
3
 10
540.8408805113095
 20
-77
 30
0
 11
542.3408805113095
 21
-77
 31
0
  0
LINE
  8
1
 62
3
 10
540.8408805113095
 20
-77.5
 30
0
 11
542.3408805113095
 21
-77.5
 31
0
  0
LINE
  8
1
 62
3
 10
540.8408805113095
 20
-78
 30
0
 11
542.3408805113095
 21
-78
 31
0
  0
LINE
  8
1
 62
3
 10
540.8408805113095
 20
-78.5
 30
0
 11
542.3408805113095
 21
-78.5
 31
0
  0
LINE
  8
1
 62
3
 10
540.8408805113095
 20
-79
 30
0
 11
542.3408805113095
 21
-79
 31
0
  0
LINE
  8
1
 62
3
 10
540.8408805113095
 20
-79.5
 30
0
 11
542.3408805113095
 21
-79.5
 31
0
  0
LINE
  8
1
 62
3
 10
540.8408805113095
 20
-80
 30
0
 11
542.3408805113095
 21
-80
 31
0
  0
LINE
  8
1
 62
3
 10
540.8408805113095
 20
-80.5
 30
0
 11
542.3408805113095
 21
-80.5
 31
0
  0
LINE
  8
1
 62
3
 10
540.8408805113095
 20
-81
 30
0
 11
542.3408805113095
 21
-81
 31
0
  0
LINE
  8
1
 62
3
 10
540.8408805113095
 20
-81.5
 30
0
 11
542.3408805113095
 21
-81.5
 31
0
  0
LINE
  8
1
 62
3
 10
540.8408805113095
 20
-82
 30
0
 11
542.3408805113095
 21
-82
 31
0
  0
LINE
  8
1
 62
3
 10
540.8408805113095
 20
-82.5
 30
0
 11
542.3408805113095
 21
-82.5
 31
0
  0
LINE
  8
1
 62
3
 10
540.8408805113095
 20
-83
 30
0
 11
542.3408805113095
 21
-83
 31
0
  0
LINE
  8
1
 62
3
 10
540.8408805113095
 20
-83.5
 30
0
 11
542.3408805113095
 21
-83.5
 31
0
  0
LINE
  8
1
 62
3
 10
540.8408805113095
 20
-84
 30
0
 11
542.3408805113095
 21
-84
 31
0
  0
LINE
  8
1
 62
3
 10
540.8408805113095
 20
-84.5
 30
0
 11
542.3408805113095
 21
-84.5
 31
0
  0
LINE
  8
1
 62
3
 10
540.8408805113095
 20
-85
 30
0
 11
542.3408805113095
 21
-85
 31
0
  0
LINE
  8
1
 62
3
 10
540.8408805113095
 20
-85.5
 30
0
 11
542.3408805113095
 21
-85.5
 31
0
  0
LINE
  8
1
 62
3
 10
540.8408805113095
 20
-86
 30
0
 11
542.3408805113095
 21
-86
 31
0
  0
LINE
  8
1
 62
3
 10
540.8408805113095
 20
-86.5
 30
0
 11
542.3408805113095
 21
-86.5
 31
0
  0
LINE
  8
1
 62
3
 10
540.8408805113095
 20
-87
 30
0
 11
542.3408805113095
 21
-87
 31
0
  0
LINE
  8
1
 62
3
 10
540.8408805113095
 20
-87.5
 30
0
 11
542.3408805113095
 21
-87.5
 31
0
  0
LINE
  8
1
 62
3
 10
540.8408805113095
 20
-88
 30
0
 11
542.3408805113095
 21
-88
 31
0
  0
LINE
  8
1
 62
3
 10
540.8408805113095
 20
-88.5
 30
0
 11
542.3408805113095
 21
-88.5
 31
0
  0
ENDBLK
  8
0
  0
ENDSEC
  0
SECTION
  2
ENTITIES
  0
INSERT
  8
1
  2
*X0
 10
0
 20
0
 30
0
  0
INSERT
  8
1
  2
*X1
 10
0
 20
0
 30
0
  0
LINE
  8
1
 62
3
  6
DASHDOT
 10
538.5408805113101
 20
-101.1395680075507
 30
0
 11
538.5408805113101
 21
-103.2940578034691
 31
0
  0
LINE
  8
1
 62
7
 10
540.7408805113081
 20
-100.3866121695447
 30
0
 11
540.8408805113095
 21
-100.3866121695447
 31
0
  0
LINE
  8
1
 62
7
 10
540.7408805113081
 20
-88.88661216954463
 30
0
 11
540.7408805113081
 21
-101.8866121695447
 31
0
  0
LINE
  8
1
 62
7
 10
542.3408805113095
 20
-75.88661216954463
 30
0
 11
542.3408805113095
 21
-86.88661216954463
 31
0
  0
LINE
  8
1
 62
7
 10
540.8408805113095
 20
-75.88661216954463
 30
0
 11
542.3408805113095
 21
-75.88661216954463
 31
0
  0
LINE
  8
1
 62
7
 10
542.3408805113095
 20
-88.88661216954463
 30
0
 11
542.3408805113095
 21
-101.8866121695447
 31
0
  0
LINE
  8
1
 62
7
 10
540.8408805113095
 20
-101.8866121695447
 30
0
 11
540.8408805113095
 21
-100.3866121695447
 31
0
  0
LINE
  8
1
 62
7
 10
542.3408805113095
 20
-101.8866121695447
 30
0
 11
540.8408805113095
 21
-101.8866121695447
 31
0
  0
LINE
  8
1
 62
3
  6
DASHDOT
 10
519.2408805113083
 20
-88.88661216954463
 30
0
 11
558.6006626219282
 21
-88.88661216954463
 31
0
  0
LINE
  8
1
 62
7
 10
556.3408805113088
 20
-91.38661216954463
 30
0
 11
542.3408805113088
 21
-91.38661216954463
 31
0
  0
LINE
  8
1
 62
7
 10
540.8408805113095
 20
-100.3866121695447
 30
0
 11
540.8408805113095
 21
-88.88661216954463
 31
0
  0
LINE
  8
1
 62
7
 10
521.3408805113081
 20
-75.88661216954463
 30
0
 11
540.7408805113081
 21
-75.88661216954463
 31
0
  0
LINE
  8
1
 62
7
 10
521.3408805113081
 20
-75.88661216954463
 30
0
 11
521.3408805113081
 21
-101.8866121695447
 31
0
  0
LINE
  8
1
 62
7
 10
522.8408805113081
 20
-75.88661216954463
 30
0
 11
522.8408805113081
 21
-101.8866121695447
 31
0
  0
LINE
  8
1
 62
7
 10
521.3408805113081
 20
-101.8866121695447
 30
0
 11
540.7408805113081
 21
-101.8866121695447
 31
0
  0
LINE
  8
1
 62
7
 10
556.3408805113088
 20
-86.38661216954466
 30
0
 11
556.3408805113088
 21
-91.38661216954463
 31
0
  0
LINE
  8
1
 62
7
 10
578.3122224491857
 20
-86.88661216954463
 30
0
 11
579.8122224491857
 21
-86.88661216954463
 31
0
  0
LINE
  8
1
 62
3
  6
DASHDOT
 10
592.5155131252749
 20
-88.88661216954463
 30
0
 11
564.504647821076
 21
-88.88661216954463
 31
0
  0
LINE
  8
1
 62
3
  6
DASHDOT
 10
578.3122224491857
 20
-72.78903326848374
 30
0
 11
578.3122224491857
 21
-104.0305917100422
 31
0
  0
LINE
  8
1
 62
3
  6
DASHDOT
 10
583.82636976267
 20
-98.43739547691854
 30
0
 11
580.8122224491857
 21
-93.21673918846673
 31
0
  0
LINE
  8
1
 62
3
  6
DASHDOT
 10
583.6509993914719
 20
-79.63957925522783
 30
0
 11
580.8122224491857
 21
-84.55648515062245
 31
0
  0
LINE
  8
1
 62
7
 10
576.8122224491857
 20
-86.88661216954463
 30
0
 11
578.3122224491857
 21
-86.88661216954463
 31
0
  0
LINE
  8
1
 62
7
 10
579.8122224491858
 20
-75.88661216954455
 30
0
 11
576.8122224491857
 21
-75.88661216954463
 31
0
  0
LINE
  8
1
 62
7
 10
579.8122224491858
 20
-75.88661216954455
 30
0
 11
579.7907107752239
 21
-75.47614497829605
 31
0
  0
LINE
  8
1
 62
7
 10
576.8337341231477
 20
-75.47614497829605
 30
0
 11
576.8122224491857
 21
-75.88661216954463
 31
0
  0
LINE
  8
1
 62
7
 10
579.5909848682729
 20
-75.28661216954464
 30
0
 11
577.0334600300986
 21
-75.28661216954464
 31
0
  0
LINE
  8
1
 62
7
 10
576.8122224491857
 20
-101.8866121695447
 30
0
 11
579.8122224491858
 21
-101.8866121695447
 31
0
  0
LINE
  8
1
 62
7
 10
579.7907107752239
 20
-102.2970793607932
 30
0
 11
579.8122224491858
 21
-101.8866121695447
 31
0
  0
LINE
  8
1
 62
7
 10
576.8122224491857
 20
-101.8866121695447
 30
0
 11
576.8337341231477
 21
-102.2970793607932
 31
0
  0
LINE
  8
1
 62
7
 10
577.0334600300986
 20
-102.4866121695446
 30
0
 11
579.5909848682729
 21
-102.4866121695446
 31
0
  0
LINE
  8
1
 62
3
  6
DOT
 10
577.3042430012854
 20
-101.8866121695447
 30
0
 11
577.3042430012854
 21
-97.48661216954463
 31
0
  0
LINE
  8
1
 62
3
  6
DOT
 10
579.3042430012854
 20
-97.48661216954463
 30
0
 11
579.3042430012854
 21
-101.8866121695447
 31
0
  0
LINE
  8
1
 62
3
  6
DOT
 10
577.3042430012854
 20
-100.3473816850034
 30
0
 11
579.3042430012854
 21
-100.3473816850034
 31
0
  0
LINE
  8
1
 62
3
  6
DOT
 10
577.3042430012854
 20
-101.3866121695447
 30
0
 11
577.9042430012852
 21
-100.3473816850034
 31
0
  0
LINE
  8
1
 62
3
  6
DOT
 10
577.9042430012852
 20
-100.3473816850034
 30
0
 11
577.9042430012852
 21
-96.88661216954463
 31
0
  0
LINE
  8
1
 62
3
  6
DOT
 10
579.3042430012854
 20
-101.3866121695447
 30
0
 11
578.7042430012851
 21
-100.3473816850034
 31
0
  0
LINE
  8
1
 62
3
  6
DOT
 10
578.7042430012851
 20
-100.3473816850034
 30
0
 11
578.7042430012851
 21
-96.88661216954463
 31
0
  0
LINE
  8
1
 62
3
  6
DOT
 10
577.3042430012854
 20
-97.48661216954463
 30
0
 11
579.3042430012854
 21
-97.48661216954463
 31
0
  0
LINE
  8
1
 62
3
  6
DOT
 10
577.3042430012854
 20
-97.48661216954463
 30
0
 11
577.9042430012852
 21
-96.88661216954463
 31
0
  0
LINE
  8
1
 62
3
  6
DOT
 10
577.9042430012852
 20
-96.88661216954463
 30
0
 11
578.7042430012851
 21
-96.88661216954463
 31
0
  0
LINE
  8
1
 62
3
  6
DOT
 10
578.7042430012851
 20
-96.88661216954463
 30
0
 11
579.3042430012854
 21
-97.48661216954463
 31
0
  0
LINE
  8
1
 62
3
  6
DOT
 10
579.3042430012854
 20
-77.42584265408593
 30
0
 11
577.3042430012854
 21
-77.42584265408593
 31
0
  0
LINE
  8
1
 62
3
  6
DOT
 10
577.9042430012852
 20
-77.42584265408593
 30
0
 11
577.3042430012854
 21
-76.38661216954463
 31
0
  0
LINE
  8
1
 62
3
  6
DOT
 10
577.9042430012852
 20
-80.88661216954463
 30
0
 11
577.9042430012852
 21
-77.42584265408593
 31
0
  0
LINE
  8
1
 62
3
  6
DOT
 10
578.7042430012851
 20
-77.42584265408593
 30
0
 11
579.3042430012854
 21
-76.38661216954463
 31
0
  0
LINE
  8
1
 62
3
  6
DOT
 10
578.7042430012851
 20
-80.88661216954463
 30
0
 11
578.7042430012851
 21
-77.42584265408593
 31
0
  0
LINE
  8
1
 62
3
  6
DOT
 10
579.3042430012854
 20
-80.28661216954464
 30
0
 11
577.3042430012854
 21
-80.28661216954464
 31
0
  0
LINE
  8
1
 62
3
  6
DOT
 10
577.3042430012854
 20
-80.28661216954464
 30
0
 11
577.3042430012854
 21
-75.88661216954463
 31
0
  0
LINE
  8
1
 62
3
  6
DOT
 10
577.9042430012852
 20
-80.88661216954463
 30
0
 11
577.3042430012854
 21
-80.28661216954464
 31
0
  0
LINE
  8
1
 62
3
  6
DOT
 10
578.7042430012851
 20
-80.88661216954463
 30
0
 11
577.9042430012852
 21
-80.88661216954463
 31
0
  0
LINE
  8
1
 62
3
  6
DOT
 10
579.3042430012854
 20
-80.28661216954464
 30
0
 11
578.7042430012851
 21
-80.88661216954463
 31
0
  0
LINE
  8
1
 62
3
  6
DOT
 10
579.3042430012854
 20
-75.88661216954463
 30
0
 11
579.3042430012854
 21
-80.28661216954464
 31
0
  0
LINE
  8
1
 62
7
 10
537.04088051131
 20
-101.8866121695447
 30
0
 11
540.0408805113095
 21
-101.8866121695447
 31
0
  0
LINE
  8
1
 62
7
 10
540.019368837348
 20
-102.2970793607932
 30
0
 11
540.0408805113095
 21
-101.8866121695447
 31
0
  0
LINE
  8
1
 62
7
 10
537.04088051131
 20
-101.8866121695447
 30
0
 11
537.0623921852719
 21
-102.2970793607932
 31
0
  0
LINE
  8
1
 62
7
 10
537.2621180922228
 20
-102.4866121695446
 30
0
 11
539.8196429303971
 21
-102.4866121695446
 31
0
  0
LINE
  8
1
 62
3
  6
DOT
 10
574.4820002335908
 20
-85.67267412111195
 30
0
 11
570.1327416298059
 21
-82.02321283078118
 31
0
  0
LINE
  8
1
 62
3
  6
DOT
 10
577.4439815608512
 20
-93.81065093460559
 30
0
 11
576.3971791844386
 21
-99.74736222068583
 31
0
  0
LINE
  8
1
 62
3
  6
DOT
 10
577.2122224491857
 20
-75.93323423172471
 30
0
 11
577.2122224491857
 21
-77.43934175254128
 31
0
  0
LINE
  8
1
 62
3
  6
DOT
 10
591.2656003870056
 20
-89.98661216954463
 30
0
 11
589.759492866189
 21
-89.98661216954463
 31
0
  0
LINE
  8
1
 62
3
  6
DOT
 10
579.4122224491857
 20
-100.333882586548
 30
0
 11
579.4122224491857
 21
-101.8399901073646
 31
0
  0
LINE
  8
1
 62
3
  6
DOT
 10
565.3588445113659
 20
-87.78661216954464
 30
0
 11
566.8649520321825
 21
-87.78661216954464
 31
0
  0
LINE
  8
1
 62
7
 10
575.275499517131
 20
-76.15757788433919
 30
0
 11
572.4564216547732
 21
-77.18363831431634
 31
0
  0
LINE
  8
1
 62
7
 10
575.275499517131
 20
-76.15757788433919
 30
0
 11
575.114897108267
 21
-75.77922231945991
 31
0
  0
LINE
  8
1
 62
7
 10
572.3362479684747
 20
-76.79056789781365
 30
0
 11
572.4564216547732
 21
-77.18363831431634
 31
0
  0
LINE
  8
1
 62
7
 10
574.8623921089113
 20
-75.66943002100059
 30
0
 11
572.4591048910021
 21
-76.54415503271194
 31
0
  0
LINE
  8
1
 62
7
 10
581.3489453812406
 20
-101.61564645475
 30
0
 11
584.1680232435984
 21
-100.589586024773
 31
0
  0
LINE
  8
1
 62
7
 10
584.2881969298969
 20
-100.9826564412755
 30
0
 11
584.1680232435984
 21
-100.589586024773
 31
0
  0
LINE
  8
1
 62
7
 10
581.3489453812406
 20
-101.61564645475
 30
0
 11
581.5095477901048
 21
-101.9940020196293
 31
0
  0
LINE
  8
1
 62
7
 10
581.7620527894603
 20
-102.1037943180886
 30
0
 11
584.1653400073694
 21
-101.2290693063773
 31
0
  0
LINE
  8
1
 62
3
  6
DASHDOT
 10
588.0103820930926
 20
-85.35677073200081
 30
0
 11
583.0106855531153
 21
-87.17651145291629
 31
0
  0
LINE
  8
1
 62
3
  6
DASHDOT
 10
582.277053524357
 20
-99.77989602052986
 30
0
 11
583.4917685021477
 21
-103.117297993083
 31
0
  0
LINE
  8
1
 62
3
  6
DASHDOT
 10
573.2778106424246
 20
-75.05467941023258
 30
0
 11
574.4456786070156
 21
-78.26337027185065
 31
0
  0
LINE
  8
1
 62
7
 10
542.3408805113088
 20
-86.38661216954466
 30
0
 11
556.3408805113088
 21
-86.38661216954466
 31
0
  0
LINE
  8
1
 62
3
  6
DASHDOT
 10
538.5408805113101
 20
-74.4791665356202
 30
0
 11
538.5408805113101
 21
-76.6336563315386
 31
0
  0
LINE
  8
1
 62
7
 10
540.8408805113095
 20
-77.38661216954459
 30
0
 11
540.7408805113081
 21
-77.38661216954459
 31
0
  0
LINE
  8
1
 62
7
 10
540.7408805113081
 20
-75.88661216954463
 30
0
 11
540.7408805113081
 21
-88.88661216954463
 31
0
  0
LINE
  8
1
 62
7
 10
542.3408805113095
 20
-75.88661216954463
 30
0
 11
542.3408805113095
 21
-88.88661216954463
 31
0
  0
LINE
  8
1
 62
7
 10
540.8408805113095
 20
-77.38661216954459
 30
0
 11
540.8408805113095
 21
-75.88661216954463
 31
0
  0
LINE
  8
1
 62
7
 10
540.8408805113095
 20
-75.88661216954463
 30
0
 11
542.3408805113095
 21
-75.88661216954463
 31
0
  0
LINE
  8
1
 62
7
 10
540.8408805113095
 20
-88.88661216954463
 30
0
 11
540.8408805113095
 21
-77.38661216954459
 31
0
  0
LINE
  8
1
 62
7
 10
540.0408805113095
 20
-75.88661216954459
 30
0
 11
537.04088051131
 21
-75.88661216954459
 31
0
  0
LINE
  8
1
 62
7
 10
540.0408805113095
 20
-75.88661216954459
 30
0
 11
540.019368837348
 21
-75.47614497829609
 31
0
  0
LINE
  8
1
 62
7
 10
537.0623921852719
 20
-75.47614497829609
 30
0
 11
537.04088051131
 21
-75.88661216954459
 31
0
  0
LINE
  8
1
 62
7
 10
539.8196429303971
 20
-75.2866121695447
 30
0
 11
537.2621180922228
 21
-75.2866121695447
 31
0
  0
ARC
  8
1
 62
7
 10
578.3122224491857
 20
-88.88661216954463
 30
0
 40
2.5
 50
270
 51
0
  0
ARC
  8
1
 62
7
 10
578.3122224491857
 20
-88.88661216954463
 30
0
 40
2.5
 50
0
 51
270
  0
ARC
  8
1
 62
3
  6
DOT
 10
578.3122224491857
 20
-88.88661216954463
 30
0
 40
11.5
 50
0
 51
95.48885756903657
  0
ARC
  8
1
 62
3
  6
DOT
 10
578.3122224491857
 20
-88.88661216954463
 30
0
 40
11.49999999999998
 50
354.5111424309636
 51
0
  0
ARC
  8
1
 62
3
  6
DOT
 10
578.3122224491857
 20
-88.88661216954463
 30
0
 40
11.49999999999986
 50
174.5111424309635
 51
275.4888575690366
  0
CIRCLE
  8
1
 62
7
 10
578.3122224491857
 20
-88.88661216954463
 30
0
 40
13
  0
CIRCLE
  8
1
 62
3
  6
DASHDOT
 10
578.3122224491857
 20
-88.88661216954463
 30
0
 40
7.75
  0
CIRCLE
  8
1
 62
7
 10
582.1872224491857
 20
-82.17491529021524
 30
0
 40
0.9000000000002628
  0
CIRCLE
  8
1
 62
3
 10
582.1872224491857
 20
-82.17491529021524
 30
0
 40
1.500000000000025
  0
CIRCLE
  8
1
 62
7
 10
570.5622224491857
 20
-88.88661216954463
 30
0
 40
0.9000000000000057
  0
CIRCLE
  8
1
 62
3
 10
570.5622224491857
 20
-88.88661216954463
 30
0
 40
1.5
  0
CIRCLE
  8
1
 62
7
 10
582.1872224491857
 20
-95.59830904887414
 30
0
 40
0.8999999999999107
  0
CIRCLE
  8
1
 62
3
 10
582.1872224491857
 20
-95.59830904887414
 30
0
 40
1.499999999999828
  0
CIRCLE
  8
1
 62
7
 10
578.3122224491857
 20
-88.88661216954463
 30
0
 40
5
  0
CIRCLE
  8
1
 62
3
  6
DOT
 10
585.5948402602766
 20
-86.2359560587707
 30
0
 40
0.9000000000000389
  0
CIRCLE
  8
1
 62
3
  6
DOT
 10
585.5948402602766
 20
-86.2359560587707
 30
0
 40
1.5
  0
CIRCLE
  8
1
 62
3
  6
DOT
 10
572.3753780150138
 20
-83.90500819447397
 30
0
 40
0.9000000000001577
  0
CIRCLE
  8
1
 62
3
  6
DOT
 10
572.3753780150138
 20
-83.90500819447397
 30
0
 40
1.49999999999995
  0
CIRCLE
  8
1
 62
3
  6
DOT
 10
576.966449072267
 20
-96.51887225538935
 30
0
 40
0.8999999999999652
  0
CIRCLE
  8
1
 62
3
  6
DOT
 10
576.966449072267
 20
-96.51887225538935
 30
0
 40
1.500000000000167
  0
CIRCLE
  8
1
 62
7
 10
578.3122224491857
 20
-88.88661216954463
 30
0
 40
4.5
  0
CIRCLE
  8
1
 62
7
 10
586.0622224491857
 20
-88.88661216954463
 30
0
 40
1.5
  0
ARC
  8
1
 62
7
 10
579.5909848682729
 20
-75.48661216954463
 30
0
 40
0.2000000000001011
 50
2.99999999999593
 51
90
  0
ARC
  8
1
 62
7
 10
577.0334600300986
 20
-75.48661216954463
 30
0
 40
0.1999999999999886
 50
90
 51
177.0000000000024
  0
ARC
  8
1
 62
7
 10
579.5909848682729
 20
-102.2866121695447
 30
0
 40
0.1999999999999034
 50
270
 51
357.0000000000244
  0
ARC
  8
1
 62
7
 10
577.0334600300986
 20
-102.2866121695447
 30
0
 40
0.1999999999999838
 50
182.9999999999773
 51
270
  0
ARC
  8
1
 62
7
 10
539.8196429303971
 20
-102.2866121695447
 30
0
 40
0.1999999999999034
 50
270
 51
357.0000000000227
  0
ARC
  8
1
 62
7
 10
537.2621180922228
 20
-102.2866121695447
 30
0
 40
0.1999999999999838
 50
182.9999999999773
 51
270
  0
ARC
  8
1
 62
7
 10
574.9307961375764
 20
-75.85736854515777
 30
0
 40
0.2000000000000747
 50
22.99999999999386
 51
109.9999999999915
  0
ARC
  8
1
 62
7
 10
572.5275089196672
 20
-76.73209355686912
 30
0
 40
0.1999999999999825
 50
109.9999999999915
 51
197.0000000000057
  0
ARC
  8
1
 62
7
 10
584.0969359787043
 20
-101.0411307822202
 30
0
 40
0.1999999999999157
 50
289.9999999999985
 51
17.00000000004293
  0
ARC
  8
1
 62
7
 10
581.6936487607952
 20
-101.9158557939315
 30
0
 40
0.1999999999999478
 50
202.9999999999916
 51
289.9999999999985
  0
ARC
  8
1
 62
7
 10
539.8196429303971
 20
-75.4866121695446
 30
0
 40
0.1999999999999838
 50
2.999999999977307
 51
90
  0
ARC
  8
1
 62
7
 10
537.2621180922228
 20
-75.4866121695446
 30
0
 40
0.1999999999999034
 50
90
 51
177.0000000000227
  0
ENDSEC
  0
EOF
