  0
SECTION
  2
HEADER
  9
$ACADVER
  1
AC1009
  9
$INSBASE
 10
0
 20
0
  9
$EXTMIN
 10
2227.12083481957
 20
6.985226518085085
  9
$EXTMAX
 10
2340.063831031282
 20
50.98522651808509
  9
$LIMMIN
 10
2227.12083481957
 20
6.985226518085085
  9
$LIMMAX
 10
2340.063831031282
 20
50.98522651808509
  9
$VIEWCTR
 10
10
 20
10
  9
$VIEWSIZE
 40
10
  9
$SNAPMODE
 70
0
  9
$SNAPUNIT
 10
1
 20
1
  9
$SNAPBASE
 10
0
 20
0
  9
$SNAPANG
 50
0
  9
$SNAPSTYLE
 70
0
  9
$SNAPISOPAIR
 70
0
  9
$GRIDMODE
 70
0
  9
$GRIDUNIT
 10
0
 20
0
  9
$ORTHOMODE
 70
0
  9
$REGENMODE
 70
1
  9
$FILLMODE
 70
1
  9
$QTEXTMODE
 70
0
  9
$DRAGMODE
 70
2
  9
$LTSCALE
 40
1
  9
$OSMODE
 70
0
  9
$ATTMODE
 70
1
  9
$TEXTSIZE
 40
3.5
  9
$TRACEWID
 40
0.5
  9
$TEXTSTYLE
  7
STANDARD
  9
$CLAYER
  8
0
  9
$CELTYPE
  6
BYLAYER
  9
$CECOLOR
 62
256
  9
$DIMSCALE
 40
1
  9
$DIMASZ
 40
0.18
  9
$DIMEXO
 40
0.0625
  9
$DIMDLI
 40
0.38
  9
$DIMRND
 40
0
  9
$DIMDLE
 40
0
  9
$DIMEXE
 40
0.18
  9
$DIMTP
 40
0
  9
$DIMTM
 40
0
  9
$DIMTXT
 40
0.18
  9
$DIMCEN
 40
0.09
  9
$DIMTSZ
 40
0
  9
$DIMTOL
 70
0
  9
$DIMLIM
 70
0
  9
$DIMTIH
 70
1
  9
$DIMTOH
 70
1
  9
$DIMSE1
 70
0
  9
$DIMSE2
 70
0
  9
$DIMTAD
 70
0
  9
$DIMZIN
 70
0
  9
$DIMBLK
  1

  9
$DIMASO
 70
1
  9
$DIMSHO
 70
1
  9
$DIMPOST
  1

  9
$DIMAPOST
  1

  9
$DIMALT
 70
0
  9
$DIMALTD
 70
2
  9
$DIMALTF
 40
25.4
  9
$DIMLFAC
 40
1
  9
$DIMTOFL
 70
0
  9
$DIMTVP
 40
0
  9
$DIMTIX
 70
0
  9
$DIMSOXD
 70
0
  9
$DIMSAH
 70
0
  9
$DIMBLK1
  1

  9
$DIMBLK2
  1

  9
$DIMSTYLE
  2
*UNNAMED
  9
$DIMCLRD
 70
0
  9
$DIMCLRE
 70
0
  9
$DIMCLRT
 70
0
  9
$DIMTFAC
 40
1
  9
$DIMGAP
 40
0.09
  9
$LUNITS
 70
2
  9
$LUPREC
 70
4
  9
$AXISMODE
 70
0
  9
$AXISUNIT
 10
0
 20
0
  9
$SKETCHINC
 40
0.1
  9
$FILLETRAD
 40
2
  9
$AUNITS
 70
0
  9
$AUPREC
 70
0
  9
$MENU
  1
ACAD
  9
$ELEVATION
 40
0
  9
$THICKNESS
 40
0
  9
$VIEWDIR
 10
0
 20
0
 30
1
  9
$LIMCHECK
 70
0
  9
$BLIPMODE
 70
1
  9
$CHAMFERA
 40
0
  9
$CHAMFERB
 40
0
  9
$FASTZOOM
 70
1
  9
$SKPOLY
 70
0
  9
$ANGBASE
 50
0
  9
$ANGDIR
 70
0
  9
$PDMODE
 70
0
  9
$PDSIZE
 40
0
  9
$PLINEWID
 40
0
  9
$COORDS
 70
2
  0
ENDSEC
  0
SECTION
  2
TABLES
  0
TABLE
  2
DIMSTYLE
 70
0
  0
ENDTAB
  0
TABLE
  2
LTYPE
 70
9
  0
LTYPE
  2
CONTINUOUS
 70
64
  3
Solid line
 72
65
 73
0
 40
0
  0
LTYPE
  2
BORDER
 70
64
  3
__ __ . __ __ .
 72
65
 73
6
 40
5.201322193960418
 49
1.486092055417262
 49
-0.7430460277086312
 49
1.486092055417262
 49
-0.7430460277086312
 49
0
 49
-0.7430460277086312
  0
LTYPE
  2
CENTER
 70
64
  3
____ _ ____ _
 72
65
 73
4
 40
5.944368221669049
 49
3.715230138543156
 49
-0.7430460277086312
 49
0.7430460277086312
 49
-0.7430460277086312
  0
LTYPE
  2
DASHDOT
 70
64
  3
__ . __ . __ .
 72
65
 73
4
 40
2.972184110834525
 49
1.486092055417262
 49
-0.7430460277086312
 49
0
 49
-0.7430460277086312
  0
LTYPE
  2
DASHED
 70
64
  3
__ __ __ __ __
 72
65
 73
2
 40
2.229138083125894
 49
1.486092055417262
 49
-0.7430460277086312
  0
LTYPE
  2
DIVIDE
 70
64
  3
__ . . __ . . 
 72
65
 73
6
 40
3.715230138543156
 49
1.486092055417262
 49
-0.7430460277086312
 49
0
 49
-0.7430460277086312
 49
0
 49
-0.7430460277086312
  0
LTYPE
  2
DOT
 70
64
  3
..............
 72
65
 73
4
 40
1.486092055417262
 49
0
 49
-0.7430460277086312
 49
0
 49
-0.7430460277086312
  0
LTYPE
  2
HIDDEN
 70
64
  3
_ _ _ _ _ _ _
 72
65
 73
2
 40
1.114569041562947
 49
0.7430460277086312
 49
-0.3715230138543156
  0
LTYPE
  2
PHANTOM
 70
64
  3
_____ _ _ _____ _ _ 
 72
65
 73
6
 40
7.430460277086311
 49
3.715230138543156
 49
-0.7430460277086312
 49
0.7430460277086312
 49
-0.7430460277086312
 49
0.7430460277086312
 49
-0.7430460277086312
  0
ENDTAB
  0
TABLE
  2
LAYER
 70
3
  0
LAYER
  2
1
 70
0
 62
7
  6
CONTINUOUS
  0
LAYER
  2
0
 70
0
 62
7
  6
CONTINUOUS
  0
ENDTAB
  0
TABLE
  2
STYLE
 70
4
  0
STYLE
  2
STANDARD
 70
0
 40
0
 41
1
 50
0
 71
0
 42
3.5
  3
txt
  4

  0
STYLE
  2
SIMPLEX
 70
0
 40
0
 41
1
 50
0
 71
0
 42
3.5
  3
simplex
  4

  0
STYLE
  2
COMPLEX
 70
0
 40
0
 41
1
 50
0
 71
0
 42
3.5
  3
complex
  4

  0
STYLE
  2
ITALIC
 70
0
 40
0
 41
1
 50
0
 71
0
 42
3.5
  3
italic
  4

  0
ENDTAB
  0
TABLE
  2
VIEW
 70
0
  0
ENDTAB
  0
ENDSEC
  0
SECTION
  2
BLOCKS
  0
BLOCK
  8
1
  2
*X0
 70
1
 10
0
 20
0
 30
0
  0
LINE
  8
1
 62
3
 10
2254.62083481957
 20
28.5
 30
0
 11
2256.12083481957
 21
28.5
 31
0
  0
LINE
  8
1
 62
3
 10
2254.62083481957
 20
28
 30
0
 11
2256.12083481957
 21
28
 31
0
  0
LINE
  8
1
 62
3
 10
2254.62083481957
 20
27.5
 30
0
 11
2256.12083481957
 21
27.5
 31
0
  0
LINE
  8
1
 62
3
 10
2254.62083481957
 20
27
 30
0
 11
2256.12083481957
 21
27
 31
0
  0
LINE
  8
1
 62
3
 10
2254.62083481957
 20
26.5
 30
0
 11
2256.12083481957
 21
26.5
 31
0
  0
LINE
  8
1
 62
3
 10
2254.62083481957
 20
26
 30
0
 11
2256.12083481957
 21
26
 31
0
  0
LINE
  8
1
 62
3
 10
2254.62083481957
 20
25.5
 30
0
 11
2256.12083481957
 21
25.5
 31
0
  0
LINE
  8
1
 62
3
 10
2254.62083481957
 20
25
 30
0
 11
2256.12083481957
 21
25
 31
0
  0
LINE
  8
1
 62
3
 10
2254.62083481957
 20
24.5
 30
0
 11
2256.12083481957
 21
24.5
 31
0
  0
LINE
  8
1
 62
3
 10
2254.62083481957
 20
24
 30
0
 11
2256.12083481957
 21
24
 31
0
  0
LINE
  8
1
 62
3
 10
2254.62083481957
 20
23.5
 30
0
 11
2256.12083481957
 21
23.5
 31
0
  0
LINE
  8
1
 62
3
 10
2254.62083481957
 20
23
 30
0
 11
2256.12083481957
 21
23
 31
0
  0
LINE
  8
1
 62
3
 10
2254.62083481957
 20
22.5
 30
0
 11
2256.12083481957
 21
22.5
 31
0
  0
LINE
  8
1
 62
3
 10
2254.62083481957
 20
22
 30
0
 11
2256.12083481957
 21
22
 31
0
  0
LINE
  8
1
 62
3
 10
2254.62083481957
 20
21.5
 30
0
 11
2256.12083481957
 21
21.5
 31
0
  0
LINE
  8
1
 62
3
 10
2254.62083481957
 20
21
 30
0
 11
2256.12083481957
 21
21
 31
0
  0
LINE
  8
1
 62
3
 10
2254.62083481957
 20
20.5
 30
0
 11
2256.12083481957
 21
20.5
 31
0
  0
LINE
  8
1
 62
3
 10
2254.62083481957
 20
20
 30
0
 11
2256.12083481957
 21
20
 31
0
  0
LINE
  8
1
 62
3
 10
2254.62083481957
 20
19.5
 30
0
 11
2256.12083481957
 21
19.5
 31
0
  0
LINE
  8
1
 62
3
 10
2254.62083481957
 20
19
 30
0
 11
2256.12083481957
 21
19
 31
0
  0
LINE
  8
1
 62
3
 10
2254.62083481957
 20
18.5
 30
0
 11
2256.12083481957
 21
18.5
 31
0
  0
LINE
  8
1
 62
3
 10
2254.62083481957
 20
18
 30
0
 11
2256.12083481957
 21
18
 31
0
  0
LINE
  8
1
 62
3
 10
2254.62083481957
 20
17.5
 30
0
 11
2256.12083481957
 21
17.5
 31
0
  0
LINE
  8
1
 62
3
 10
2254.62083481957
 20
17
 30
0
 11
2256.12083481957
 21
17
 31
0
  0
LINE
  8
1
 62
3
 10
2254.62083481957
 20
16.5
 30
0
 11
2256.12083481957
 21
16.5
 31
0
  0
LINE
  8
1
 62
3
 10
2254.62083481957
 20
16
 30
0
 11
2256.12083481957
 21
16
 31
0
  0
LINE
  8
1
 62
3
 10
2254.62083481957
 20
15.5
 30
0
 11
2256.12083481957
 21
15.5
 31
0
  0
LINE
  8
1
 62
3
 10
2254.62083481957
 20
15
 30
0
 11
2256.12083481957
 21
15
 31
0
  0
LINE
  8
1
 62
3
 10
2254.62083481957
 20
14.5
 30
0
 11
2256.12083481957
 21
14.5
 31
0
  0
LINE
  8
1
 62
3
 10
2254.62083481957
 20
14
 30
0
 11
2256.12083481957
 21
14
 31
0
  0
LINE
  8
1
 62
3
 10
2254.62083481957
 20
13.5
 30
0
 11
2256.12083481957
 21
13.5
 31
0
  0
LINE
  8
1
 62
3
 10
2254.62083481957
 20
13
 30
0
 11
2256.12083481957
 21
13
 31
0
  0
LINE
  8
1
 62
3
 10
2254.62083481957
 20
12.5
 30
0
 11
2256.12083481957
 21
12.5
 31
0
  0
LINE
  8
1
 62
3
 10
2254.62083481957
 20
12
 30
0
 11
2256.12083481957
 21
12
 31
0
  0
LINE
  8
1
 62
3
 10
2254.62083481957
 20
11.5
 30
0
 11
2256.12083481957
 21
11.5
 31
0
  0
LINE
  8
1
 62
3
 10
2254.62083481957
 20
11
 30
0
 11
2256.12083481957
 21
11
 31
0
  0
ENDBLK
  8
0
  0
BLOCK
  8
1
  2
*X1
 70
1
 10
0
 20
0
 30
0
  0
LINE
  8
1
 62
3
 10
2254.62083481957
 20
46.5
 30
0
 11
2256.12083481957
 21
46.5
 31
0
  0
LINE
  8
1
 62
3
 10
2254.62083481957
 20
46
 30
0
 11
2256.12083481957
 21
46
 31
0
  0
LINE
  8
1
 62
3
 10
2254.62083481957
 20
45.5
 30
0
 11
2256.12083481957
 21
45.5
 31
0
  0
LINE
  8
1
 62
3
 10
2254.62083481957
 20
45
 30
0
 11
2256.12083481957
 21
45
 31
0
  0
LINE
  8
1
 62
3
 10
2254.62083481957
 20
44.5
 30
0
 11
2256.12083481957
 21
44.5
 31
0
  0
LINE
  8
1
 62
3
 10
2254.62083481957
 20
44
 30
0
 11
2256.12083481957
 21
44
 31
0
  0
LINE
  8
1
 62
3
 10
2254.62083481957
 20
43.5
 30
0
 11
2256.12083481957
 21
43.5
 31
0
  0
LINE
  8
1
 62
3
 10
2254.62083481957
 20
43
 30
0
 11
2256.12083481957
 21
43
 31
0
  0
LINE
  8
1
 62
3
 10
2254.62083481957
 20
42.5
 30
0
 11
2256.12083481957
 21
42.5
 31
0
  0
LINE
  8
1
 62
3
 10
2254.62083481957
 20
42
 30
0
 11
2256.12083481957
 21
42
 31
0
  0
LINE
  8
1
 62
3
 10
2254.62083481957
 20
41.5
 30
0
 11
2256.12083481957
 21
41.5
 31
0
  0
LINE
  8
1
 62
3
 10
2254.62083481957
 20
41
 30
0
 11
2256.12083481957
 21
41
 31
0
  0
LINE
  8
1
 62
3
 10
2254.62083481957
 20
40.5
 30
0
 11
2256.12083481957
 21
40.5
 31
0
  0
LINE
  8
1
 62
3
 10
2254.62083481957
 20
40
 30
0
 11
2256.12083481957
 21
40
 31
0
  0
LINE
  8
1
 62
3
 10
2254.62083481957
 20
39.5
 30
0
 11
2256.12083481957
 21
39.5
 31
0
  0
LINE
  8
1
 62
3
 10
2254.62083481957
 20
39
 30
0
 11
2256.12083481957
 21
39
 31
0
  0
LINE
  8
1
 62
3
 10
2254.62083481957
 20
38.5
 30
0
 11
2256.12083481957
 21
38.5
 31
0
  0
LINE
  8
1
 62
3
 10
2254.62083481957
 20
38
 30
0
 11
2256.12083481957
 21
38
 31
0
  0
LINE
  8
1
 62
3
 10
2254.62083481957
 20
37.5
 30
0
 11
2256.12083481957
 21
37.5
 31
0
  0
LINE
  8
1
 62
3
 10
2254.62083481957
 20
37
 30
0
 11
2256.12083481957
 21
37
 31
0
  0
LINE
  8
1
 62
3
 10
2254.62083481957
 20
36.5
 30
0
 11
2256.12083481957
 21
36.5
 31
0
  0
LINE
  8
1
 62
3
 10
2254.62083481957
 20
36
 30
0
 11
2256.12083481957
 21
36
 31
0
  0
LINE
  8
1
 62
3
 10
2254.62083481957
 20
35.5
 30
0
 11
2256.12083481957
 21
35.5
 31
0
  0
LINE
  8
1
 62
3
 10
2254.62083481957
 20
35
 30
0
 11
2256.12083481957
 21
35
 31
0
  0
LINE
  8
1
 62
3
 10
2254.62083481957
 20
34.5
 30
0
 11
2256.12083481957
 21
34.5
 31
0
  0
LINE
  8
1
 62
3
 10
2254.62083481957
 20
34
 30
0
 11
2256.12083481957
 21
34
 31
0
  0
LINE
  8
1
 62
3
 10
2254.62083481957
 20
33.5
 30
0
 11
2256.12083481957
 21
33.5
 31
0
  0
LINE
  8
1
 62
3
 10
2254.62083481957
 20
33
 30
0
 11
2256.12083481957
 21
33
 31
0
  0
LINE
  8
1
 62
3
 10
2254.62083481957
 20
32.5
 30
0
 11
2256.12083481957
 21
32.5
 31
0
  0
LINE
  8
1
 62
3
 10
2254.62083481957
 20
32
 30
0
 11
2256.12083481957
 21
32
 31
0
  0
LINE
  8
1
 62
3
 10
2254.62083481957
 20
31.5
 30
0
 11
2256.12083481957
 21
31.5
 31
0
  0
LINE
  8
1
 62
3
 10
2254.62083481957
 20
31
 30
0
 11
2256.12083481957
 21
31
 31
0
  0
LINE
  8
1
 62
3
 10
2254.62083481957
 20
30.5
 30
0
 11
2256.12083481957
 21
30.5
 31
0
  0
LINE
  8
1
 62
3
 10
2254.62083481957
 20
30
 30
0
 11
2256.12083481957
 21
30
 31
0
  0
LINE
  8
1
 62
3
 10
2254.62083481957
 20
29.5
 30
0
 11
2256.12083481957
 21
29.5
 31
0
  0
LINE
  8
1
 62
3
 10
2254.62083481957
 20
29
 30
0
 11
2256.12083481957
 21
29
 31
0
  0
ENDBLK
  8
0
  0
ENDSEC
  0
SECTION
  2
ENTITIES
  0
INSERT
  8
1
  2
*X0
 10
0
 20
0
 30
0
  0
INSERT
  8
1
  2
*X1
 10
0
 20
0
 30
0
  0
LINE
  8
1
 62
3
  6
DASHDOT
 10
2251.62083481957
 20
12.48522651808509
 30
0
 11
2251.62083481957
 21
7.485226518085085
 31
0
  0
LINE
  8
1
 62
7
 10
2250.12083481957
 20
8.835226518085108
 30
0
 11
2253.12083481957
 21
8.835226518085108
 31
0
  0
LINE
  8
1
 62
7
 10
2254.37083481957
 20
10.98522651808509
 30
0
 11
2248.87083481957
 21
10.98522651808509
 31
0
  0
LINE
  8
1
 62
7
 10
2248.87083481957
 20
10.98522651808509
 30
0
 11
2248.87083481957
 21
10.58522651808511
 31
0
  0
LINE
  8
1
 62
7
 10
2248.87083481957
 20
10.58522651808511
 30
0
 11
2254.37083481957
 21
10.58522651808511
 31
0
  0
LINE
  8
1
 62
7
 10
2254.37083481957
 20
10.58522651808511
 30
0
 11
2254.37083481957
 21
10.98522651808509
 31
0
  0
LINE
  8
1
 62
3
  6
DASHDOT
 10
2235.12083481957
 20
7.955653239426397
 30
0
 11
2235.12083481957
 21
13.09316895388139
 31
0
  0
LINE
  8
1
 62
7
 10
2237.37083481957
 20
10.68522651808513
 30
0
 11
2237.37083481957
 21
10.24610637646049
 31
0
  0
LINE
  8
1
 62
7
 10
2233.17083481957
 20
10.98522651808509
 30
0
 11
2237.070834819569
 21
10.98522651808509
 31
0
  0
LINE
  8
1
 62
7
 10
2232.87083481957
 20
10.24610637646049
 30
0
 11
2232.87083481957
 21
10.68522651808513
 31
0
  0
LINE
  8
1
 62
7
 10
2254.52083481957
 20
10.98522651808509
 30
0
 11
2254.520834819571
 21
28.98522651808509
 31
0
  0
LINE
  8
1
 62
7
 10
2230.62083481957
 20
46.98522651808509
 30
0
 11
2254.52083481957
 21
46.98522651808509
 31
0
  0
LINE
  8
1
 62
7
 10
2275.62083481957
 20
24.98522651808509
 30
0
 11
2256.12083481957
 21
24.98522651808509
 31
0
  0
LINE
  8
1
 62
7
 10
2256.12083481957
 20
10.98522651808509
 30
0
 11
2256.12083481957
 21
24.98522651808509
 31
0
  0
LINE
  8
1
 62
7
 10
2254.62083481957
 20
10.98522651808509
 30
0
 11
2256.12083481957
 21
10.98522651808509
 31
0
  0
LINE
  8
1
 62
7
 10
2254.62083481957
 20
10.98522651808509
 30
0
 11
2254.62083481957
 21
28.98522651808509
 31
0
  0
LINE
  8
1
 62
7
 10
2230.62083481957
 20
10.98522651808509
 30
0
 11
2254.52083481957
 21
10.98522651808509
 31
0
  0
LINE
  8
1
 62
7
 10
2256.12083481957
 20
32.68522651808513
 30
0
 11
2256.12083481957
 21
46.98522651808509
 31
0
  0
LINE
  8
1
 62
7
 10
2256.12083481957
 20
46.98522651808509
 30
0
 11
2254.62083481957
 21
46.98522651808509
 31
0
  0
LINE
  8
1
 62
7
 10
2275.62083481957
 20
24.98522651808509
 30
0
 11
2275.62083481957
 21
32.98522651808509
 31
0
  0
LINE
  8
1
 62
3
  6
DASHDOT
 10
2227.12083481957
 20
28.98522651808509
 30
0
 11
2278.12083481957
 21
28.98522651808509
 31
0
  0
LINE
  8
1
 62
7
 10
2317.043962615926
 20
32.68522651808513
 30
0
 11
2320.08369944664
 21
32.68522651808513
 31
0
  0
LINE
  8
1
 62
3
  6
DASHDOT
 10
2298.563831031282
 20
28.98522651808509
 30
0
 11
2340.063831031282
 21
28.98522651808509
 31
0
  0
LINE
  8
1
 62
3
  6
DASHDOT
 10
2318.563831031282
 20
6.985226518085085
 30
0
 11
2318.563831031282
 21
50.98522651808509
 31
0
  0
LINE
  8
1
 62
7
 10
2303.499572026433
 20
40.28065672102991
 30
0
 11
2303.840566142027
 21
40.08378367660004
 31
0
  0
LINE
  8
1
 62
7
 10
2301.590566142027
 20
36.18666935957003
 30
0
 11
2301.249572026433
 21
36.3835424039998
 31
0
  0
LINE
  8
1
 62
3
  6
DASHDOT
 10
2300.637105172944
 20
39.33522651808511
 30
0
 11
2303.841399166947
 21
37.48522651808509
 31
0
  0
LINE
  8
1
 62
7
 10
2315.813831031282
 20
47.38522651808512
 30
0
 11
2315.813831031282
 21
46.98522651808509
 31
0
  0
LINE
  8
1
 62
7
 10
2321.313831031282
 20
47.38522651808512
 30
0
 11
2315.813831031282
 21
47.38522651808512
 31
0
  0
LINE
  8
1
 62
7
 10
2321.313831031282
 20
46.98522651808509
 30
0
 11
2321.313831031282
 21
47.38522651808512
 31
0
  0
LINE
  8
1
 62
7
 10
2320.063831031282
 20
49.13522651808512
 30
0
 11
2317.063831031282
 21
49.13522651808512
 31
0
  0
LINE
  8
1
 62
7
 10
2315.813831031282
 20
46.98522651808509
 30
0
 11
2321.313831031282
 21
46.98522651808509
 31
0
  0
LINE
  8
1
 62
7
 10
2315.813831031282
 20
10.98522651808509
 30
0
 11
2315.813831031282
 21
10.58522651808511
 31
0
  0
LINE
  8
1
 62
7
 10
2315.813831031282
 20
10.58522651808511
 30
0
 11
2321.313831031282
 21
10.58522651808511
 31
0
  0
LINE
  8
1
 62
7
 10
2321.313831031282
 20
10.58522651808511
 30
0
 11
2321.313831031282
 21
10.98522651808509
 31
0
  0
LINE
  8
1
 62
7
 10
2317.063831031282
 20
8.835226518085108
 30
0
 11
2320.063831031282
 21
8.835226518085108
 31
0
  0
LINE
  8
1
 62
7
 10
2321.313831031282
 20
10.98522651808509
 30
0
 11
2315.813831031282
 21
10.98522651808509
 31
0
  0
LINE
  8
1
 62
3
  6
DASHDOT
 10
2326.313831031282
 20
15.5618327594263
 30
0
 11
2322.813831031282
 21
21.62401058591729
 31
0
  0
LINE
  8
1
 62
3
  6
DASHDOT
 10
2326.313831031282
 20
42.40862027674382
 30
0
 11
2322.813831031282
 21
36.34644245025282
 31
0
  0
LINE
  8
1
 62
7
 10
2333.287095920537
 20
40.08378367660004
 30
0
 11
2333.62809003613
 21
40.28065672102991
 31
0
  0
LINE
  8
1
 62
7
 10
2335.87809003613
 20
36.3835424039998
 30
0
 11
2335.537095920537
 21
36.18666935957003
 31
0
  0
LINE
  8
1
 62
3
  6
DASHDOT
 10
2333.286262895616
 20
37.48522651808509
 30
0
 11
2336.490556889619
 21
39.33522651808511
 31
0
  0
LINE
  8
1
 62
7
 10
2230.62083481957
 20
10.98522651808509
 30
0
 11
2230.62083481957
 21
46.98522651808509
 31
0
  0
LINE
  8
1
 62
7
 10
2256.12083481957
 20
24.98522651808509
 30
0
 11
2256.12083481957
 21
28.98522651808509
 31
0
  0
LINE
  8
1
 62
7
 10
2232.12083481957
 20
10.98522651808509
 30
0
 11
2232.12083481957
 21
46.98522651808509
 31
0
  0
LINE
  8
1
 62
7
 10
2254.52083481957
 20
12.98522651808509
 30
0
 11
2254.62083481957
 21
12.98522651808509
 31
0
  0
LINE
  8
1
 62
3
  6
DOT
 10
2336.478559608629
 20
27.23522651808509
 30
0
 11
2334.467839959851
 21
27.23522651808509
 31
0
  0
LINE
  8
1
 62
3
  6
DOT
 10
2316.813831031282
 20
44.88923544665403
 30
0
 11
2316.813831031282
 21
46.89995509543172
 31
0
  0
LINE
  8
1
 62
3
  6
DOT
 10
2320.313831031282
 20
13.08121758951609
 30
0
 11
2320.313831031282
 21
11.07049794073839
 31
0
  0
LINE
  8
1
 62
3
  6
DOT
 10
2300.649102453936
 20
30.73522651808509
 30
0
 11
2302.659822102714
 21
30.73522651808509
 31
0
  0
LINE
  8
1
 62
3
  6
DASHDOT
 10
2325.9107867536
 20
24.7434596540806
 30
0
 11
2331.635188275244
 21
21.43847489460961
 31
0
  0
LINE
  8
1
 62
3
  6
DASHDOT
 10
2310.858924177213
 20
24.5367964718082
 30
0
 11
2305.579280247208
 21
21.48859262759373
 31
0
  0
LINE
  8
1
 62
7
 10
2256.12083481957
 20
32.98522651808509
 30
0
 11
2275.62083481957
 21
32.98522651808509
 31
0
  0
LINE
  8
1
 62
3
  6
DASHDOT
 10
2251.62083481957
 20
50.48522651808509
 30
0
 11
2251.62083481957
 21
45.48522651808508
 31
0
  0
LINE
  8
1
 62
7
 10
2253.12083481957
 20
49.13522651808512
 30
0
 11
2250.12083481957
 21
49.13522651808512
 31
0
  0
LINE
  8
1
 62
7
 10
2248.87083481957
 20
46.98522651808508
 30
0
 11
2254.37083481957
 21
46.98522651808509
 31
0
  0
LINE
  8
1
 62
7
 10
2248.87083481957
 20
47.38522651808512
 30
0
 11
2248.87083481957
 21
46.98522651808508
 31
0
  0
LINE
  8
1
 62
7
 10
2254.37083481957
 20
47.38522651808506
 30
0
 11
2248.87083481957
 21
47.38522651808512
 31
0
  0
LINE
  8
1
 62
7
 10
2254.37083481957
 20
46.98522651808509
 30
0
 11
2254.37083481957
 21
47.38522651808506
 31
0
  0
LINE
  8
1
 62
7
 10
2254.520834819571
 20
28.98522651808509
 30
0
 11
2254.52083481957
 21
46.98522651808509
 31
0
  0
LINE
  8
1
 62
7
 10
2256.12083481957
 20
32.98522651808509
 30
0
 11
2256.12083481957
 21
46.98522651808509
 31
0
  0
LINE
  8
1
 62
7
 10
2256.12083481957
 20
46.98522651808509
 30
0
 11
2254.62083481957
 21
46.98522651808509
 31
0
  0
LINE
  8
1
 62
7
 10
2254.62083481957
 20
28.98522651808509
 30
0
 11
2254.62083481957
 21
46.98522651808509
 31
0
  0
LINE
  8
1
 62
7
 10
2256.12083481957
 20
28.98522651808509
 30
0
 11
2256.12083481957
 21
32.98522651808509
 31
0
  0
LINE
  8
1
 62
7
 10
2254.62083481957
 20
44.98522651808508
 30
0
 11
2254.52083481957
 21
44.98522651808508
 31
0
  0
ARC
  8
1
 62
7
 10
2251.774833384611
 20
11.33808263597149
 30
0
 40
2.999999999999947
 50
194.533856108391
 51
236.5414994755545
  0
ARC
  8
1
 62
7
 10
2251.466836254529
 20
11.33808263597149
 30
0
 40
2.999999999999881
 50
303.4585005244455
 51
345.466143891609
  0
ARC
  8
1
 62
7
 10
2235.12083481957
 20
14.57094080379949
 30
0
 40
5.285714285714485
 50
253.0422366999931
 51
286.9577633000069
  0
ARC
  8
1
 62
7
 10
2306.699282999434
 20
35.83522651808511
 30
0
 40
5.999999999999031
 50
133.8086483613747
 51
166.1913516386142
  0
ARC
  8
1
 62
7
 10
2318.717829596323
 20
46.6323704001988
 30
0
 40
2.999999999999827
 50
123.4585005244462
 51
165.4661438916102
  0
ARC
  8
1
 62
7
 10
2318.409832466242
 20
46.6323704001988
 30
0
 40
2.99999999999905
 50
14.53385610839412
 51
56.54149947556835
  0
ARC
  8
1
 62
7
 10
2318.717829596323
 20
11.33808263597143
 30
0
 40
2.999999999999931
 50
194.5338561083898
 51
236.541499475554
  0
ARC
  8
1
 62
7
 10
2318.409832466242
 20
11.33808263597143
 30
0
 40
2.999999999999329
 50
303.4585005244316
 51
345.4661438916058
  0
ARC
  8
1
 62
7
 10
2330.428379063129
 20
35.83522651808511
 30
0
 40
5.999999999998475
 50
13.80864836138682
 51
46.1913516386128
  0
ARC
  8
1
 62
3
  6
DOT
 10
2318.563831031282
 20
28.98522651808509
 30
0
 40
16.00000000000014
 50
353.7207116774497
 51
0
  0
ARC
  8
1
 62
3
  6
DOT
 10
2318.563831031282
 20
28.98522651808509
 30
0
 40
16
 50
0
 51
96.27928832255026
  0
ARC
  8
1
 62
3
  6
DOT
 10
2318.563831031282
 20
28.98522651808509
 30
0
 40
15.99999999999923
 50
173.7207116774494
 51
276.2792883225503
  0
ARC
  8
1
 62
7
 10
2251.774833384611
 20
46.63237040019874
 30
0
 40
2.99999999999988
 50
123.4585005244455
 51
165.4661438916091
  0
ARC
  8
1
 62
7
 10
2251.466836254529
 20
46.63237040019874
 30
0
 40
2.999999999999932
 50
14.53385610838989
 51
56.54149947555452
  0
CIRCLE
  8
1
 62
7
 10
2330.563831031282
 20
28.98522651808509
 30
0
 40
1.5
  0
CIRCLE
  8
1
 62
7
 10
2318.563831031282
 20
28.98522651808509
 30
0
 40
4
  0
CIRCLE
  8
1
 62
7
 10
2318.563831031282
 20
28.98522651808509
 30
0
 40
7.000000000000004
  0
CIRCLE
  8
1
 62
7
 10
2318.563831031282
 20
28.98522651808509
 30
0
 40
18
  0
CIRCLE
  8
1
 62
3
 10
2324.563831031282
 20
18.59292167267182
 30
0
 40
1.50000000000032
  0
CIRCLE
  8
1
 62
7
 10
2324.563831031282
 20
18.59292167267182
 30
0
 40
0.9000000000001094
  0
CIRCLE
  8
1
 62
3
 10
2324.563831031282
 20
39.37753136349829
 30
0
 40
1.50000000000032
  0
CIRCLE
  8
1
 62
7
 10
2324.563831031282
 20
39.37753136349829
 30
0
 40
0.8999999999993235
  0
CIRCLE
  8
1
 62
3
 10
2306.563831031282
 20
28.98522651808509
 30
0
 40
1.5
  0
CIRCLE
  8
1
 62
7
 10
2306.563831031282
 20
28.98522651808509
 30
0
 40
0.9000000000000306
  0
CIRCLE
  8
1
 62
3
  6
DASHDOT
 10
2318.563831031282
 20
28.98522651808509
 30
0
 40
12
  0
CIRCLE
  8
1
 62
3
  6
DOT
 10
2318.563831031282
 20
40.98522651808509
 30
0
 40
1.5
  0
CIRCLE
  8
1
 62
3
  6
DOT
 10
2318.563831031282
 20
40.98522651808509
 30
0
 40
0.900000000000091
  0
CIRCLE
  8
1
 62
3
  6
DOT
 10
2308.171526185869
 20
22.98522651808463
 30
0
 40
1.500000000000123
  0
CIRCLE
  8
1
 62
3
  6
DOT
 10
2308.171526185869
 20
22.98522651808463
 30
0
 40
0.9000000000007505
  0
CIRCLE
  8
1
 62
3
  6
DOT
 10
2328.956135876696
 20
22.98522651808548
 30
0
 40
1.499999999999828
  0
CIRCLE
  8
1
 62
3
  6
DOT
 10
2328.956135876696
 20
22.98522651808548
 30
0
 40
0.9000000000006185
  0
ARC
  8
1
 62
7
 10
2237.070834819569
 20
10.68522651808513
 30
0
 40
0.3000000000010914
 50
0
 51
90
  0
ARC
  8
1
 62
7
 10
2233.17083481957
 20
10.68522651808513
 30
0
 40
0.2999999999999599
 50
90
 51
180
  0
ARC
  8
1
 62
7
 10
2236.523065249788
 20
10.35883782526412
 30
0
 40
0.855231911822234
 50
279.3833403789609
 51
352.4255770789782
  0
ARC
  8
1
 62
7
 10
2233.718604389353
 20
10.35883782526412
 30
0
 40
0.855231911822353
 50
187.5744229210138
 51
260.616659620979
  0
ARC
  8
1
 62
7
 10
2303.099572026434
 20
39.58783639800242
 30
0
 40
0.7999999999993047
 50
60.00000000007656
 51
133.8086483613972
  0
ARC
  8
1
 62
7
 10
2301.649572026434
 20
37.0763627270274
 30
0
 40
0.8000000000000412
 50
166.1913516386147
 51
239.9999999999398
  0
ARC
  8
1
 62
7
 10
2303.690566142028
 20
39.8239760554647
 30
0
 40
0.2999999999982665
 50
329.9999999998374
 51
60.0000000001366
  0
ARC
  8
1
 62
7
 10
2301.740566142027
 20
36.44647698070543
 30
0
 40
0.3000000000000996
 50
239.9999999999909
 51
329.9999999999406
  0
ARC
  8
1
 62
7
 10
2334.02809003613
 20
39.58783639800242
 30
0
 40
0.8000000000005662
 50
46.19135163855578
 51
120.0000000000081
  0
ARC
  8
1
 62
7
 10
2335.478090036129
 20
37.0763627270274
 30
0
 40
0.8000000000005462
 50
300.0000000000602
 51
13.80864836138531
  0
ARC
  8
1
 62
7
 10
2333.437095920537
 20
39.8239760554647
 30
0
 40
0.3000000000000566
 50
120.0000000000138
 51
209.9999999999889
  0
ARC
  8
1
 62
7
 10
2335.387095920538
 20
36.44647698070543
 30
0
 40
0.3000000000003174
 50
209.9999999999725
 51
299.9999999998586
  0
ENDSEC
  0
EOF
