  0
SECTION
  2
HEADER
  9
$ACADVER
  1
AC1009
  9
$INSBASE
 10
0
 20
0
  9
$EXTMIN
 10
277.5687085650828
 20
-307.5009024051364
  9
$EXTMAX
 10
554.5665333245563
 20
-189.9063747869593
  9
$LIMMIN
 10
277.5687085650828
 20
-307.5009024051364
  9
$LIMMAX
 10
554.5665333245563
 20
-189.9063747869593
  9
$VIEWCTR
 10
10
 20
10
  9
$VIEWSIZE
 40
10
  9
$SNAPMODE
 70
0
  9
$SNAPUNIT
 10
1
 20
1
  9
$SNAPBASE
 10
0
 20
0
  9
$SNAPANG
 50
0
  9
$SNAPSTYLE
 70
0
  9
$SNAPISOPAIR
 70
0
  9
$GRIDMODE
 70
0
  9
$GRIDUNIT
 10
0
 20
0
  9
$ORTHOMODE
 70
0
  9
$REGENMODE
 70
1
  9
$FILLMODE
 70
1
  9
$QTEXTMODE
 70
0
  9
$DRAGMODE
 70
2
  9
$LTSCALE
 40
1
  9
$OSMODE
 70
0
  9
$ATTMODE
 70
1
  9
$TEXTSIZE
 40
3.5
  9
$TRACEWID
 40
0.5
  9
$TEXTSTYLE
  7
STANDARD
  9
$CLAYER
  8
0
  9
$CELTYPE
  6
BYLAYER
  9
$CECOLOR
 62
256
  9
$DIMSCALE
 40
1
  9
$DIMASZ
 40
0.18
  9
$DIMEXO
 40
0.0625
  9
$DIMDLI
 40
0.38
  9
$DIMRND
 40
0
  9
$DIMDLE
 40
0
  9
$DIMEXE
 40
0.18
  9
$DIMTP
 40
0
  9
$DIMTM
 40
0
  9
$DIMTXT
 40
0.18
  9
$DIMCEN
 40
0.09
  9
$DIMTSZ
 40
0
  9
$DIMTOL
 70
0
  9
$DIMLIM
 70
0
  9
$DIMTIH
 70
1
  9
$DIMTOH
 70
1
  9
$DIMSE1
 70
0
  9
$DIMSE2
 70
0
  9
$DIMTAD
 70
0
  9
$DIMZIN
 70
0
  9
$DIMBLK
  1

  9
$DIMASO
 70
1
  9
$DIMSHO
 70
1
  9
$DIMPOST
  1

  9
$DIMAPOST
  1

  9
$DIMALT
 70
0
  9
$DIMALTD
 70
2
  9
$DIMALTF
 40
25.4
  9
$DIMLFAC
 40
1
  9
$DIMTOFL
 70
0
  9
$DIMTVP
 40
0
  9
$DIMTIX
 70
0
  9
$DIMSOXD
 70
0
  9
$DIMSAH
 70
0
  9
$DIMBLK1
  1

  9
$DIMBLK2
  1

  9
$DIMSTYLE
  2
*UNNAMED
  9
$DIMCLRD
 70
0
  9
$DIMCLRE
 70
0
  9
$DIMCLRT
 70
0
  9
$DIMTFAC
 40
1
  9
$DIMGAP
 40
0.09
  9
$LUNITS
 70
2
  9
$LUPREC
 70
4
  9
$AXISMODE
 70
0
  9
$AXISUNIT
 10
0
 20
0
  9
$SKETCHINC
 40
0.1
  9
$FILLETRAD
 40
2
  9
$AUNITS
 70
0
  9
$AUPREC
 70
0
  9
$MENU
  1
ACAD
  9
$ELEVATION
 40
0
  9
$THICKNESS
 40
0
  9
$VIEWDIR
 10
0
 20
0
 30
1
  9
$LIMCHECK
 70
0
  9
$BLIPMODE
 70
1
  9
$CHAMFERA
 40
0
  9
$CHAMFERB
 40
0
  9
$FASTZOOM
 70
1
  9
$SKPOLY
 70
0
  9
$ANGBASE
 50
0
  9
$ANGDIR
 70
0
  9
$PDMODE
 70
0
  9
$PDSIZE
 40
0
  9
$PLINEWID
 40
0
  9
$COORDS
 70
2
  0
ENDSEC
  0
SECTION
  2
TABLES
  0
TABLE
  2
DIMSTYLE
 70
0
  0
ENDTAB
  0
TABLE
  2
LTYPE
 70
9
  0
LTYPE
  2
CONTINUOUS
 70
64
  3
Solid line
 72
65
 73
0
 40
0
  0
LTYPE
  2
BORDER
 70
64
  3
__ __ . __ __ .
 72
65
 73
6
 40
12.75647877181786
 49
3.644708220519389
 49
-1.822354110259694
 49
3.644708220519389
 49
-1.822354110259694
 49
0
 49
-1.822354110259694
  0
LTYPE
  2
CENTER
 70
64
  3
____ _ ____ _
 72
65
 73
4
 40
14.57883288207755
 49
9.111770551298472
 49
-1.822354110259694
 49
1.822354110259694
 49
-1.822354110259694
  0
LTYPE
  2
DASHDOT
 70
64
  3
__ . __ . __ .
 72
65
 73
4
 40
7.289416441038777
 49
3.644708220519389
 49
-1.822354110259694
 49
0
 49
-1.822354110259694
  0
LTYPE
  2
DASHED
 70
64
  3
__ __ __ __ __
 72
65
 73
2
 40
5.467062330779083
 49
3.644708220519389
 49
-1.822354110259694
  0
LTYPE
  2
DIVIDE
 70
64
  3
__ . . __ . . 
 72
65
 73
6
 40
9.111770551298472
 49
3.644708220519389
 49
-1.822354110259694
 49
0
 49
-1.822354110259694
 49
0
 49
-1.822354110259694
  0
LTYPE
  2
DOT
 70
64
  3
..............
 72
65
 73
4
 40
3.644708220519389
 49
0
 49
-1.822354110259694
 49
0
 49
-1.822354110259694
  0
LTYPE
  2
HIDDEN
 70
64
  3
_ _ _ _ _ _ _
 72
65
 73
2
 40
2.733531165389541
 49
1.822354110259694
 49
-0.9111770551298472
  0
LTYPE
  2
PHANTOM
 70
64
  3
_____ _ _ _____ _ _ 
 72
65
 73
6
 40
18.22354110259694
 49
9.111770551298472
 49
-1.822354110259694
 49
1.822354110259694
 49
-1.822354110259694
 49
1.822354110259694
 49
-1.822354110259694
  0
ENDTAB
  0
TABLE
  2
LAYER
 70
3
  0
LAYER
  2
1
 70
0
 62
7
  6
CONTINUOUS
  0
LAYER
  2
0
 70
0
 62
7
  6
CONTINUOUS
  0
ENDTAB
  0
TABLE
  2
STYLE
 70
4
  0
STYLE
  2
STANDARD
 70
0
 40
0
 41
1
 50
0
 71
0
 42
3.5
  3
txt
  4

  0
STYLE
  2
SIMPLEX
 70
0
 40
0
 41
1
 50
0
 71
0
 42
3.5
  3
simplex
  4

  0
STYLE
  2
COMPLEX
 70
0
 40
0
 41
1
 50
0
 71
0
 42
3.5
  3
complex
  4

  0
STYLE
  2
ITALIC
 70
0
 40
0
 41
1
 50
0
 71
0
 42
3.5
  3
italic
  4

  0
ENDTAB
  0
TABLE
  2
VIEW
 70
0
  0
ENDTAB
  0
ENDSEC
  0
SECTION
  2
BLOCKS
  0
BLOCK
  8
1
  2
*X0
 70
1
 10
0
 20
0
 30
0
  0
LINE
  8
1
 62
3
 10
505.9665333245562
 20
-260.231141166932
 30
0
 11
510.9665333245562
 21
-260.231141166932
 31
0
  0
LINE
  8
1
 62
3
 10
505.9665333245562
 20
-260.731141166932
 30
0
 11
510.9665333245562
 21
-260.731141166932
 31
0
  0
LINE
  8
1
 62
3
 10
505.9665333245562
 20
-261.231141166932
 30
0
 11
510.9665333245562
 21
-261.231141166932
 31
0
  0
LINE
  8
1
 62
3
 10
505.9665333245562
 20
-261.731141166932
 30
0
 11
510.9665333245562
 21
-261.731141166932
 31
0
  0
LINE
  8
1
 62
3
 10
505.9665333245562
 20
-262.231141166932
 30
0
 11
510.9665333245562
 21
-262.231141166932
 31
0
  0
LINE
  8
1
 62
3
 10
505.9665333245562
 20
-262.731141166932
 30
0
 11
510.9665333245562
 21
-262.731141166932
 31
0
  0
LINE
  8
1
 62
3
 10
505.9665333245562
 20
-263.231141166932
 30
0
 11
510.9665333245562
 21
-263.231141166932
 31
0
  0
LINE
  8
1
 62
3
 10
505.9665333245562
 20
-263.731141166932
 30
0
 11
510.9665333245562
 21
-263.731141166932
 31
0
  0
LINE
  8
1
 62
3
 10
505.9665333245562
 20
-264.231141166932
 30
0
 11
510.9665333245562
 21
-264.231141166932
 31
0
  0
LINE
  8
1
 62
3
 10
505.9665333245562
 20
-264.731141166932
 30
0
 11
510.9665333245562
 21
-264.731141166932
 31
0
  0
LINE
  8
1
 62
3
 10
505.9665333245562
 20
-265.231141166932
 30
0
 11
510.9665333245562
 21
-265.231141166932
 31
0
  0
LINE
  8
1
 62
3
 10
505.9665333245562
 20
-265.731141166932
 30
0
 11
510.9665333245562
 21
-265.731141166932
 31
0
  0
LINE
  8
1
 62
3
 10
505.9665333245562
 20
-266.231141166932
 30
0
 11
510.9665333245562
 21
-266.231141166932
 31
0
  0
LINE
  8
1
 62
3
 10
505.9665333245562
 20
-266.731141166932
 30
0
 11
510.9665333245562
 21
-266.731141166932
 31
0
  0
LINE
  8
1
 62
3
 10
505.9665333245562
 20
-267.231141166932
 30
0
 11
510.9665333245562
 21
-267.231141166932
 31
0
  0
LINE
  8
1
 62
3
 10
505.9665333245562
 20
-267.731141166932
 30
0
 11
510.9665333245562
 21
-267.731141166932
 31
0
  0
LINE
  8
1
 62
3
 10
505.9665333245562
 20
-268.231141166932
 30
0
 11
510.9665333245562
 21
-268.231141166932
 31
0
  0
LINE
  8
1
 62
3
 10
505.9665333245562
 20
-268.731141166932
 30
0
 11
510.9665333245562
 21
-268.731141166932
 31
0
  0
LINE
  8
1
 62
3
 10
505.9665333245562
 20
-269.231141166932
 30
0
 11
510.9665333245562
 21
-269.231141166932
 31
0
  0
LINE
  8
1
 62
3
 10
505.9665333245562
 20
-269.731141166932
 30
0
 11
510.9665333245562
 21
-269.731141166932
 31
0
  0
LINE
  8
1
 62
3
 10
505.9665333245562
 20
-270.231141166932
 30
0
 11
510.9665333245562
 21
-270.231141166932
 31
0
  0
LINE
  8
1
 62
3
 10
505.9665333245562
 20
-270.731141166932
 30
0
 11
510.9665333245562
 21
-270.731141166932
 31
0
  0
LINE
  8
1
 62
3
 10
505.9665333245562
 20
-271.231141166932
 30
0
 11
510.9665333245562
 21
-271.231141166932
 31
0
  0
LINE
  8
1
 62
3
 10
505.9665333245562
 20
-271.731141166932
 30
0
 11
510.9665333245562
 21
-271.731141166932
 31
0
  0
LINE
  8
1
 62
3
 10
505.9665333245562
 20
-272.231141166932
 30
0
 11
510.9665333245562
 21
-272.231141166932
 31
0
  0
LINE
  8
1
 62
3
 10
505.9665333245562
 20
-272.731141166932
 30
0
 11
510.9665333245562
 21
-272.731141166932
 31
0
  0
LINE
  8
1
 62
3
 10
505.9665333245562
 20
-273.231141166932
 30
0
 11
510.9665333245562
 21
-273.231141166932
 31
0
  0
LINE
  8
1
 62
3
 10
505.9665333245562
 20
-273.731141166932
 30
0
 11
510.9665333245562
 21
-273.731141166932
 31
0
  0
LINE
  8
1
 62
3
 10
505.9665333245562
 20
-274.231141166932
 30
0
 11
510.9665333245562
 21
-274.231141166932
 31
0
  0
LINE
  8
1
 62
3
 10
505.9665333245562
 20
-274.731141166932
 30
0
 11
510.9665333245562
 21
-274.731141166932
 31
0
  0
LINE
  8
1
 62
3
 10
505.9665333245562
 20
-275.231141166932
 30
0
 11
510.9665333245562
 21
-275.231141166932
 31
0
  0
LINE
  8
1
 62
3
 10
505.9665333245562
 20
-275.731141166932
 30
0
 11
510.9665333245562
 21
-275.731141166932
 31
0
  0
LINE
  8
1
 62
3
 10
505.9665333245562
 20
-276.231141166932
 30
0
 11
510.9665333245562
 21
-276.231141166932
 31
0
  0
LINE
  8
1
 62
3
 10
505.9665333245562
 20
-276.731141166932
 30
0
 11
510.9665333245562
 21
-276.731141166932
 31
0
  0
LINE
  8
1
 62
3
 10
505.9665333245562
 20
-277.231141166932
 30
0
 11
510.9665333245562
 21
-277.231141166932
 31
0
  0
LINE
  8
1
 62
3
 10
505.9665333245562
 20
-277.731141166932
 30
0
 11
510.9665333245562
 21
-277.731141166932
 31
0
  0
LINE
  8
1
 62
3
 10
505.9665333245562
 20
-278.231141166932
 30
0
 11
510.9665333245562
 21
-278.231141166932
 31
0
  0
LINE
  8
1
 62
3
 10
505.9665333245562
 20
-278.731141166932
 30
0
 11
510.9665333245562
 21
-278.731141166932
 31
0
  0
LINE
  8
1
 62
3
 10
505.9665333245562
 20
-279.231141166932
 30
0
 11
510.9665333245562
 21
-279.231141166932
 31
0
  0
LINE
  8
1
 62
3
 10
505.9665333245562
 20
-279.731141166932
 30
0
 11
510.9665333245562
 21
-279.731141166932
 31
0
  0
LINE
  8
1
 62
3
 10
505.9665333245562
 20
-280.231141166932
 30
0
 11
510.9665333245562
 21
-280.231141166932
 31
0
  0
LINE
  8
1
 62
3
 10
505.9665333245562
 20
-280.731141166932
 30
0
 11
510.9665333245562
 21
-280.731141166932
 31
0
  0
LINE
  8
1
 62
3
 10
505.9665333245562
 20
-281.231141166932
 30
0
 11
510.9665333245562
 21
-281.231141166932
 31
0
  0
LINE
  8
1
 62
3
 10
505.9665333245562
 20
-281.731141166932
 30
0
 11
510.9665333245562
 21
-281.731141166932
 31
0
  0
LINE
  8
1
 62
3
 10
505.9665333245562
 20
-282.231141166932
 30
0
 11
510.9665333245562
 21
-282.231141166932
 31
0
  0
LINE
  8
1
 62
3
 10
505.9665333245562
 20
-282.731141166932
 30
0
 11
510.9665333245562
 21
-282.731141166932
 31
0
  0
LINE
  8
1
 62
3
 10
505.9665333245562
 20
-283.231141166932
 30
0
 11
510.9665333245562
 21
-283.231141166932
 31
0
  0
LINE
  8
1
 62
3
 10
505.9665333245562
 20
-283.731141166932
 30
0
 11
510.9665333245562
 21
-283.731141166932
 31
0
  0
LINE
  8
1
 62
3
 10
505.9665333245562
 20
-284.231141166932
 30
0
 11
510.9665333245562
 21
-284.231141166932
 31
0
  0
LINE
  8
1
 62
3
 10
505.9665333245562
 20
-284.731141166932
 30
0
 11
510.9665333245562
 21
-284.731141166932
 31
0
  0
LINE
  8
1
 62
3
 10
505.9665333245562
 20
-285.231141166932
 30
0
 11
510.9665333245562
 21
-285.231141166932
 31
0
  0
LINE
  8
1
 62
3
 10
505.9665333245562
 20
-285.731141166932
 30
0
 11
510.9665333245562
 21
-285.731141166932
 31
0
  0
LINE
  8
1
 62
3
 10
505.9665333245562
 20
-286.231141166932
 30
0
 11
510.9665333245562
 21
-286.231141166932
 31
0
  0
LINE
  8
1
 62
3
 10
505.9665333245562
 20
-286.731141166932
 30
0
 11
510.9665333245562
 21
-286.731141166932
 31
0
  0
LINE
  8
1
 62
3
 10
505.9665333245562
 20
-287.231141166932
 30
0
 11
510.9665333245562
 21
-287.231141166932
 31
0
  0
LINE
  8
1
 62
3
 10
505.9665333245562
 20
-287.731141166932
 30
0
 11
510.9665333245562
 21
-287.731141166932
 31
0
  0
LINE
  8
1
 62
3
 10
505.9665333245562
 20
-288.231141166932
 30
0
 11
510.9665333245562
 21
-288.231141166932
 31
0
  0
LINE
  8
1
 62
3
 10
505.9665333245562
 20
-288.731141166932
 30
0
 11
510.9665333245562
 21
-288.731141166932
 31
0
  0
LINE
  8
1
 62
3
 10
505.9665333245562
 20
-289.231141166932
 30
0
 11
510.9665333245562
 21
-289.231141166932
 31
0
  0
LINE
  8
1
 62
3
 10
505.9665333245562
 20
-289.731141166932
 30
0
 11
510.9665333245562
 21
-289.731141166932
 31
0
  0
LINE
  8
1
 62
3
 10
505.9665333245562
 20
-290.231141166932
 30
0
 11
510.9665333245562
 21
-290.231141166932
 31
0
  0
LINE
  8
1
 62
3
 10
505.9665333245562
 20
-290.731141166932
 30
0
 11
510.9665333245562
 21
-290.731141166932
 31
0
  0
LINE
  8
1
 62
3
 10
505.9665333245562
 20
-291.231141166932
 30
0
 11
510.9665333245562
 21
-291.231141166932
 31
0
  0
LINE
  8
1
 62
3
 10
505.9665333245562
 20
-291.731141166932
 30
0
 11
510.9665333245562
 21
-291.731141166932
 31
0
  0
LINE
  8
1
 62
3
 10
505.9665333245562
 20
-292.231141166932
 30
0
 11
510.9665333245562
 21
-292.231141166932
 31
0
  0
LINE
  8
1
 62
3
 10
505.9665333245562
 20
-292.731141166932
 30
0
 11
510.9665333245562
 21
-292.731141166932
 31
0
  0
LINE
  8
1
 62
3
 10
505.9665333245562
 20
-293.231141166932
 30
0
 11
510.9665333245562
 21
-293.231141166932
 31
0
  0
LINE
  8
1
 62
3
 10
505.9665333245562
 20
-293.731141166932
 30
0
 11
510.9665333245562
 21
-293.731141166932
 31
0
  0
LINE
  8
1
 62
3
 10
505.9665333245562
 20
-294.231141166932
 30
0
 11
510.9665333245562
 21
-294.231141166932
 31
0
  0
LINE
  8
1
 62
3
 10
505.9665333245562
 20
-294.731141166932
 30
0
 11
510.9665333245562
 21
-294.731141166932
 31
0
  0
LINE
  8
1
 62
3
 10
505.9665333245562
 20
-295.231141166932
 30
0
 11
510.9665333245562
 21
-295.231141166932
 31
0
  0
LINE
  8
1
 62
3
 10
505.9665333245562
 20
-295.731141166932
 30
0
 11
510.9665333245562
 21
-295.731141166932
 31
0
  0
LINE
  8
1
 62
3
 10
505.9665333245562
 20
-296.231141166932
 30
0
 11
510.9665333245562
 21
-296.231141166932
 31
0
  0
LINE
  8
1
 62
3
 10
505.9665333245562
 20
-296.731141166932
 30
0
 11
510.9665333245562
 21
-296.731141166932
 31
0
  0
LINE
  8
1
 62
3
 10
505.9665333245562
 20
-297.231141166932
 30
0
 11
510.9665333245562
 21
-297.231141166932
 31
0
  0
LINE
  8
1
 62
3
 10
505.9665333245562
 20
-297.731141166932
 30
0
 11
510.9665333245562
 21
-297.731141166932
 31
0
  0
LINE
  8
1
 62
3
 10
505.9665333245562
 20
-298.231141166932
 30
0
 11
510.9665333245562
 21
-298.231141166932
 31
0
  0
LINE
  8
1
 62
3
 10
505.9665333245562
 20
-298.731141166932
 30
0
 11
510.9665333245562
 21
-298.731141166932
 31
0
  0
LINE
  8
1
 62
3
 10
505.9665333245562
 20
-299.231141166932
 30
0
 11
510.9665333245562
 21
-299.231141166932
 31
0
  0
LINE
  8
1
 62
3
 10
505.9665333245562
 20
-299.731141166932
 30
0
 11
510.9665333245562
 21
-299.731141166932
 31
0
  0
LINE
  8
1
 62
3
 10
505.9665333245562
 20
-300.231141166932
 30
0
 11
510.9665333245562
 21
-300.231141166932
 31
0
  0
ENDBLK
  8
0
  0
BLOCK
  8
1
  2
*X1
 70
1
 10
0
 20
0
 30
0
  0
LINE
  8
1
 62
3
 10
505.9665333245562
 20
-218.731141166932
 30
0
 11
510.9665333245562
 21
-218.731141166932
 31
0
  0
LINE
  8
1
 62
3
 10
505.9665333245562
 20
-219.231141166932
 30
0
 11
510.9665333245562
 21
-219.231141166932
 31
0
  0
LINE
  8
1
 62
3
 10
505.9665333245562
 20
-219.731141166932
 30
0
 11
510.9665333245562
 21
-219.731141166932
 31
0
  0
LINE
  8
1
 62
3
 10
505.9665333245562
 20
-220.231141166932
 30
0
 11
510.9665333245562
 21
-220.231141166932
 31
0
  0
LINE
  8
1
 62
3
 10
505.9665333245562
 20
-220.731141166932
 30
0
 11
510.9665333245562
 21
-220.731141166932
 31
0
  0
LINE
  8
1
 62
3
 10
505.9665333245562
 20
-221.231141166932
 30
0
 11
510.9665333245562
 21
-221.231141166932
 31
0
  0
LINE
  8
1
 62
3
 10
505.9665333245562
 20
-221.731141166932
 30
0
 11
510.9665333245562
 21
-221.731141166932
 31
0
  0
LINE
  8
1
 62
3
 10
505.9665333245562
 20
-222.231141166932
 30
0
 11
510.9665333245562
 21
-222.231141166932
 31
0
  0
LINE
  8
1
 62
3
 10
505.9665333245562
 20
-222.731141166932
 30
0
 11
510.9665333245562
 21
-222.731141166932
 31
0
  0
LINE
  8
1
 62
3
 10
505.9665333245562
 20
-223.231141166932
 30
0
 11
510.9665333245562
 21
-223.231141166932
 31
0
  0
LINE
  8
1
 62
3
 10
505.9665333245562
 20
-223.731141166932
 30
0
 11
510.9665333245562
 21
-223.731141166932
 31
0
  0
LINE
  8
1
 62
3
 10
505.9665333245562
 20
-224.231141166932
 30
0
 11
510.9665333245562
 21
-224.231141166932
 31
0
  0
LINE
  8
1
 62
3
 10
505.9665333245562
 20
-224.731141166932
 30
0
 11
510.9665333245562
 21
-224.731141166932
 31
0
  0
LINE
  8
1
 62
3
 10
505.9665333245562
 20
-225.231141166932
 30
0
 11
510.9665333245562
 21
-225.231141166932
 31
0
  0
LINE
  8
1
 62
3
 10
505.9665333245562
 20
-225.731141166932
 30
0
 11
510.9665333245562
 21
-225.731141166932
 31
0
  0
LINE
  8
1
 62
3
 10
505.9665333245562
 20
-226.231141166932
 30
0
 11
510.9665333245562
 21
-226.231141166932
 31
0
  0
LINE
  8
1
 62
3
 10
505.9665333245562
 20
-226.731141166932
 30
0
 11
510.9665333245562
 21
-226.731141166932
 31
0
  0
LINE
  8
1
 62
3
 10
505.9665333245562
 20
-227.231141166932
 30
0
 11
510.9665333245562
 21
-227.231141166932
 31
0
  0
LINE
  8
1
 62
3
 10
505.9665333245562
 20
-227.731141166932
 30
0
 11
510.9665333245562
 21
-227.731141166932
 31
0
  0
LINE
  8
1
 62
3
 10
505.9665333245562
 20
-228.231141166932
 30
0
 11
510.9665333245562
 21
-228.231141166932
 31
0
  0
LINE
  8
1
 62
3
 10
505.9665333245562
 20
-228.731141166932
 30
0
 11
510.9665333245562
 21
-228.731141166932
 31
0
  0
LINE
  8
1
 62
3
 10
505.9665333245562
 20
-229.231141166932
 30
0
 11
510.9665333245562
 21
-229.231141166932
 31
0
  0
LINE
  8
1
 62
3
 10
505.9665333245562
 20
-229.731141166932
 30
0
 11
510.9665333245562
 21
-229.731141166932
 31
0
  0
LINE
  8
1
 62
3
 10
505.9665333245562
 20
-230.231141166932
 30
0
 11
510.9665333245562
 21
-230.231141166932
 31
0
  0
LINE
  8
1
 62
3
 10
505.9665333245562
 20
-230.731141166932
 30
0
 11
510.9665333245562
 21
-230.731141166932
 31
0
  0
LINE
  8
1
 62
3
 10
505.9665333245562
 20
-231.231141166932
 30
0
 11
510.9665333245562
 21
-231.231141166932
 31
0
  0
LINE
  8
1
 62
3
 10
505.9665333245562
 20
-231.731141166932
 30
0
 11
510.9665333245562
 21
-231.731141166932
 31
0
  0
LINE
  8
1
 62
3
 10
505.9665333245562
 20
-232.231141166932
 30
0
 11
510.9665333245562
 21
-232.231141166932
 31
0
  0
LINE
  8
1
 62
3
 10
505.9665333245562
 20
-232.731141166932
 30
0
 11
510.9665333245562
 21
-232.731141166932
 31
0
  0
LINE
  8
1
 62
3
 10
505.9665333245562
 20
-233.231141166932
 30
0
 11
510.9665333245562
 21
-233.231141166932
 31
0
  0
LINE
  8
1
 62
3
 10
505.9665333245562
 20
-233.731141166932
 30
0
 11
510.9665333245562
 21
-233.731141166932
 31
0
  0
LINE
  8
1
 62
3
 10
505.9665333245562
 20
-234.231141166932
 30
0
 11
510.9665333245562
 21
-234.231141166932
 31
0
  0
LINE
  8
1
 62
3
 10
505.9665333245562
 20
-234.731141166932
 30
0
 11
510.9665333245562
 21
-234.731141166932
 31
0
  0
LINE
  8
1
 62
3
 10
505.9665333245562
 20
-235.231141166932
 30
0
 11
510.9665333245562
 21
-235.231141166932
 31
0
  0
LINE
  8
1
 62
3
 10
505.9665333245562
 20
-235.731141166932
 30
0
 11
510.9665333245562
 21
-235.731141166932
 31
0
  0
LINE
  8
1
 62
3
 10
505.9665333245562
 20
-236.231141166932
 30
0
 11
510.9665333245562
 21
-236.231141166932
 31
0
  0
LINE
  8
1
 62
3
 10
505.9665333245562
 20
-236.731141166932
 30
0
 11
510.9665333245562
 21
-236.731141166932
 31
0
  0
LINE
  8
1
 62
3
 10
505.9665333245562
 20
-237.231141166932
 30
0
 11
510.9665333245562
 21
-237.231141166932
 31
0
  0
LINE
  8
1
 62
3
 10
505.9665333245562
 20
-237.731141166932
 30
0
 11
510.9665333245562
 21
-237.731141166932
 31
0
  0
LINE
  8
1
 62
3
 10
505.9665333245562
 20
-238.231141166932
 30
0
 11
510.9665333245562
 21
-238.231141166932
 31
0
  0
LINE
  8
1
 62
3
 10
505.9665333245562
 20
-238.731141166932
 30
0
 11
510.9665333245562
 21
-238.731141166932
 31
0
  0
LINE
  8
1
 62
3
 10
505.9665333245562
 20
-239.231141166932
 30
0
 11
510.9665333245562
 21
-239.231141166932
 31
0
  0
LINE
  8
1
 62
3
 10
505.9665333245562
 20
-239.731141166932
 30
0
 11
510.9665333245562
 21
-239.731141166932
 31
0
  0
LINE
  8
1
 62
3
 10
505.9665333245562
 20
-240.231141166932
 30
0
 11
510.9665333245562
 21
-240.231141166932
 31
0
  0
LINE
  8
1
 62
3
 10
505.9665333245562
 20
-240.731141166932
 30
0
 11
510.9665333245562
 21
-240.731141166932
 31
0
  0
LINE
  8
1
 62
3
 10
505.9665333245562
 20
-241.231141166932
 30
0
 11
510.9665333245562
 21
-241.231141166932
 31
0
  0
LINE
  8
1
 62
3
 10
505.9665333245562
 20
-241.731141166932
 30
0
 11
510.9665333245562
 21
-241.731141166932
 31
0
  0
LINE
  8
1
 62
3
 10
505.9665333245562
 20
-242.231141166932
 30
0
 11
510.9665333245562
 21
-242.231141166932
 31
0
  0
LINE
  8
1
 62
3
 10
505.9665333245562
 20
-242.731141166932
 30
0
 11
510.9665333245562
 21
-242.731141166932
 31
0
  0
LINE
  8
1
 62
3
 10
505.9665333245562
 20
-243.231141166932
 30
0
 11
510.9665333245562
 21
-243.231141166932
 31
0
  0
LINE
  8
1
 62
3
 10
505.9665333245562
 20
-243.731141166932
 30
0
 11
510.9665333245562
 21
-243.731141166932
 31
0
  0
LINE
  8
1
 62
3
 10
505.9665333245562
 20
-244.231141166932
 30
0
 11
510.9665333245562
 21
-244.231141166932
 31
0
  0
LINE
  8
1
 62
3
 10
505.9665333245562
 20
-244.731141166932
 30
0
 11
510.9665333245562
 21
-244.731141166932
 31
0
  0
LINE
  8
1
 62
3
 10
505.9665333245562
 20
-245.231141166932
 30
0
 11
510.9665333245562
 21
-245.231141166932
 31
0
  0
LINE
  8
1
 62
3
 10
505.9665333245562
 20
-245.731141166932
 30
0
 11
510.9665333245562
 21
-245.731141166932
 31
0
  0
LINE
  8
1
 62
3
 10
505.9665333245562
 20
-246.231141166932
 30
0
 11
510.9665333245562
 21
-246.231141166932
 31
0
  0
LINE
  8
1
 62
3
 10
505.9665333245562
 20
-246.731141166932
 30
0
 11
510.9665333245562
 21
-246.731141166932
 31
0
  0
LINE
  8
1
 62
3
 10
505.9665333245562
 20
-247.231141166932
 30
0
 11
510.9665333245562
 21
-247.231141166932
 31
0
  0
LINE
  8
1
 62
3
 10
505.9665333245562
 20
-247.731141166932
 30
0
 11
510.9665333245562
 21
-247.731141166932
 31
0
  0
LINE
  8
1
 62
3
 10
505.9665333245562
 20
-248.231141166932
 30
0
 11
510.9665333245562
 21
-248.231141166932
 31
0
  0
LINE
  8
1
 62
3
 10
505.9665333245562
 20
-248.731141166932
 30
0
 11
510.9665333245562
 21
-248.731141166932
 31
0
  0
LINE
  8
1
 62
3
 10
505.9665333245562
 20
-249.231141166932
 30
0
 11
510.9665333245562
 21
-249.231141166932
 31
0
  0
LINE
  8
1
 62
3
 10
505.9665333245562
 20
-249.731141166932
 30
0
 11
510.9665333245562
 21
-249.731141166932
 31
0
  0
LINE
  8
1
 62
3
 10
505.9665333245562
 20
-250.231141166932
 30
0
 11
510.9665333245562
 21
-250.231141166932
 31
0
  0
LINE
  8
1
 62
3
 10
505.9665333245562
 20
-250.731141166932
 30
0
 11
510.9665333245562
 21
-250.731141166932
 31
0
  0
LINE
  8
1
 62
3
 10
505.9665333245562
 20
-251.231141166932
 30
0
 11
510.9665333245562
 21
-251.231141166932
 31
0
  0
LINE
  8
1
 62
3
 10
505.9665333245562
 20
-251.731141166932
 30
0
 11
510.9665333245562
 21
-251.731141166932
 31
0
  0
LINE
  8
1
 62
3
 10
505.9665333245562
 20
-252.231141166932
 30
0
 11
510.9665333245562
 21
-252.231141166932
 31
0
  0
LINE
  8
1
 62
3
 10
505.9665333245562
 20
-252.731141166932
 30
0
 11
510.9665333245562
 21
-252.731141166932
 31
0
  0
LINE
  8
1
 62
3
 10
505.9665333245562
 20
-253.231141166932
 30
0
 11
510.9665333245562
 21
-253.231141166932
 31
0
  0
LINE
  8
1
 62
3
 10
505.9665333245562
 20
-253.731141166932
 30
0
 11
510.9665333245562
 21
-253.731141166932
 31
0
  0
LINE
  8
1
 62
3
 10
505.9665333245562
 20
-254.231141166932
 30
0
 11
510.9665333245562
 21
-254.231141166932
 31
0
  0
LINE
  8
1
 62
3
 10
505.9665333245562
 20
-254.731141166932
 30
0
 11
510.9665333245562
 21
-254.731141166932
 31
0
  0
LINE
  8
1
 62
3
 10
505.9665333245562
 20
-255.231141166932
 30
0
 11
510.9665333245562
 21
-255.231141166932
 31
0
  0
LINE
  8
1
 62
3
 10
505.9665333245562
 20
-255.731141166932
 30
0
 11
510.9665333245562
 21
-255.731141166932
 31
0
  0
LINE
  8
1
 62
3
 10
505.9665333245562
 20
-256.231141166932
 30
0
 11
510.9665333245562
 21
-256.231141166932
 31
0
  0
LINE
  8
1
 62
3
 10
505.9665333245562
 20
-256.731141166932
 30
0
 11
510.9665333245562
 21
-256.731141166932
 31
0
  0
LINE
  8
1
 62
3
 10
505.9665333245562
 20
-257.231141166932
 30
0
 11
510.9665333245562
 21
-257.231141166932
 31
0
  0
LINE
  8
1
 62
3
 10
505.9665333245562
 20
-257.731141166932
 30
0
 11
510.9665333245562
 21
-257.731141166932
 31
0
  0
LINE
  8
1
 62
3
 10
505.9665333245562
 20
-258.231141166932
 30
0
 11
510.9665333245562
 21
-258.231141166932
 31
0
  0
LINE
  8
1
 62
3
 10
505.9665333245562
 20
-258.731141166932
 30
0
 11
510.9665333245562
 21
-258.731141166932
 31
0
  0
ENDBLK
  8
0
  0
ENDSEC
  0
SECTION
  2
ENTITIES
  0
INSERT
  8
1
  2
*X0
 10
0
 20
0
 30
0
  0
INSERT
  8
1
  2
*X1
 10
0
 20
0
 30
0
  0
LINE
  8
1
 62
7
 10
520.2165333245562
 20
-218.5903643615374
 30
0
 11
553.5665333245563
 21
-218.5903643615374
 31
0
  0
LINE
  8
1
 62
7
 10
554.5665333245563
 20
-299.5903643615374
 30
0
 11
553.5665333245563
 21
-300.5903643615374
 31
0
  0
LINE
  8
1
 62
7
 10
553.5665333245563
 20
-218.5903643615374
 30
0
 11
554.5665333245563
 21
-219.5903643615374
 31
0
  0
LINE
  8
1
 62
7
 10
554.5665333245563
 20
-219.5903643615374
 30
0
 11
554.5665333245563
 21
-299.5903643615374
 31
0
  0
LINE
  8
1
 62
7
 10
303.6665333245562
 20
-274.5903643615374
 30
0
 11
303.6665333245562
 21
-295.0903643615374
 31
0
  0
LINE
  8
1
 62
7
 10
303.6665333245562
 20
-244.5903643615374
 30
0
 11
303.6665333245562
 21
-224.0903643615374
 31
0
  0
LINE
  8
1
 62
7
 10
308.287628740054
 20
-269.8903643615374
 30
0
 11
308.6665333245562
 21
-269.8903643615374
 31
0
  0
LINE
  8
1
 62
7
 10
304.9961643833131
 20
-272.0903643615374
 30
0
 11
284.3665333245562
 21
-272.0903643615374
 31
0
  0
LINE
  8
1
 62
3
  6
DASHDOT
 10
306.6665333245562
 20
-275.0903643615374
 30
0
 11
306.6665333245562
 21
-265.7356638231581
 31
0
  0
LINE
  8
1
 62
7
 10
306.6665333245562
 20
-268.7356638231581
 30
0
 11
308.6665333245562
 21
-269.8903643615374
 31
0
  0
LINE
  8
1
 62
7
 10
304.6665333245562
 20
-269.8903643615374
 30
0
 11
306.6665333245562
 21
-268.7356638231581
 31
0
  0
LINE
  8
1
 62
7
 10
308.6665333245562
 20
-269.8903643615374
 30
0
 11
308.6665333245562
 21
-272.0903643615374
 31
0
  0
LINE
  8
1
 62
7
 10
304.6665333245562
 20
-269.8903643615374
 30
0
 11
305.0454379090584
 21
-269.8903643615374
 31
0
  0
LINE
  8
1
 62
7
 10
304.6665333245562
 20
-272.0903643615374
 30
0
 11
304.6665333245562
 21
-269.8903643615374
 31
0
  0
LINE
  8
1
 62
7
 10
510.9665333245562
 20
-300.5903643615374
 30
0
 11
553.5665333245563
 21
-300.5903643615374
 31
0
  0
LINE
  8
1
 62
7
 10
510.9665333245562
 20
-259.0903643615374
 30
0
 11
510.9665333245562
 21
-260.0903643615374
 31
0
  0
LINE
  8
1
 62
7
 10
510.9665333245562
 20
-260.0903643615374
 30
0
 11
510.9665333245562
 21
-300.5903643615374
 31
0
  0
LINE
  8
1
 62
7
 10
505.9665333245562
 20
-260.0903643615374
 30
0
 11
505.9665333245562
 21
-259.0903643615374
 31
0
  0
LINE
  8
1
 62
7
 10
505.9665333245562
 20
-259.0903643615374
 30
0
 11
505.9665333245562
 21
-218.5903643615374
 31
0
  0
LINE
  8
1
 62
7
 10
510.9665333245562
 20
-218.5903643615374
 30
0
 11
505.9665333245562
 21
-218.5903643615374
 31
0
  0
LINE
  8
1
 62
7
 10
313.0165333245562
 20
-295.0903643615374
 30
0
 11
313.0165333245562
 21
-274.5903643615374
 31
0
  0
LINE
  8
1
 62
7
 10
299.8165333245561
 20
-295.0903643615374
 30
0
 11
299.8165333245561
 21
-296.0903643615374
 31
0
  0
LINE
  8
1
 62
7
 10
312.0165333245562
 20
-295.0903643615374
 30
0
 11
312.0165333245562
 21
-296.0903643615374
 31
0
  0
LINE
  8
1
 62
7
 10
298.8165333245561
 20
-224.0903643615374
 30
0
 11
298.8165333245561
 21
-244.5903643615374
 31
0
  0
LINE
  8
1
 62
7
 10
312.0165333245562
 20
-224.0903643615374
 30
0
 11
312.0165333245562
 21
-223.0903643615374
 31
0
  0
LINE
  8
1
 62
7
 10
299.8165333245561
 20
-223.0903643615374
 30
0
 11
299.8165333245561
 21
-224.0903643615374
 31
0
  0
LINE
  8
1
 62
3
  6
DASHDOT
 10
518.4665333245562
 20
-259.5903643615374
 30
0
 11
525.2808324456833
 21
-259.5903643615374
 31
0
  0
LINE
  8
1
 62
3
  6
DASHDOT
 10
493.375092365862
 20
-259.5903643615374
 30
0
 11
512.4665333245562
 21
-259.5903643615374
 31
0
  0
LINE
  8
1
 62
7
 10
512.4665333245562
 20
-254.5903643615374
 30
0
 11
518.4665333245562
 21
-254.5903643615374
 31
0
  0
LINE
  8
1
 62
7
 10
512.4665333245562
 20
-297.3323847349495
 30
0
 11
512.4665333245562
 21
-254.5903643615374
 31
0
  0
LINE
  8
1
 62
7
 10
518.4665333245562
 20
-297.3323847349495
 30
0
 11
512.4665333245562
 21
-297.3323847349495
 31
0
  0
LINE
  8
1
 62
7
 10
518.4665333245562
 20
-254.5903643615374
 30
0
 11
518.4665333245562
 21
-297.3323847349495
 31
0
  0
LINE
  8
1
 62
7
 10
513.9665333245562
 20
-293.0477962230575
 30
0
 11
512.4665333245562
 21
-293.0477962230575
 31
0
  0
LINE
  8
1
 62
7
 10
513.9665333245562
 20
-288.4714214440505
 30
0
 11
512.4665333245562
 21
-288.4714214440505
 31
0
  0
LINE
  8
1
 62
7
 10
513.9665333245562
 20
-283.0175103601115
 30
0
 11
512.4665333245562
 21
-283.0175103601115
 31
0
  0
LINE
  8
1
 62
7
 10
513.9665333245562
 20
-276.8517772997136
 30
0
 11
512.4665333245562
 21
-276.8517772997136
 31
0
  0
LINE
  8
1
 62
7
 10
513.9665333245562
 20
-270.1615649418857
 30
0
 11
512.4665333245562
 21
-270.1615649418857
 31
0
  0
LINE
  8
1
 62
7
 10
513.9665333245562
 20
-263.1501520037095
 30
0
 11
512.4665333245562
 21
-263.1501520037095
 31
0
  0
LINE
  8
1
 62
7
 10
515.4665333245562
 20
-295.0974059166994
 30
0
 11
512.4665333245562
 21
-295.0974059166994
 31
0
  0
LINE
  8
1
 62
7
 10
515.4665333245562
 20
-290.9981865294154
 30
0
 11
512.4665333245562
 21
-290.9981865294154
 31
0
  0
LINE
  8
1
 62
7
 10
515.4665333245562
 20
-285.9446563586855
 30
0
 11
512.4665333245562
 21
-285.9446563586855
 31
0
  0
LINE
  8
1
 62
7
 10
515.4665333245562
 20
-280.0903643615374
 30
0
 11
512.4665333245562
 21
-280.0903643615374
 31
0
  0
LINE
  8
1
 62
7
 10
515.4665333245562
 20
-273.6131902378898
 30
0
 11
512.4665333245562
 21
-273.6131902378898
 31
0
  0
LINE
  8
1
 62
7
 10
515.4665333245562
 20
-266.7099396458816
 30
0
 11
512.4665333245562
 21
-266.7099396458816
 31
0
  0
LINE
  8
1
 62
7
 10
515.4665333245562
 20
-259.5903643615374
 30
0
 11
512.4665333245562
 21
-259.5903643615374
 31
0
  0
LINE
  8
1
 62
7
 10
510.9665333245562
 20
-260.0903643615374
 30
0
 11
505.9665333245562
 21
-260.0903643615374
 31
0
  0
LINE
  8
1
 62
7
 10
510.9665333245562
 20
-259.0903643615374
 30
0
 11
505.9665333245562
 21
-259.0903643615374
 31
0
  0
LINE
  8
1
 62
7
 10
505.9665333245562
 20
-300.5903643615374
 30
0
 11
505.9665333245562
 21
-260.0903643615374
 31
0
  0
LINE
  8
1
 62
7
 10
504.9665333245562
 20
-219.5903643615374
 30
0
 11
505.9665333245562
 21
-218.5903643615374
 31
0
  0
LINE
  8
1
 62
7
 10
505.9665333245562
 20
-300.5903643615374
 30
0
 11
504.9665333245562
 21
-299.5903643615374
 31
0
  0
LINE
  8
1
 62
7
 10
497.3665333245562
 20
-272.0903643615374
 30
0
 11
504.9665333245562
 21
-272.0903643615374
 31
0
  0
LINE
  8
1
 62
7
 10
497.3665333245562
 20
-247.0903643615374
 30
0
 11
497.3665333245562
 21
-272.0903643615374
 31
0
  0
LINE
  8
1
 62
7
 10
504.9665333245562
 20
-247.0903643615374
 30
0
 11
497.3665333245562
 21
-247.0903643615374
 31
0
  0
LINE
  8
1
 62
7
 10
510.9665333245562
 20
-218.5903643615374
 30
0
 11
510.9665333245562
 21
-259.0903643615374
 31
0
  0
LINE
  8
1
 62
7
 10
505.9665333245562
 20
-300.5903643615374
 30
0
 11
510.9665333245562
 21
-300.5903643615374
 31
0
  0
LINE
  8
1
 62
7
 10
504.9665333245562
 20
-219.5903643615374
 30
0
 11
504.9665333245562
 21
-299.5903643615374
 31
0
  0
LINE
  8
1
 62
3
  6
DASHED
 10
452.1145016597307
 20
-243.2236572122455
 30
0
 11
454.2868455141669
 21
-241.9694539031142
 31
0
  0
LINE
  8
1
 62
3
  6
DASHED
 10
418.7665333245562
 20
-222.6295948460787
 30
0
 11
415.7665333245562
 21
-222.6295948460787
 31
0
  0
LINE
  8
1
 62
3
  6
DASHED
 10
416.3665333245562
 20
-222.6295948460787
 30
0
 11
415.7665333245562
 21
-221.5903643615374
 31
0
  0
LINE
  8
1
 62
3
  6
DASHED
 10
416.3665333245562
 20
-229.0903643615374
 30
0
 11
416.3665333245562
 21
-222.6295948460787
 31
0
  0
LINE
  8
1
 62
3
  6
DASHED
 10
418.1665333245562
 20
-222.6295948460787
 30
0
 11
418.7665333245562
 21
-221.5903643615374
 31
0
  0
LINE
  8
1
 62
3
  6
DASHED
 10
418.1665333245562
 20
-229.0903643615374
 30
0
 11
418.1665333245562
 21
-222.6295948460787
 31
0
  0
LINE
  8
1
 62
3
  6
DASHED
 10
418.7665333245562
 20
-228.4903643615374
 30
0
 11
415.7665333245562
 21
-228.4903643615374
 31
0
  0
LINE
  8
1
 62
3
  6
DASHED
 10
415.7665333245562
 20
-228.4903643615374
 30
0
 11
415.7665333245562
 21
-221.0903643615374
 31
0
  0
LINE
  8
1
 62
3
  6
DASHED
 10
416.3665333245562
 20
-229.0903643615374
 30
0
 11
415.7665333245562
 21
-228.4903643615374
 31
0
  0
LINE
  8
1
 62
3
  6
DASHED
 10
418.1665333245562
 20
-229.0903643615374
 30
0
 11
416.3665333245562
 21
-229.0903643615374
 31
0
  0
LINE
  8
1
 62
3
  6
DASHED
 10
418.7665333245562
 20
-228.4903643615374
 30
0
 11
418.1665333245562
 21
-229.0903643615374
 31
0
  0
LINE
  8
1
 62
3
  6
DASHED
 10
418.7665333245562
 20
-221.0903643615374
 30
0
 11
418.7665333245562
 21
-228.4903643615374
 31
0
  0
LINE
  8
1
 62
3
  6
DASHED
 10
414.0165333245562
 20
-218.7193783200923
 30
0
 11
414.0165333245562
 21
-221.2277849383547
 31
0
  0
LINE
  8
1
 62
3
  6
DASHED
 10
415.7665333245562
 20
-296.551133876996
 30
0
 11
418.7665333245562
 21
-296.551133876996
 31
0
  0
LINE
  8
1
 62
3
  6
DASHED
 10
418.1665333245562
 20
-296.551133876996
 30
0
 11
418.7665333245562
 21
-297.5903643615374
 31
0
  0
LINE
  8
1
 62
3
  6
DASHED
 10
418.1665333245562
 20
-290.0903643615374
 30
0
 11
418.1665333245562
 21
-296.551133876996
 31
0
  0
LINE
  8
1
 62
3
  6
DASHED
 10
416.3665333245562
 20
-296.551133876996
 30
0
 11
415.7665333245562
 21
-297.5903643615374
 31
0
  0
LINE
  8
1
 62
3
  6
DASHED
 10
416.3665333245562
 20
-290.0903643615374
 30
0
 11
416.3665333245562
 21
-296.551133876996
 31
0
  0
LINE
  8
1
 62
3
  6
DASHED
 10
415.7665333245562
 20
-290.6903643615374
 30
0
 11
418.7665333245562
 21
-290.6903643615374
 31
0
  0
LINE
  8
1
 62
3
  6
DASHED
 10
418.7665333245562
 20
-290.6903643615374
 30
0
 11
418.7665333245562
 21
-298.0903643615374
 31
0
  0
LINE
  8
1
 62
3
  6
DASHED
 10
418.1665333245562
 20
-290.0903643615374
 30
0
 11
418.7665333245562
 21
-290.6903643615374
 31
0
  0
LINE
  8
1
 62
3
  6
DASHED
 10
416.3665333245562
 20
-290.0903643615374
 30
0
 11
418.1665333245562
 21
-290.0903643615374
 31
0
  0
LINE
  8
1
 62
3
  6
DASHED
 10
415.7665333245562
 20
-290.6903643615374
 30
0
 11
416.3665333245562
 21
-290.0903643615374
 31
0
  0
LINE
  8
1
 62
3
  6
DASHED
 10
415.7665333245562
 20
-298.0903643615374
 30
0
 11
415.7665333245562
 21
-290.6903643615374
 31
0
  0
LINE
  8
1
 62
3
  6
DASHED
 10
420.5165333245562
 20
-300.4613504029825
 30
0
 11
420.5165333245562
 21
-297.9529437847201
 31
0
  0
LINE
  8
1
 62
3
  6
DASHED
 10
382.4185649893818
 20
-275.9570715108293
 30
0
 11
380.2462211349456
 21
-277.2112748199605
 31
0
  0
LINE
  8
1
 62
3
  6
DASHDOT
 10
429.7665333245564
 20
-237.9397292669264
 30
0
 11
434.7665333245564
 21
-229.279475229082
 31
0
  0
LINE
  8
1
 62
3
  6
DASHDOT
 10
429.7665333245562
 20
-281.2409994561484
 30
0
 11
434.7665333245562
 21
-289.9012534939927
 31
0
  0
LINE
  8
1
 62
3
  6
DASHDOT
 10
417.2665333245562
 20
-247.0903643615374
 30
0
 11
417.2665333245562
 21
-307.5009024051364
 31
0
  0
LINE
  8
1
 62
7
 10
419.7665333245562
 20
-249.7903643615374
 30
0
 11
419.7665333245562
 21
-252.5192965496719
 31
0
  0
LINE
  8
1
 62
7
 10
414.7665333245562
 20
-249.7903643615374
 30
0
 11
419.7665333245562
 21
-249.7903643615374
 31
0
  0
LINE
  8
1
 62
7
 10
414.7665333245562
 20
-252.5192965496719
 30
0
 11
414.7665333245562
 21
-249.7903643615374
 31
0
  0
LINE
  8
1
 62
3
  6
DASHDOT
 10
417.2665333245562
 20
-211.6798263179384
 30
0
 11
417.2665333245562
 21
-247.0903643615374
 31
0
  0
LINE
  8
1
 62
3
  6
DASHDOT
 10
465.1770713681552
 20
-259.5903643615374
 30
0
 11
369.3559952809572
 21
-259.5903643615374
 31
0
  0
LINE
  8
1
 62
7
 10
324.8665333245563
 20
-300.5903643615374
 30
0
 11
324.8665333245562
 21
-296.0903643615374
 31
0
  0
LINE
  8
1
 62
7
 10
324.8665333245563
 20
-218.5903643615374
 30
0
 11
324.8665333245562
 21
-223.0903643615374
 31
0
  0
LINE
  8
1
 62
7
 10
319.9665333245562
 20
-223.0903643615374
 30
0
 11
324.9665333245562
 21
-223.0903643615374
 31
0
  0
LINE
  8
1
 62
7
 10
319.3665333245561
 20
-229.0903643615374
 30
0
 11
317.5665333245562
 21
-229.0903643615374
 31
0
  0
LINE
  8
1
 62
7
 10
317.5665333245562
 20
-229.0903643615374
 30
0
 11
316.9665333245562
 21
-228.4903643615374
 31
0
  0
LINE
  8
1
 62
7
 10
319.9665333245562
 20
-228.4903643615374
 30
0
 11
319.3665333245561
 21
-229.0903643615374
 31
0
  0
LINE
  8
1
 62
7
 10
319.9665333245562
 20
-228.4903643615374
 30
0
 11
316.9665333245562
 21
-228.4903643615374
 31
0
  0
LINE
  8
1
 62
3
 10
319.3665333245562
 20
-222.6295948460787
 30
0
 11
319.3665333245561
 21
-229.0903643615374
 31
0
  0
LINE
  8
1
 62
3
 10
317.5665333245562
 20
-222.6295948460787
 30
0
 11
317.5665333245562
 21
-229.0903643615374
 31
0
  0
LINE
  8
1
 62
7
 10
316.9665333245562
 20
-228.4903643615374
 30
0
 11
316.9665333245562
 21
-221.0903643615374
 31
0
  0
LINE
  8
1
 62
3
 10
316.9665333245562
 20
-221.5903643615374
 30
0
 11
317.5665333245562
 21
-222.6295948460787
 31
0
  0
LINE
  8
1
 62
3
 10
319.9665333245562
 20
-222.6295948460787
 30
0
 11
316.9665333245562
 21
-222.6295948460787
 31
0
  0
LINE
  8
1
 62
7
 10
319.9665333245562
 20
-221.0903643615374
 30
0
 11
319.9665333245562
 21
-228.4903643615374
 31
0
  0
LINE
  8
1
 62
3
 10
319.9665333245562
 20
-221.5903643615374
 30
0
 11
319.3665333245562
 21
-222.6295948460787
 31
0
  0
LINE
  8
1
 62
7
 10
295.1165333245561
 20
-223.0903643615374
 30
0
 11
316.9665333245562
 21
-223.0903643615374
 31
0
  0
LINE
  8
1
 62
3
  6
DASHDOT
 10
334.5665333245561
 20
-244.0903643615374
 30
0
 11
334.5665333245561
 21
-254.5274402429102
 31
0
  0
LINE
  8
1
 62
7
 10
284.3665333245562
 20
-252.5192965496719
 30
0
 11
338.0665333245561
 21
-252.5192965496719
 31
0
  0
LINE
  8
1
 62
7
 10
284.3665333245562
 20
-249.7903643615374
 30
0
 11
338.0665333245561
 21
-249.7903643615374
 31
0
  0
LINE
  8
1
 62
7
 10
284.3665333245562
 20
-267.0903643615374
 30
0
 11
338.0665333245561
 21
-267.0903643615374
 31
0
  0
LINE
  8
1
 62
7
 10
316.9665333245562
 20
-298.0903643615374
 30
0
 11
316.9665333245562
 21
-290.6903643615374
 31
0
  0
LINE
  8
1
 62
7
 10
319.9665333245562
 20
-290.6903643615374
 30
0
 11
319.9665333245562
 21
-298.0903643615374
 31
0
  0
LINE
  8
1
 62
3
 10
317.5665333245562
 20
-290.0903643615374
 30
0
 11
317.5665333245562
 21
-296.551133876996
 31
0
  0
LINE
  8
1
 62
3
 10
319.3665333245561
 20
-290.0903643615374
 30
0
 11
319.3665333245562
 21
-296.551133876996
 31
0
  0
LINE
  8
1
 62
7
 10
316.9665333245562
 20
-290.6903643615374
 30
0
 11
319.9665333245562
 21
-290.6903643615374
 31
0
  0
LINE
  8
1
 62
7
 10
319.3665333245561
 20
-290.0903643615374
 30
0
 11
319.9665333245562
 21
-290.6903643615374
 31
0
  0
LINE
  8
1
 62
7
 10
317.5665333245562
 20
-290.0903643615374
 30
0
 11
319.3665333245561
 21
-290.0903643615374
 31
0
  0
LINE
  8
1
 62
7
 10
316.9665333245562
 20
-290.6903643615374
 30
0
 11
317.5665333245562
 21
-290.0903643615374
 31
0
  0
LINE
  8
1
 62
3
 10
316.9665333245562
 20
-296.551133876996
 30
0
 11
319.9665333245562
 21
-296.551133876996
 31
0
  0
LINE
  8
1
 62
3
 10
319.3665333245562
 20
-296.551133876996
 30
0
 11
319.9665333245562
 21
-297.5903643615374
 31
0
  0
LINE
  8
1
 62
3
 10
317.5665333245562
 20
-296.551133876996
 30
0
 11
316.9665333245562
 21
-297.5903643615374
 31
0
  0
LINE
  8
1
 62
7
 10
316.7165333245562
 20
-298.0903643615374
 30
0
 11
316.7165333245562
 21
-296.0903643615374
 31
0
  0
LINE
  8
1
 62
7
 10
320.2165333245562
 20
-298.0903643615374
 30
0
 11
320.2165333245562
 21
-296.0903643615374
 31
0
  0
LINE
  8
1
 62
7
 10
321.7165333245562
 20
-298.0903643615374
 30
0
 11
321.7165333245562
 21
-300.5903643615374
 31
0
  0
LINE
  8
1
 62
7
 10
315.2165333245562
 20
-298.0903643615374
 30
0
 11
321.7165333245562
 21
-298.0903643615374
 31
0
  0
LINE
  8
1
 62
7
 10
315.2165333245562
 20
-300.5903643615374
 30
0
 11
315.2165333245562
 21
-298.0903643615374
 31
0
  0
LINE
  8
1
 62
7
 10
327.4665333245562
 20
-272.0903643615374
 30
0
 11
327.4665333245562
 21
-284.3403643615374
 31
0
  0
LINE
  8
1
 62
7
 10
329.2165333245562
 20
-247.0903643615374
 30
0
 11
329.2165333245562
 21
-234.8403643615374
 31
0
  0
LINE
  8
1
 62
7
 10
330.9665333245562
 20
-272.0903643615374
 30
0
 11
330.9665333245562
 21
-299.5903643615374
 31
0
  0
LINE
  8
1
 62
7
 10
324.9665333245562
 20
-218.5903643615374
 30
0
 11
329.9665333245562
 21
-218.5903643615374
 31
0
  0
LINE
  8
1
 62
7
 10
309.0165333245562
 20
-274.5903643615374
 30
0
 11
309.0165333245562
 21
-295.0903643615374
 31
0
  0
LINE
  8
1
 62
7
 10
313.0165333245562
 20
-244.5903643615374
 30
0
 11
313.0165333245562
 21
-224.0903643615374
 31
0
  0
LINE
  8
1
 62
7
 10
315.4665333245562
 20
-272.0903643615374
 30
0
 11
315.4665333245562
 21
-283.0903643615374
 31
0
  0
LINE
  8
1
 62
7
 10
327.3165333245563
 20
-236.0903643615374
 30
0
 11
327.3165333245563
 21
-234.8403643615374
 31
0
  0
LINE
  8
1
 62
7
 10
327.4665333245562
 20
-278.2403643615374
 30
0
 11
329.2165333245562
 21
-278.2403643615374
 31
0
  0
LINE
  8
1
 62
7
 10
327.4665333245562
 20
-239.3403643615374
 30
0
 11
329.2165333245562
 21
-239.3403643615374
 31
0
  0
LINE
  8
1
 62
7
 10
327.4665333245562
 20
-234.8403643615374
 30
0
 11
327.4665333245562
 21
-247.0903643615374
 31
0
  0
LINE
  8
1
 62
7
 10
316.8165333245562
 20
-281.0691143615373
 30
0
 11
316.8165333245562
 21
-274.1116143615374
 31
0
  0
LINE
  8
1
 62
7
 10
326.1165333245562
 20
-281.0691143615373
 30
0
 11
326.1165333245562
 21
-274.1116143615374
 31
0
  0
LINE
  8
1
 62
3
 10
321.4665333245562
 20
-281.5653643615374
 30
0
 11
321.4665333245562
 21
-273.6153643615374
 31
0
  0
LINE
  8
1
 62
3
 10
325.4415333245562
 20
-277.5903643615374
 30
0
 11
317.4915333245562
 21
-277.5903643615374
 31
0
  0
LINE
  8
1
 62
7
 10
323.2049161937769
 20
-280.3953643615374
 30
0
 11
327.4665333245562
 21
-280.3953643615374
 31
0
  0
LINE
  8
1
 62
7
 10
319.7281504553355
 20
-280.3953643615374
 30
0
 11
315.4665333245562
 21
-280.3953643615374
 31
0
  0
LINE
  8
1
 62
7
 10
323.2049161937769
 20
-274.7853643615374
 30
0
 11
327.4665333245562
 21
-274.7853643615374
 31
0
  0
LINE
  8
1
 62
7
 10
319.7281504553355
 20
-274.7853643615374
 30
0
 11
315.4665333245562
 21
-274.7853643615374
 31
0
  0
LINE
  8
1
 62
7
 10
316.8165333245562
 20
-238.1116143615374
 30
0
 11
316.8165333245562
 21
-245.0691143615373
 31
0
  0
LINE
  8
1
 62
7
 10
326.1165333245562
 20
-238.1116143615374
 30
0
 11
326.1165333245562
 21
-245.0691143615373
 31
0
  0
LINE
  8
1
 62
3
 10
321.4665333245562
 20
-237.6153643615374
 30
0
 11
321.4665333245562
 21
-245.5653643615374
 31
0
  0
LINE
  8
1
 62
3
 10
325.4415333245562
 20
-241.5903643615374
 30
0
 11
317.4915333245562
 21
-241.5903643615374
 31
0
  0
LINE
  8
1
 62
7
 10
323.2049161937769
 20
-238.7853643615374
 30
0
 11
327.4665333245562
 21
-238.7853643615374
 31
0
  0
LINE
  8
1
 62
7
 10
319.7281504553355
 20
-238.7853643615374
 30
0
 11
315.4665333245562
 21
-238.7853643615374
 31
0
  0
LINE
  8
1
 62
7
 10
323.2049161937769
 20
-244.3953643615374
 30
0
 11
327.4665333245562
 21
-244.3953643615374
 31
0
  0
LINE
  8
1
 62
7
 10
319.7281504553355
 20
-244.3953643615374
 30
0
 11
315.4665333245562
 21
-244.3953643615374
 31
0
  0
LINE
  8
1
 62
7
 10
324.9665333245562
 20
-223.0903643615374
 30
0
 11
324.9665333245562
 21
-218.5903643615374
 31
0
  0
LINE
  8
1
 62
7
 10
330.9665333245562
 20
-219.5903643615374
 30
0
 11
330.9665333245562
 21
-247.0903643615374
 31
0
  0
LINE
  8
1
 62
7
 10
330.9665333245562
 20
-236.0903643615374
 30
0
 11
329.2165333245562
 21
-236.0903643615374
 31
0
  0
LINE
  8
1
 62
7
 10
327.3165333245563
 20
-236.0903643615374
 30
0
 11
315.4665333245562
 21
-236.0903643615374
 31
0
  0
LINE
  8
1
 62
7
 10
327.3165333245563
 20
-234.8403643615374
 30
0
 11
329.2165333245562
 21
-234.8403643615374
 31
0
  0
LINE
  8
1
 62
7
 10
324.9665333245562
 20
-296.0903643615374
 30
0
 11
319.9665333245562
 21
-296.0903643615374
 31
0
  0
LINE
  8
1
 62
7
 10
324.9665333245562
 20
-300.5903643615374
 30
0
 11
324.9665333245562
 21
-296.0903643615374
 31
0
  0
LINE
  8
1
 62
7
 10
329.9665333245562
 20
-300.5903643615374
 30
0
 11
324.9665333245562
 21
-300.5903643615374
 31
0
  0
LINE
  8
1
 62
7
 10
329.2165333245562
 20
-283.0903643615374
 30
0
 11
330.9665333245562
 21
-283.0903643615374
 31
0
  0
LINE
  8
1
 62
7
 10
315.4665333245562
 20
-283.0903643615374
 30
0
 11
327.3165333245563
 21
-283.0903643615374
 31
0
  0
LINE
  8
1
 62
7
 10
329.2165333245562
 20
-284.3403643615374
 30
0
 11
327.3165333245563
 21
-284.3403643615374
 31
0
  0
LINE
  8
1
 62
7
 10
329.2165333245562
 20
-284.3403643615374
 30
0
 11
329.2165333245562
 21
-272.0903643615374
 31
0
  0
LINE
  8
1
 62
7
 10
315.4665333245562
 20
-236.0903643615374
 30
0
 11
315.4665333245562
 21
-247.0903643615374
 31
0
  0
LINE
  8
1
 62
7
 10
327.3165333245563
 20
-284.3403643615374
 30
0
 11
327.3165333245563
 21
-283.0903643615374
 31
0
  0
LINE
  8
1
 62
7
 10
330.9665333245562
 20
-299.5903643615374
 30
0
 11
329.9665333245562
 21
-300.5903643615374
 31
0
  0
LINE
  8
1
 62
7
 10
329.9665333245562
 20
-218.5903643615374
 30
0
 11
330.9665333245562
 21
-219.5903643615374
 31
0
  0
LINE
  8
1
 62
7
 10
313.0165333245562
 20
-224.0903643615374
 30
0
 11
309.0165333245562
 21
-224.0903643615374
 31
0
  0
LINE
  8
1
 62
7
 10
309.0165333245562
 20
-224.0903643615374
 30
0
 11
309.0165333245562
 21
-244.5903643615374
 31
0
  0
LINE
  8
1
 62
7
 10
309.0165333245562
 20
-295.0903643615374
 30
0
 11
313.0165333245562
 21
-295.0903643615374
 31
0
  0
LINE
  8
1
 62
7
 10
296.3665333245562
 20
-283.0903643615374
 30
0
 11
296.3665333245562
 21
-272.0903643615374
 31
0
  0
LINE
  8
1
 62
7
 10
298.8165333245561
 20
-274.5903643615374
 30
0
 11
298.8165333245561
 21
-295.0903643615374
 31
0
  0
LINE
  8
1
 62
7
 10
302.8165333245561
 20
-244.5903643615374
 30
0
 11
302.8165333245561
 21
-224.0903643615374
 31
0
  0
LINE
  8
1
 62
7
 10
308.1665333245562
 20
-244.5903643615374
 30
0
 11
315.4665333245562
 21
-244.5903643615374
 31
0
  0
LINE
  8
1
 62
7
 10
308.1665333245562
 20
-224.0903643615374
 30
0
 11
308.1665333245562
 21
-244.5903643615374
 31
0
  0
LINE
  8
1
 62
7
 10
303.6665333245562
 20
-224.0903643615374
 30
0
 11
308.1665333245562
 21
-224.0903643615374
 31
0
  0
LINE
  8
1
 62
7
 10
296.3665333245562
 20
-244.5903643615374
 30
0
 11
303.6665333245562
 21
-244.5903643615374
 31
0
  0
LINE
  8
1
 62
7
 10
296.3665333245562
 20
-247.0903643615374
 30
0
 11
296.3665333245562
 21
-236.0903643615374
 31
0
  0
LINE
  8
1
 62
7
 10
308.1665333245562
 20
-274.5903643615374
 30
0
 11
315.4665333245562
 21
-274.5903643615374
 31
0
  0
LINE
  8
1
 62
7
 10
308.1665333245562
 20
-295.0903643615374
 30
0
 11
308.1665333245562
 21
-274.5903643615374
 31
0
  0
LINE
  8
1
 62
7
 10
303.6665333245562
 20
-295.0903643615374
 30
0
 11
308.1665333245562
 21
-295.0903643615374
 31
0
  0
LINE
  8
1
 62
7
 10
296.3665333245562
 20
-274.5903643615374
 30
0
 11
303.6665333245562
 21
-274.5903643615374
 31
0
  0
LINE
  8
1
 62
7
 10
284.3665333245562
 20
-247.0903643615374
 30
0
 11
332.5665333245561
 21
-247.0903643615374
 31
0
  0
LINE
  8
1
 62
7
 10
338.0665333245561
 20
-272.0903643615374
 30
0
 11
308.3369022657993
 21
-272.0903643615374
 31
0
  0
LINE
  8
1
 62
3
  6
DASHDOT
 10
277.5687085650828
 20
-259.5903643615374
 30
0
 11
340.7924237374106
 21
-259.5903643615374
 31
0
  0
LINE
  8
1
 62
7
 10
338.0665333245561
 20
-247.0903643615374
 30
0
 11
338.0665333245561
 21
-272.0903643615374
 31
0
  0
LINE
  8
1
 62
3
 10
294.8665333245561
 20
-222.6295948460787
 30
0
 11
291.8665333245561
 21
-222.6295948460787
 31
0
  0
LINE
  8
1
 62
3
 10
294.8665333245561
 20
-221.5903643615374
 30
0
 11
294.2665333245561
 21
-222.6295948460787
 31
0
  0
LINE
  8
1
 62
3
 10
294.2665333245561
 20
-222.6295948460787
 30
0
 11
294.2665333245561
 21
-229.0903643615374
 31
0
  0
LINE
  8
1
 62
3
 10
291.8665333245561
 20
-221.5903643615374
 30
0
 11
292.4665333245561
 21
-222.6295948460787
 31
0
  0
LINE
  8
1
 62
3
 10
292.4665333245561
 20
-222.6295948460787
 30
0
 11
292.4665333245561
 21
-229.0903643615374
 31
0
  0
LINE
  8
1
 62
7
 10
294.8665333245561
 20
-228.4903643615374
 30
0
 11
291.8665333245561
 21
-228.4903643615374
 31
0
  0
LINE
  8
1
 62
7
 10
294.8665333245561
 20
-221.0903643615374
 30
0
 11
294.8665333245561
 21
-228.4903643615374
 31
0
  0
LINE
  8
1
 62
7
 10
294.8665333245561
 20
-228.4903643615374
 30
0
 11
294.2665333245561
 21
-229.0903643615374
 31
0
  0
LINE
  8
1
 62
7
 10
294.2665333245561
 20
-229.0903643615374
 30
0
 11
292.4665333245561
 21
-229.0903643615374
 31
0
  0
LINE
  8
1
 62
7
 10
292.4665333245561
 20
-229.0903643615374
 30
0
 11
291.8665333245561
 21
-228.4903643615374
 31
0
  0
LINE
  8
1
 62
7
 10
291.8665333245561
 20
-228.4903643615374
 30
0
 11
291.8665333245561
 21
-221.0903643615374
 31
0
  0
LINE
  8
1
 62
7
 10
294.8665333245561
 20
-218.9403643615374
 30
0
 11
291.8665333245561
 21
-218.9403643615374
 31
0
  0
LINE
  8
1
 62
7
 10
296.1165333245561
 20
-221.0903643615374
 30
0
 11
296.1165333245561
 21
-220.6903643615374
 31
0
  0
LINE
  8
1
 62
7
 10
296.1165333245561
 20
-220.6903643615374
 30
0
 11
290.6165333245561
 21
-220.6903643615374
 31
0
  0
LINE
  8
1
 62
7
 10
290.6165333245561
 20
-220.6903643615374
 30
0
 11
290.6165333245561
 21
-221.0903643615374
 31
0
  0
LINE
  8
1
 62
7
 10
291.6165333245561
 20
-223.0903643615374
 30
0
 11
291.6165333245561
 21
-221.0903643615374
 31
0
  0
LINE
  8
1
 62
7
 10
295.1165333245561
 20
-223.0903643615374
 30
0
 11
295.1165333245561
 21
-221.0903643615374
 31
0
  0
LINE
  8
1
 62
7
 10
296.6165333245561
 20
-218.5903643615374
 30
0
 11
296.6165333245561
 21
-221.0903643615374
 31
0
  0
LINE
  8
1
 62
7
 10
296.6165333245561
 20
-221.0903643615374
 30
0
 11
290.1165333245561
 21
-221.0903643615374
 31
0
  0
LINE
  8
1
 62
7
 10
290.1165333245561
 20
-221.0903643615374
 30
0
 11
290.1165333245561
 21
-218.5903643615374
 31
0
  0
LINE
  8
1
 62
7
 10
286.8665333245562
 20
-296.0903643615374
 30
0
 11
316.9665333245562
 21
-296.0903643615374
 31
0
  0
LINE
  8
1
 62
7
 10
316.7165333245562
 20
-221.0903643615374
 30
0
 11
316.7165333245562
 21
-223.0903643615374
 31
0
  0
LINE
  8
1
 62
7
 10
320.2165333245562
 20
-221.0903643615374
 30
0
 11
320.2165333245562
 21
-223.0903643615374
 31
0
  0
LINE
  8
1
 62
7
 10
321.7165333245562
 20
-218.5903643615374
 30
0
 11
321.7165333245562
 21
-221.0903643615374
 31
0
  0
LINE
  8
1
 62
7
 10
315.2165333245562
 20
-221.0903643615374
 30
0
 11
321.7165333245562
 21
-221.0903643615374
 31
0
  0
LINE
  8
1
 62
7
 10
315.2165333245562
 20
-218.5903643615374
 30
0
 11
315.2165333245562
 21
-221.0903643615374
 31
0
  0
LINE
  8
1
 62
7
 10
286.8665333245562
 20
-223.0903643615374
 30
0
 11
291.8665333245561
 21
-223.0903643615374
 31
0
  0
LINE
  8
1
 62
7
 10
298.8165333245561
 20
-295.0903643615374
 30
0
 11
302.8165333245561
 21
-295.0903643615374
 31
0
  0
LINE
  8
1
 62
7
 10
302.8165333245561
 20
-295.0903643615374
 30
0
 11
302.8165333245561
 21
-274.5903643615374
 31
0
  0
LINE
  8
1
 62
7
 10
302.8165333245561
 20
-224.0903643615374
 30
0
 11
298.8165333245561
 21
-224.0903643615374
 31
0
  0
LINE
  8
1
 62
7
 10
280.8665333245562
 20
-219.5903643615374
 30
0
 11
281.8665333245562
 21
-218.5903643615374
 31
0
  0
LINE
  8
1
 62
7
 10
281.8665333245562
 20
-300.5903643615374
 30
0
 11
280.8665333245562
 21
-299.5903643615374
 31
0
  0
LINE
  8
1
 62
7
 10
284.5165333245562
 20
-283.0903643615374
 30
0
 11
284.5165333245562
 21
-284.3403643615374
 31
0
  0
LINE
  8
1
 62
7
 10
282.6165333245562
 20
-234.8403643615374
 30
0
 11
282.6165333245562
 21
-284.3403643615374
 31
0
  0
LINE
  8
1
 62
7
 10
284.5165333245562
 20
-284.3403643615374
 30
0
 11
282.6165333245562
 21
-284.3403643615374
 31
0
  0
LINE
  8
1
 62
7
 10
284.5165333245562
 20
-283.0903643615374
 30
0
 11
296.3665333245562
 21
-283.0903643615374
 31
0
  0
LINE
  8
1
 62
7
 10
280.8665333245562
 20
-283.0903643615374
 30
0
 11
282.6165333245562
 21
-283.0903643615374
 31
0
  0
LINE
  8
1
 62
7
 10
302.8165333245561
 20
-275.5903643615374
 30
0
 11
296.3665333245562
 21
-275.5903643615374
 31
0
  0
LINE
  8
1
 62
7
 10
315.7165333245562
 20
-300.5903643615374
 30
0
 11
281.8665333245562
 21
-300.5903643615374
 31
0
  0
LINE
  8
1
 62
7
 10
286.8665333245562
 20
-296.0903643615374
 30
0
 11
286.8665333245562
 21
-300.5903643615374
 31
0
  0
LINE
  8
1
 62
7
 10
282.6165333245562
 20
-234.8403643615374
 30
0
 11
284.5165333245562
 21
-234.8403643615374
 31
0
  0
LINE
  8
1
 62
7
 10
296.3665333245562
 20
-236.0903643615374
 30
0
 11
284.5165333245562
 21
-236.0903643615374
 31
0
  0
LINE
  8
1
 62
7
 10
282.6165333245562
 20
-236.0903643615374
 30
0
 11
280.8665333245562
 21
-236.0903643615374
 31
0
  0
LINE
  8
1
 62
7
 10
296.3665333245562
 20
-243.5903643615374
 30
0
 11
302.8165333245561
 21
-243.5903643615374
 31
0
  0
LINE
  8
1
 62
7
 10
280.8665333245562
 20
-299.5903643615374
 30
0
 11
280.8665333245562
 21
-219.5903643615374
 31
0
  0
LINE
  8
1
 62
7
 10
281.8665333245562
 20
-218.5903643615374
 30
0
 11
315.7165333245562
 21
-218.5903643615374
 31
0
  0
LINE
  8
1
 62
7
 10
286.8665333245562
 20
-218.5903643615374
 30
0
 11
286.8665333245562
 21
-223.0903643615374
 31
0
  0
LINE
  8
1
 62
7
 10
296.3665333245562
 20
-244.3953643615374
 30
0
 11
292.1049161937769
 21
-244.3953643615374
 31
0
  0
LINE
  8
1
 62
7
 10
284.3665333245562
 20
-244.3953643615374
 30
0
 11
288.6281504553355
 21
-244.3953643615374
 31
0
  0
LINE
  8
1
 62
7
 10
296.3665333245562
 20
-238.7853643615374
 30
0
 11
292.1049161937769
 21
-238.7853643615374
 31
0
  0
LINE
  8
1
 62
7
 10
284.3665333245562
 20
-238.7853643615374
 30
0
 11
288.6281504553355
 21
-238.7853643615374
 31
0
  0
LINE
  8
1
 62
3
 10
294.3415333245562
 20
-241.5903643615374
 30
0
 11
286.3915333245562
 21
-241.5903643615374
 31
0
  0
LINE
  8
1
 62
3
 10
290.3665333245562
 20
-245.5653643615374
 30
0
 11
290.3665333245562
 21
-237.6153643615374
 31
0
  0
LINE
  8
1
 62
7
 10
285.7165333245562
 20
-245.0691143615373
 30
0
 11
285.7165333245562
 21
-238.1116143615374
 31
0
  0
LINE
  8
1
 62
7
 10
295.0165333245562
 20
-245.0691143615373
 30
0
 11
295.0165333245562
 21
-238.1116143615374
 31
0
  0
LINE
  8
1
 62
7
 10
296.3665333245562
 20
-274.7853643615374
 30
0
 11
292.1049161937769
 21
-274.7853643615374
 31
0
  0
LINE
  8
1
 62
7
 10
284.3665333245562
 20
-274.7853643615374
 30
0
 11
288.6281504553355
 21
-274.7853643615374
 31
0
  0
LINE
  8
1
 62
7
 10
296.3665333245562
 20
-280.3953643615374
 30
0
 11
292.1049161937769
 21
-280.3953643615374
 31
0
  0
LINE
  8
1
 62
7
 10
284.3665333245562
 20
-280.3953643615374
 30
0
 11
288.6281504553355
 21
-280.3953643615374
 31
0
  0
LINE
  8
1
 62
3
 10
294.3415333245562
 20
-277.5903643615374
 30
0
 11
286.3915333245562
 21
-277.5903643615374
 31
0
  0
LINE
  8
1
 62
3
 10
290.3665333245562
 20
-273.6153643615374
 30
0
 11
290.3665333245562
 21
-281.5653643615374
 31
0
  0
LINE
  8
1
 62
7
 10
285.7165333245562
 20
-274.1116143615374
 30
0
 11
285.7165333245562
 21
-281.0691143615373
 31
0
  0
LINE
  8
1
 62
7
 10
295.0165333245562
 20
-274.1116143615374
 30
0
 11
295.0165333245562
 21
-281.0691143615373
 31
0
  0
LINE
  8
1
 62
7
 10
284.3665333245562
 20
-284.3403643615374
 30
0
 11
284.3665333245562
 21
-234.8403643615374
 31
0
  0
LINE
  8
1
 62
7
 10
282.6165333245562
 20
-239.3403643615374
 30
0
 11
284.3665333245562
 21
-239.3403643615374
 31
0
  0
LINE
  8
1
 62
7
 10
282.6165333245562
 20
-278.2403643615374
 30
0
 11
284.3665333245562
 21
-278.2403643615374
 31
0
  0
LINE
  8
1
 62
7
 10
284.5165333245562
 20
-234.8403643615374
 30
0
 11
284.5165333245562
 21
-236.0903643615374
 31
0
  0
LINE
  8
1
 62
3
  6
DASHDOT
 10
448.6554003324837
 20
-241.4679935449531
 30
0
 11
455.1283945406267
 21
-237.7308085964188
 31
0
  0
LINE
  8
1
 62
7
 10
404.8793805439919
 20
-261.2662062368221
 30
0
 11
404.7665333245562
 21
-261.0707491192667
 31
0
  0
LINE
  8
1
 62
3
  6
DASHED
 10
405.0665333245562
 20
-257.5903643615374
 30
0
 11
405.0665333245562
 21
-261.5903643615374
 31
0
  0
LINE
  8
1
 62
3
  6
DASHED
 10
404.8793805439919
 20
-257.9145224862526
 30
0
 11
405.0665333245562
 21
-257.5903643615374
 31
0
  0
LINE
  8
1
 62
7
 10
404.7665333245562
 20
-261.0707491192667
 30
0
 11
404.7665333245562
 21
-258.109979603808
 31
0
  0
LINE
  8
1
 62
3
  6
DASHED
 10
408.7665333245562
 20
-261.5903643615374
 30
0
 11
405.0665333245562
 21
-261.5903643615374
 31
0
  0
LINE
  8
1
 62
3
  6
DASHED
 10
408.7665333245562
 20
-257.5903643615374
 30
0
 11
408.7665333245562
 21
-261.5903643615374
 31
0
  0
LINE
  8
1
 62
3
  6
DASHED
 10
405.0665333245562
 20
-257.5903643615374
 30
0
 11
408.7665333245562
 21
-257.5903643615374
 31
0
  0
LINE
  8
1
 62
3
  6
DASHED
 10
409.7665333245562
 20
-260.5903643615374
 30
0
 11
408.7665333245562
 21
-261.5903643615374
 31
0
  0
LINE
  8
1
 62
3
  6
DASHED
 10
409.7665333245562
 20
-258.5903643615374
 30
0
 11
409.7665333245562
 21
-260.5903643615374
 31
0
  0
LINE
  8
1
 62
3
  6
DASHED
 10
408.7665333245562
 20
-257.5903643615374
 30
0
 11
409.7665333245562
 21
-258.5903643615374
 31
0
  0
LINE
  8
1
 62
3
  6
DASHED
 10
409.3665333245562
 20
-260.9903643615373
 30
0
 11
404.7665333245562
 21
-260.9903643615373
 31
0
  0
LINE
  8
1
 62
3
  6
DASHED
 10
409.3665333245562
 20
-258.1903643615374
 30
0
 11
404.7665333245562
 21
-258.1903643615374
 31
0
  0
LINE
  8
1
 62
7
 10
404.7665333245562
 20
-258.109979603808
 30
0
 11
404.8793805439919
 21
-257.9145224862526
 31
0
  0
LINE
  8
1
 62
3
  6
DASHED
 10
405.0665333245562
 20
-261.5903643615374
 30
0
 11
404.8793805439919
 21
-261.2662062368221
 31
0
  0
LINE
  8
1
 62
3
  6
DASHED
 10
408.7665333245562
 20
-261.5903643615374
 30
0
 11
410.0381171771557
 21
-261.5903643615374
 31
0
  0
LINE
  8
1
 62
3
  6
DASHED
 10
409.3665333245562
 20
-260.9903643615373
 30
0
 11
409.8983585166407
 21
-260.9903643615373
 31
0
  0
LINE
  8
1
 62
3
  6
DASHED
 10
409.3665333245562
 20
-258.1903643615374
 30
0
 11
409.8983585166407
 21
-258.1903643615374
 31
0
  0
LINE
  8
1
 62
3
  6
DASHED
 10
408.7665333245562
 20
-257.5903643615374
 30
0
 11
410.0381171771557
 21
-257.5903643615374
 31
0
  0
LINE
  8
1
 62
7
 10
418.7469180822855
 20
-245.0903643615374
 30
0
 11
419.2665333245562
 21
-245.3903643615374
 31
0
  0
LINE
  8
1
 62
7
 10
419.2665333245562
 20
-245.3903643615374
 30
0
 11
415.2665333245562
 21
-245.3903643615374
 31
0
  0
LINE
  8
1
 62
7
 10
415.2665333245562
 20
-245.3903643615374
 30
0
 11
415.7861485668269
 21
-245.0903643615374
 31
0
  0
LINE
  8
1
 62
7
 10
415.7861485668269
 20
-245.0903643615374
 30
0
 11
418.7469180822855
 21
-245.0903643615374
 31
0
  0
LINE
  8
1
 62
7
 10
419.2665333245562
 20
-245.3903643615374
 30
0
 11
419.2665333245562
 21
-247.2514016822843
 31
0
  0
LINE
  8
1
 62
3
  6
DASHED
 10
419.2665333245562
 20
-249.0903643615374
 30
0
 11
415.2665333245562
 21
-249.0903643615374
 31
0
  0
LINE
  8
1
 62
3
  6
DASHED
 10
415.2665333245562
 20
-249.0903643615374
 30
0
 11
415.2665333245562
 21
-247.2514016822843
 31
0
  0
LINE
  8
1
 62
3
  6
DASHED
 10
419.2665333245562
 20
-249.0903643615374
 30
0
 11
418.5665333245562
 21
-249.7903643615374
 31
0
  0
LINE
  8
1
 62
3
 10
418.6665333245562
 20
-245.0903643615374
 30
0
 11
418.6665333245562
 21
-247.1690117781832
 31
0
  0
LINE
  8
1
 62
3
  6
DASHED
 10
419.2665333245562
 20
-249.0903643615374
 30
0
 11
419.2665333245562
 21
-249.7903643615374
 31
0
  0
LINE
  8
1
 62
3
  6
DASHED
 10
418.6665333245562
 20
-249.6903643615374
 30
0
 11
418.6665333245562
 21
-249.7903643615374
 31
0
  0
LINE
  8
1
 62
3
  6
DASHED
 10
419.2665333245562
 20
-247.2514016822843
 30
0
 11
419.2665333245562
 21
-249.0903643615374
 31
0
  0
LINE
  8
1
 62
3
  6
DASHED
 10
418.6665333245562
 20
-247.1690117781832
 30
0
 11
418.6665333245562
 21
-249.6903643615374
 31
0
  0
LINE
  8
1
 62
7
 10
415.2665333245562
 20
-247.2514016822843
 30
0
 11
415.2665333245562
 21
-245.3903643615374
 31
0
  0
LINE
  8
1
 62
3
  6
DASHED
 10
415.8665333245562
 20
-249.6903643615374
 30
0
 11
415.8665333245562
 21
-247.1690117781832
 31
0
  0
LINE
  8
1
 62
3
 10
415.8665333245562
 20
-247.1690117781832
 30
0
 11
415.8665333245562
 21
-245.0903643615374
 31
0
  0
LINE
  8
1
 62
7
 10
336.0469180822855
 20
-245.0903643615374
 30
0
 11
336.5665333245561
 21
-245.3903643615374
 31
0
  0
LINE
  8
1
 62
7
 10
336.5665333245561
 20
-245.3903643615374
 30
0
 11
332.5665333245561
 21
-245.3903643615374
 31
0
  0
LINE
  8
1
 62
7
 10
332.5665333245561
 20
-245.3903643615374
 30
0
 11
333.0861485668268
 21
-245.0903643615374
 31
0
  0
LINE
  8
1
 62
7
 10
333.0861485668268
 20
-245.0903643615374
 30
0
 11
336.0469180822855
 21
-245.0903643615374
 31
0
  0
LINE
  8
1
 62
7
 10
336.5665333245561
 20
-245.3903643615374
 30
0
 11
336.5665333245561
 21
-249.0903643615374
 31
0
  0
LINE
  8
1
 62
7
 10
336.5665333245561
 20
-249.0903643615374
 30
0
 11
332.5665333245561
 21
-249.0903643615374
 31
0
  0
LINE
  8
1
 62
7
 10
332.5665333245561
 20
-249.0903643615374
 30
0
 11
332.5665333245561
 21
-245.3903643615374
 31
0
  0
LINE
  8
1
 62
7
 10
336.5665333245561
 20
-249.0903643615374
 30
0
 11
335.8665333245561
 21
-249.7903643615374
 31
0
  0
LINE
  8
1
 62
3
 10
335.9665333245562
 20
-245.0903643615374
 30
0
 11
335.9665333245562
 21
-249.6903643615374
 31
0
  0
LINE
  8
1
 62
3
 10
333.1665333245562
 20
-245.0903643615374
 30
0
 11
333.1665333245562
 21
-249.6903643615374
 31
0
  0
LINE
  8
1
 62
7
 10
336.5665333245561
 20
-247.0903643615374
 30
0
 11
338.0665333245561
 21
-247.0903643615374
 31
0
  0
LINE
  8
1
 62
7
 10
335.9665333245562
 20
-249.6903643615374
 30
0
 11
335.9665333245562
 21
-249.7903643615374
 31
0
  0
LINE
  8
1
 62
7
 10
333.1665333245562
 20
-249.6903643615374
 30
0
 11
333.1665333245562
 21
-249.7903643615374
 31
0
  0
LINE
  8
1
 62
3
 10
336.5665333245561
 20
-249.0903643615374
 30
0
 11
336.5665333245561
 21
-249.7903643615374
 31
0
  0
LINE
  8
1
 62
3
 10
332.5665333245561
 20
-249.0903643615374
 30
0
 11
332.5665333245561
 21
-249.7903643615374
 31
0
  0
LINE
  8
1
 62
7
 10
519.2165333245562
 20
-221.0903643615374
 30
0
 11
519.2165333245562
 21
-240.3403643615374
 31
0
  0
LINE
  8
1
 62
7
 10
515.7165333245562
 20
-240.3403643615374
 30
0
 11
515.7165333245562
 21
-221.0903643615374
 31
0
  0
LINE
  8
1
 62
3
  6
DASHDOT
 10
517.4665333245562
 20
-217.1000349470351
 30
0
 11
517.4665333245562
 21
-244.9246159214624
 31
0
  0
LINE
  8
1
 62
3
 10
518.9665333245562
 20
-221.5903643615374
 30
0
 11
518.366533324556
 21
-222.6295948460787
 31
0
  0
LINE
  8
1
 62
3
 10
515.9665333245562
 20
-221.5903643615374
 30
0
 11
516.5665333245563
 21
-222.6295948460787
 31
0
  0
LINE
  8
1
 62
7
 10
520.7165333245562
 20
-218.5903643615374
 30
0
 11
520.7165333245562
 21
-240.3403643615374
 31
0
  0
LINE
  8
1
 62
7
 10
520.7165333245562
 20
-221.0903643615374
 30
0
 11
514.2165333245562
 21
-221.0903643615374
 31
0
  0
LINE
  8
1
 62
7
 10
514.2165333245562
 20
-240.3403643615374
 30
0
 11
514.2165333245562
 21
-218.5903643615374
 31
0
  0
LINE
  8
1
 62
7
 10
518.9665333245562
 20
-221.0903643615374
 30
0
 11
518.9665333245562
 21
-223.0903643615374
 31
0
  0
LINE
  8
1
 62
7
 10
515.7165333245562
 20
-223.0903643615374
 30
0
 11
519.2165333245562
 21
-223.0903643615374
 31
0
  0
LINE
  8
1
 62
7
 10
515.9665333245562
 20
-221.0903643615374
 30
0
 11
515.9665333245562
 21
-223.0903643615374
 31
0
  0
LINE
  8
1
 62
3
 10
516.5665333245563
 20
-223.0903643615374
 30
0
 11
516.5665333245563
 21
-222.6295948460787
 31
0
  0
LINE
  8
1
 62
3
 10
518.366533324556
 20
-223.0903643615374
 30
0
 11
518.366533324556
 21
-222.6295948460787
 31
0
  0
LINE
  8
1
 62
3
 10
515.9665333245562
 20
-222.6295948460787
 30
0
 11
518.9665333245562
 21
-222.6295948460787
 31
0
  0
LINE
  8
1
 62
7
 10
502.3469180822855
 20
-245.0903643615374
 30
0
 11
502.8665333245562
 21
-245.3903643615374
 31
0
  0
LINE
  8
1
 62
7
 10
502.8665333245562
 20
-245.3903643615374
 30
0
 11
498.8665333245562
 21
-245.3903643615374
 31
0
  0
LINE
  8
1
 62
7
 10
498.8665333245562
 20
-245.3903643615374
 30
0
 11
499.3861485668269
 21
-245.0903643615374
 31
0
  0
LINE
  8
1
 62
7
 10
499.3861485668269
 20
-245.0903643615374
 30
0
 11
502.3469180822855
 21
-245.0903643615374
 31
0
  0
LINE
  8
1
 62
7
 10
502.8665333245562
 20
-245.3903643615374
 30
0
 11
502.8665333245562
 21
-247.0903643615374
 31
0
  0
LINE
  8
1
 62
3
 10
502.2665333245562
 20
-245.0903643615374
 30
0
 11
502.2665333245562
 21
-247.0903643615374
 31
0
  0
LINE
  8
1
 62
3
 10
499.4665333245562
 20
-245.0903643615374
 30
0
 11
499.4665333245562
 21
-247.0903643615374
 31
0
  0
LINE
  8
1
 62
7
 10
498.8665333245562
 20
-247.0903643615374
 30
0
 11
498.8665333245562
 21
-245.3903643615374
 31
0
  0
LINE
  8
1
 62
3
  6
DASHDOT
 10
500.8665333245562
 20
-243.609909628859
 30
0
 11
500.8665333245562
 21
-251.3563895573422
 31
0
  0
LINE
  8
1
 62
7
 10
319.3665333245562
 20
-232.8903643615374
 30
0
 11
317.5665333245562
 21
-232.8903643615374
 31
0
  0
LINE
  8
1
 62
7
 10
319.3665333245562
 20
-232.8903643615374
 30
0
 11
318.4665333245562
 21
-233.7563897653218
 31
0
  0
LINE
  8
1
 62
7
 10
318.4665333245562
 20
-233.7563897653218
 30
0
 11
317.5665333245562
 21
-232.8903643615374
 31
0
  0
LINE
  8
1
 62
3
 10
319.9665333245562
 20
-223.0903643615374
 30
0
 11
319.9665333245562
 21
-231.0903643615374
 31
0
  0
LINE
  8
1
 62
3
 10
319.9665333245562
 20
-231.0903643615374
 30
0
 11
316.9665333245562
 21
-231.0903643615374
 31
0
  0
LINE
  8
1
 62
3
 10
316.9665333245562
 20
-231.0903643615374
 30
0
 11
316.9665333245562
 21
-223.0903643615374
 31
0
  0
LINE
  8
1
 62
3
 10
319.9665333245562
 20
-231.0903643615374
 30
0
 11
319.3665333245562
 21
-232.1295948460787
 31
0
  0
LINE
  8
1
 62
3
 10
316.9665333245562
 20
-231.0903643615374
 30
0
 11
317.5665333245562
 21
-232.1295948460787
 31
0
  0
LINE
  8
1
 62
7
 10
317.5665333245562
 20
-229.0903643615374
 30
0
 11
317.5665333245562
 21
-232.8903643615374
 31
0
  0
LINE
  8
1
 62
7
 10
319.3665333245561
 20
-229.0903643615374
 30
0
 11
319.3665333245562
 21
-232.8903643615374
 31
0
  0
LINE
  8
1
 62
7
 10
294.2665333245561
 20
-232.8903643615374
 30
0
 11
292.4665333245561
 21
-232.8903643615374
 31
0
  0
LINE
  8
1
 62
7
 10
294.2665333245561
 20
-232.8903643615374
 30
0
 11
293.3665333245561
 21
-233.7563897653218
 31
0
  0
LINE
  8
1
 62
7
 10
293.3665333245561
 20
-233.7563897653218
 30
0
 11
292.4665333245561
 21
-232.8903643615374
 31
0
  0
LINE
  8
1
 62
3
 10
294.8665333245561
 20
-223.0903643615374
 30
0
 11
294.8665333245561
 21
-231.0903643615374
 31
0
  0
LINE
  8
1
 62
3
 10
294.8665333245561
 20
-231.0903643615374
 30
0
 11
291.8665333245561
 21
-231.0903643615374
 31
0
  0
LINE
  8
1
 62
3
 10
291.8665333245561
 20
-231.0903643615374
 30
0
 11
291.8665333245561
 21
-223.0903643615374
 31
0
  0
LINE
  8
1
 62
3
 10
294.8665333245561
 20
-231.0903643615374
 30
0
 11
294.2665333245561
 21
-232.1295948460787
 31
0
  0
LINE
  8
1
 62
3
 10
291.8665333245561
 20
-231.0903643615374
 30
0
 11
292.4665333245561
 21
-232.1295948460787
 31
0
  0
LINE
  8
1
 62
7
 10
292.4665333245561
 20
-229.0903643615374
 30
0
 11
292.4665333245561
 21
-232.8903643615374
 31
0
  0
LINE
  8
1
 62
7
 10
294.2665333245561
 20
-232.8903643615374
 30
0
 11
294.2665333245561
 21
-229.0903643615374
 31
0
  0
LINE
  8
1
 62
3
  6
DASHDOT
 10
293.3665333245561
 20
-216.4071457608194
 30
0
 11
293.3665333245561
 21
-235.2255996918801
 31
0
  0
LINE
  8
1
 62
7
 10
317.5665333245562
 20
-286.2903643615374
 30
0
 11
319.3665333245562
 21
-286.2903643615374
 31
0
  0
LINE
  8
1
 62
7
 10
317.5665333245562
 20
-286.2903643615374
 30
0
 11
318.4665333245562
 21
-285.4243389577529
 31
0
  0
LINE
  8
1
 62
7
 10
318.4665333245562
 20
-285.4243389577529
 30
0
 11
319.3665333245562
 21
-286.2903643615374
 31
0
  0
LINE
  8
1
 62
3
 10
316.9665333245562
 20
-296.0903643615374
 30
0
 11
316.9665333245562
 21
-288.0903643615374
 31
0
  0
LINE
  8
1
 62
3
 10
316.9665333245562
 20
-288.0903643615374
 30
0
 11
319.9665333245562
 21
-288.0903643615374
 31
0
  0
LINE
  8
1
 62
3
 10
319.9665333245562
 20
-288.0903643615374
 30
0
 11
319.9665333245562
 21
-296.0903643615374
 31
0
  0
LINE
  8
1
 62
3
 10
316.9665333245562
 20
-288.0903643615374
 30
0
 11
317.5665333245562
 21
-287.051133876996
 31
0
  0
LINE
  8
1
 62
3
 10
319.9665333245562
 20
-288.0903643615374
 30
0
 11
319.3665333245562
 21
-287.051133876996
 31
0
  0
LINE
  8
1
 62
3
  6
DASHDOT
 10
318.4665333245562
 20
-303.0297453106095
 30
0
 11
318.4665333245562
 21
-283.7638477328137
 31
0
  0
LINE
  8
1
 62
7
 10
317.5665333245562
 20
-290.0903643615374
 30
0
 11
317.5665333245562
 21
-286.2903643615374
 31
0
  0
LINE
  8
1
 62
7
 10
319.3665333245561
 20
-290.0903643615374
 30
0
 11
319.3665333245562
 21
-286.2903643615374
 31
0
  0
LINE
  8
1
 62
3
  6
DASHDOT
 10
318.4665333245562
 20
-216.4071457608194
 30
0
 11
318.4665333245562
 21
-235.2255996918801
 31
0
  0
LINE
  8
1
 62
7
 10
315.4665333245562
 20
-243.5903643615374
 30
0
 11
309.0165333245562
 21
-243.5903643615374
 31
0
  0
LINE
  8
1
 62
7
 10
315.4665333245562
 20
-275.5903643615374
 30
0
 11
309.0165333245562
 21
-275.5903643615374
 31
0
  0
LINE
  8
1
 62
7
 10
315.7165333245562
 20
-221.0903643615374
 30
0
 11
315.7165333245562
 21
-218.2903643615374
 31
0
  0
LINE
  8
1
 62
7
 10
316.06294348607
 20
-218.0903643615374
 30
0
 11
320.8701231630424
 21
-218.0903643615374
 31
0
  0
LINE
  8
1
 62
7
 10
315.7165333245562
 20
-218.2903643615374
 30
0
 11
316.06294348607
 21
-218.0903643615374
 31
0
  0
LINE
  8
1
 62
7
 10
315.7165333245562
 20
-218.2903643615374
 30
0
 11
321.2165333245562
 21
-218.2903643615374
 31
0
  0
LINE
  8
1
 62
7
 10
315.7165333245562
 20
-218.2903643615374
 30
0
 11
321.2165333245562
 21
-218.2903643615374
 31
0
  0
LINE
  8
1
 62
7
 10
320.8701231630424
 20
-218.0903643615374
 30
0
 11
321.2165333245562
 21
-218.2903643615374
 31
0
  0
LINE
  8
1
 62
7
 10
315.7165333245562
 20
-218.2903643615374
 30
0
 11
321.2165333245562
 21
-218.2903643615374
 31
0
  0
LINE
  8
1
 62
7
 10
315.7165333245562
 20
-218.2903643615374
 30
0
 11
316.06294348607
 21
-218.0903643615374
 31
0
  0
LINE
  8
1
 62
7
 10
321.2165333245562
 20
-218.2903643615374
 30
0
 11
321.2165333245562
 21
-221.0903643615374
 31
0
  0
LINE
  8
1
 62
7
 10
321.2165333245562
 20
-218.5903643615374
 30
0
 11
324.8665333245563
 21
-218.5903643615374
 31
0
  0
LINE
  8
1
 62
7
 10
320.8701231630424
 20
-301.0903643615374
 30
0
 11
316.06294348607
 21
-301.0903643615374
 31
0
  0
LINE
  8
1
 62
7
 10
316.06294348607
 20
-301.0903643615374
 30
0
 11
315.7165333245562
 21
-300.8903643615373
 31
0
  0
LINE
  8
1
 62
7
 10
321.2165333245562
 20
-300.8903643615373
 30
0
 11
315.7165333245562
 21
-300.8903643615373
 31
0
  0
LINE
  8
1
 62
7
 10
321.2165333245562
 20
-300.8903643615373
 30
0
 11
315.7165333245562
 21
-300.8903643615373
 31
0
  0
LINE
  8
1
 62
7
 10
321.2165333245562
 20
-300.8903643615373
 30
0
 11
320.8701231630424
 21
-301.0903643615374
 31
0
  0
LINE
  8
1
 62
7
 10
321.2165333245562
 20
-300.8903643615373
 30
0
 11
315.7165333245562
 21
-300.8903643615373
 31
0
  0
LINE
  8
1
 62
7
 10
316.06294348607
 20
-301.0903643615374
 30
0
 11
315.7165333245562
 21
-300.8903643615373
 31
0
  0
LINE
  8
1
 62
7
 10
321.2165333245562
 20
-298.0903643615374
 30
0
 11
321.2165333245562
 21
-300.8903643615373
 31
0
  0
LINE
  8
1
 62
7
 10
315.7165333245562
 20
-300.8903643615373
 30
0
 11
315.7165333245562
 21
-298.0903643615374
 31
0
  0
LINE
  8
1
 62
7
 10
321.2165333245562
 20
-300.5903643615374
 30
0
 11
324.8665333245563
 21
-300.5903643615374
 31
0
  0
LINE
  8
1
 62
7
 10
414.5165333245562
 20
-218.2903643615375
 30
0
 11
420.0165333245562
 21
-218.2903643615375
 31
0
  0
LINE
  8
1
 62
7
 10
414.5165333245562
 20
-218.2903643615375
 30
0
 11
414.86294348607
 21
-218.0903643615373
 31
0
  0
LINE
  8
1
 62
7
 10
414.5165333245562
 20
-218.2903643615375
 30
0
 11
420.0165333245562
 21
-218.2903643615375
 31
0
  0
LINE
  8
1
 62
7
 10
419.6701231630425
 20
-218.0903643615373
 30
0
 11
420.0165333245562
 21
-218.2903643615375
 31
0
  0
LINE
  8
1
 62
7
 10
414.86294348607
 20
-218.0903643615373
 30
0
 11
419.6701231630425
 21
-218.0903643615373
 31
0
  0
LINE
  8
1
 62
7
 10
414.5165333245562
 20
-218.2903643615375
 30
0
 11
414.86294348607
 21
-218.0903643615373
 31
0
  0
LINE
  8
1
 62
7
 10
420.0165333245562
 20
-218.2903643615375
 30
0
 11
420.0165333245562
 21
-218.6826939316537
 31
0
  0
LINE
  8
1
 62
7
 10
414.5165333245562
 20
-218.2903643615375
 30
0
 11
420.0165333245562
 21
-218.2903643615375
 31
0
  0
LINE
  8
1
 62
7
 10
414.5165333245562
 20
-218.2903643615375
 30
0
 11
420.0165333245562
 21
-218.2903643615375
 31
0
  0
LINE
  8
1
 62
7
 10
419.6701231630425
 20
-218.0903643615373
 30
0
 11
420.0165333245562
 21
-218.2903643615375
 31
0
  0
LINE
  8
1
 62
7
 10
414.5165333245562
 20
-218.6826939316537
 30
0
 11
414.5165333245562
 21
-218.2903643615375
 31
0
  0
LINE
  8
1
 62
3
  6
DASHED
 10
420.0165333245562
 20
-218.6826939316537
 30
0
 11
420.0165333245562
 21
-221.0903643615374
 31
0
  0
LINE
  8
1
 62
3
  6
DASHED
 10
414.5165333245562
 20
-221.0903643615374
 30
0
 11
414.5165333245562
 21
-218.6826939316537
 31
0
  0
LINE
  8
1
 62
3
  6
DASHED
 10
414.5165333245562
 20
-221.0903643615374
 30
0
 11
420.0165333245562
 21
-221.0903643615374
 31
0
  0
LINE
  8
1
 62
7
 10
420.0165333245562
 20
-300.8903643615373
 30
0
 11
414.5165333245562
 21
-300.8903643615373
 31
0
  0
LINE
  8
1
 62
7
 10
414.86294348607
 20
-301.0903643615374
 30
0
 11
414.5165333245562
 21
-300.8903643615373
 31
0
  0
LINE
  8
1
 62
7
 10
420.0165333245562
 20
-300.8903643615373
 30
0
 11
414.5165333245562
 21
-300.8903643615373
 31
0
  0
LINE
  8
1
 62
7
 10
420.0165333245562
 20
-300.8903643615373
 30
0
 11
419.6701231630425
 21
-301.0903643615374
 31
0
  0
LINE
  8
1
 62
7
 10
419.6701231630425
 20
-301.0903643615374
 30
0
 11
414.86294348607
 21
-301.0903643615374
 31
0
  0
LINE
  8
1
 62
7
 10
414.86294348607
 20
-301.0903643615374
 30
0
 11
414.5165333245562
 21
-300.8903643615373
 31
0
  0
LINE
  8
1
 62
7
 10
420.0165333245562
 20
-300.4980347914211
 30
0
 11
420.0165333245562
 21
-300.8903643615373
 31
0
  0
LINE
  8
1
 62
7
 10
420.0165333245562
 20
-300.8903643615373
 30
0
 11
414.5165333245562
 21
-300.8903643615373
 31
0
  0
LINE
  8
1
 62
7
 10
420.0165333245562
 20
-300.8903643615373
 30
0
 11
414.5165333245562
 21
-300.8903643615373
 31
0
  0
LINE
  8
1
 62
7
 10
420.0165333245562
 20
-300.8903643615373
 30
0
 11
419.6701231630425
 21
-301.0903643615374
 31
0
  0
LINE
  8
1
 62
7
 10
414.5165333245562
 20
-300.8903643615373
 30
0
 11
414.5165333245562
 21
-300.4980347914211
 31
0
  0
LINE
  8
1
 62
3
  6
DASHED
 10
420.0165333245562
 20
-298.0903643615374
 30
0
 11
420.0165333245562
 21
-300.4980347914211
 31
0
  0
LINE
  8
1
 62
3
  6
DASHED
 10
414.5165333245562
 20
-300.4980347914211
 30
0
 11
414.5165333245562
 21
-298.0903643615374
 31
0
  0
LINE
  8
1
 62
3
  6
DASHED
 10
420.0165333245562
 20
-298.0903643615374
 30
0
 11
414.5165333245562
 21
-298.0903643615374
 31
0
  0
LINE
  8
1
 62
7
 10
514.7165333245562
 20
-221.0903643615374
 30
0
 11
514.7165333245562
 21
-218.2903643615373
 31
0
  0
LINE
  8
1
 62
7
 10
520.2165333245562
 20
-218.2903643615373
 30
0
 11
520.2165333245562
 21
-221.0903643615374
 31
0
  0
LINE
  8
1
 62
7
 10
519.8701231630423
 20
-218.0903643615373
 30
0
 11
520.2165333245562
 21
-218.2903643615373
 31
0
  0
LINE
  8
1
 62
7
 10
515.0629434860698
 20
-218.0903643615373
 30
0
 11
519.8701231630423
 21
-218.0903643615373
 31
0
  0
LINE
  8
1
 62
7
 10
514.7165333245562
 20
-218.2903643615373
 30
0
 11
520.2165333245562
 21
-218.2903643615373
 31
0
  0
LINE
  8
1
 62
7
 10
515.0629434860698
 20
-218.0903643615373
 30
0
 11
519.8701231630423
 21
-218.0903643615373
 31
0
  0
LINE
  8
1
 62
7
 10
514.7165333245562
 20
-218.2903643615373
 30
0
 11
515.0629434860698
 21
-218.0903643615373
 31
0
  0
LINE
  8
1
 62
7
 10
514.7165333245562
 20
-218.5903643615374
 30
0
 11
510.9665333245562
 21
-218.5903643615374
 31
0
  0
LINE
  8
1
 62
3
  6
DASHED
 10
415.2665333245562
 20
-249.7903643615374
 30
0
 11
415.2665333245562
 21
-249.0903643615374
 31
0
  0
LINE
  8
1
 62
3
  6
DASHED
 10
415.8665333245562
 20
-249.7903643615374
 30
0
 11
415.8665333245562
 21
-249.6903643615374
 31
0
  0
LINE
  8
1
 62
3
  6
DASHED
 10
415.9665333245562
 20
-249.7903643615374
 30
0
 11
415.2665333245562
 21
-249.0903643615374
 31
0
  0
LINE
  8
1
 62
7
 10
333.2665333245561
 20
-249.7903643615374
 30
0
 11
332.5665333245561
 21
-249.0903643615374
 31
0
  0
ARC
  8
1
 62
3
  6
DASHED
 10
417.2665333245562
 20
-259.5903643615374
 30
0
 40
38.50000000000011
 50
25.15758046041464
 51
94.84241953958524
  0
ARC
  8
1
 62
3
  6
DASHED
 10
417.2665333245562
 20
-259.5903643615374
 30
0
 40
38.49999999999995
 50
205.1575804604147
 51
274.8424195395853
  0
ARC
  8
1
 62
7
 10
417.2665333245562
 20
-259.5903643615374
 30
0
 40
7.500000000000028
 50
109.4712206344906
 51
70.52877936550938
  0
ARC
  8
1
 62
7
 10
326.4665333245562
 20
-273.0903643615374
 30
0
 40
1
 50
0
 51
90
  0
ARC
  8
1
 62
7
 10
326.4665333245562
 20
-282.0903643615374
 30
0
 40
1
 50
270
 51
0
  0
ARC
  8
1
 62
7
 10
316.4665333245562
 20
-282.0903643615374
 30
0
 40
1
 50
180
 51
270
  0
ARC
  8
1
 62
7
 10
316.4665333245562
 20
-273.0903643615374
 30
0
 40
1
 50
90
 51
180
  0
ARC
  8
1
 62
7
 10
326.4665333245562
 20
-246.0903643615374
 30
0
 40
1
 50
270
 51
0
  0
ARC
  8
1
 62
7
 10
326.4665333245562
 20
-237.0903643615374
 30
0
 40
1
 50
0
 51
90
  0
ARC
  8
1
 62
7
 10
316.4665333245562
 20
-237.0903643615374
 30
0
 40
1
 50
90
 51
180
  0
ARC
  8
1
 62
7
 10
316.4665333245562
 20
-246.0903643615374
 30
0
 40
1
 50
180
 51
270
  0
ARC
  8
1
 62
7
 10
293.2125347595151
 20
-221.4432204794239
 30
0
 40
2.999999999999865
 50
14.53385610839359
 51
56.54149947555754
  0
ARC
  8
1
 62
7
 10
293.5205318895972
 20
-221.4432204794239
 30
0
 40
2.999999999999975
 50
123.4585005244443
 51
165.466143891607
  0
ARC
  8
1
 62
7
 10
295.3665333245562
 20
-246.0903643615374
 30
0
 40
1
 50
270
 51
0
  0
ARC
  8
1
 62
7
 10
295.3665333245562
 20
-237.0903643615374
 30
0
 40
1
 50
0
 51
90
  0
ARC
  8
1
 62
7
 10
285.3665333245562
 20
-237.0903643615374
 30
0
 40
1
 50
90
 51
180
  0
ARC
  8
1
 62
7
 10
285.3665333245562
 20
-246.0903643615374
 30
0
 40
1
 50
180
 51
270
  0
ARC
  8
1
 62
7
 10
295.3665333245562
 20
-273.0903643615374
 30
0
 40
1
 50
0
 51
90
  0
ARC
  8
1
 62
7
 10
295.3665333245562
 20
-282.0903643615374
 30
0
 40
1
 50
270
 51
0
  0
ARC
  8
1
 62
7
 10
285.3665333245562
 20
-282.0903643615374
 30
0
 40
1
 50
180
 51
270
  0
ARC
  8
1
 62
7
 10
285.3665333245562
 20
-273.0903643615374
 30
0
 40
1
 50
90
 51
180
  0
ARC
  8
1
 62
7
 10
517.4665333245562
 20
-240.1108144886489
 30
0
 40
1.764990975654869
 50
187.4729005966873
 51
352.5270994033128
  0
ARC
  8
1
 62
7
 10
517.4665333245562
 20
-237.9130676833359
 30
0
 40
4.056386219778402
 50
216.7546013917027
 51
323.2453986082973
  0
ARC
  8
1
 62
7
 10
422.4675914338363
 20
-279.9529985056969
 30
0
 40
1.939999999999998
 50
90
 51
180
  0
ARC
  8
1
 62
7
 10
412.0654752152761
 20
-279.9529985056969
 30
0
 40
1.939999999999941
 50
0
 51
90
  0
ARC
  8
1
 62
7
 10
422.4675914338363
 20
-285.142994123106
 30
0
 40
7.129995617409189
 50
56.5728306473382
 51
90
  0
ARC
  8
1
 62
7
 10
412.0654752152761
 20
-285.142994123106
 30
0
 40
7.129995617409122
 50
90
 51
123.4271693526618
  0
ARC
  8
1
 62
7
 10
417.2665333245562
 20
-260.8278643615374
 30
0
 40
21.48749999999998
 50
301.0699067305416
 51
238.930093269458
  0
ARC
  8
1
 62
7
 10
426.8716945593986
 20
-279.9529985056969
 30
0
 40
6.344103125562356
 50
180
 51
206.2777283114506
  0
ARC
  8
1
 62
7
 10
407.6613720897137
 20
-279.9529985056969
 30
0
 40
6.344103125562393
 50
333.7222716885498
 51
0
  0
CIRCLE
  8
1
 62
7
 10
306.6665333245562
 20
-271.0272239192013
 30
0
 40
1.979999999999961
  0
CIRCLE
  8
1
 62
3
 10
432.2665333245564
 20
-233.6096022480042
 30
0
 40
2.000000000000016
  0
CIRCLE
  8
1
 62
7
 10
432.2665333245564
 20
-233.6096022480042
 30
0
 40
1.400000000000033
  0
CIRCLE
  8
1
 62
3
 10
432.2665333245562
 20
-285.5711264750705
 30
0
 40
1.999999999999967
  0
CIRCLE
  8
1
 62
7
 10
432.2665333245562
 20
-285.5711264750705
 30
0
 40
1.400000000000001
  0
CIRCLE
  8
1
 62
3
 10
387.2665333245562
 20
-259.5903643615374
 30
0
 40
2
  0
CIRCLE
  8
1
 62
7
 10
387.2665333245562
 20
-259.5903643615374
 30
0
 40
1.400000000000034
  0
CIRCLE
  8
1
 62
7
 10
417.2665333245562
 20
-259.5903643615374
 30
0
 40
12.5
  0
CIRCLE
  8
1
 62
3
  6
DASHDOT
 10
417.2665333245562
 20
-259.5903643615374
 30
0
 40
30
  0
CIRCLE
  8
1
 62
7
 10
417.2665333245562
 20
-259.5903643615374
 30
0
 40
40
  0
CIRCLE
  8
1
 62
7
 10
417.2665333245562
 20
-259.5903643615374
 30
0
 40
41
  0
CIRCLE
  8
1
 62
7
 10
321.4665333245562
 20
-277.5903643615374
 30
0
 40
3.299999999999955
  0
CIRCLE
  8
1
 62
7
 10
321.4665333245562
 20
-241.5903643615374
 30
0
 40
3.299999999999955
  0
CIRCLE
  8
1
 62
7
 10
290.3665333245562
 20
-241.5903643615374
 30
0
 40
3.300000000000011
  0
CIRCLE
  8
1
 62
7
 10
290.3665333245562
 20
-277.5903643615374
 30
0
 40
3.300000000000011
  0
CIRCLE
  8
1
 62
7
 10
417.2665333245562
 20
-259.5903643615374
 30
0
 40
23.5
  0
CIRCLE
  8
1
 62
7
 10
422.884258100503
 20
-280.3696651723635
 30
0
 40
1.25
  0
CIRCLE
  8
1
 62
7
 10
411.6488085486094
 20
-280.3696651723635
 30
0
 40
1.25
  0
ARC
  8
1
 62
7
 10
427.4075745586159
 20
-277.658841240171
 30
0
 40
1.837499999999946
 50
236.5728306473382
 51
301.0699067305395
  0
ARC
  8
1
 62
7
 10
407.1254920904966
 20
-277.658841240171
 30
0
 40
1.837500000000203
 50
238.9300932694515
 51
303.4271693526575
  0
TEXT
  8
1
 62
3
 10
515.9665333245562
 20
-294.1974059166994
 30
0
 40
2
  1
6
 50
270
 41
0.9
  7
SIMPLEX
 72
1
 73
2
 11
516.9665333245562
 21
-295.0974059166994
 31
0
  0
TEXT
  8
1
 62
3
 10
515.9665333245562
 20
-272.7131902378898
 30
0
 40
2
  1
2
 50
270
 41
0.9
  7
SIMPLEX
 72
1
 73
2
 11
516.9665333245562
 21
-273.6131902378898
 31
0
  0
TEXT
  8
1
 62
3
 10
515.9665333245562
 20
-285.0446563586855
 30
0
 40
2
  1
4
 50
270
 41
0.9
  7
SIMPLEX
 72
1
 73
2
 11
516.9665333245562
 21
-285.9446563586855
 31
0
  0
TEXT
  8
1
 62
3
 10
515.9665333245562
 20
-258.6903643615374
 30
0
 40
2
  1
0
 50
270
 41
0.9
  7
SIMPLEX
 72
1
 73
2
 11
516.9665333245562
 21
-259.5903643615374
 31
0
  0
TEXT
  8
1
 62
7
 10
283.1787751855779
 20
-192.9063747869593
 30
0
 40
3
  1
PHT 10D
 41
0.8910000000000001
  7
SIMPLEX
  0
ENDSEC
  0
EOF
