  0
SECTION
  2
HEADER
  9
$ACADVER
  1
AC1009
  9
$INSBASE
 10
0.0
 20
0.0
 30
0.0
  9
$EXTMIN
 10
-16.61975039449765
 20
-39.25
 30
0.0
  9
$EXTMAX
 10
226.779532823637
 20
105.6275049469609
 30
0.0
  9
$LIMMIN
 10
-16.61975039449765
 20
-39.25
  9
$LIMMAX
 10
226.779532823637
 20
105.6275049469609
  9
$ORTHOMODE
 70
     0
  9
$REGENMODE
 70
     1
  9
$FILLMODE
 70
     1
  9
$QTEXTMODE
 70
     0
  9
$MIRRTEXT
 70
     1
  9
$DRAGMODE
 70
     2
  9
$LTSCALE
 40
1.0
  9
$OSMODE
 70
    37
  9
$ATTMODE
 70
     1
  9
$TEXTSIZE
 40
3.5
  9
$TRACEWID
 40
0.5
  9
$TEXTSTYLE
  7
STANDARD
  9
$CLAYER
  8
0
  9
$CELTYPE
  6
BYLAYER
  9
$CECOLOR
 62
   256
  9
$DIMSCALE
 40
1.0
  9
$DIMASZ
 40
0.18
  9
$DIMEXO
 40
0.0625
  9
$DIMDLI
 40
0.38
  9
$DIMRND
 40
0.0
  9
$DIMDLE
 40
0.0
  9
$DIMEXE
 40
0.18
  9
$DIMTP
 40
0.0
  9
$DIMTM
 40
0.0
  9
$DIMTXT
 40
0.18
  9
$DIMCEN
 40
0.09
  9
$DIMTSZ
 40
0.0
  9
$DIMTOL
 70
     0
  9
$DIMLIM
 70
     0
  9
$DIMTIH
 70
     1
  9
$DIMTOH
 70
     1
  9
$DIMSE1
 70
     0
  9
$DIMSE2
 70
     0
  9
$DIMTAD
 70
     0
  9
$DIMZIN
 70
     0
  9
$DIMBLK
  1

  9
$DIMASO
 70
     1
  9
$DIMSHO
 70
     1
  9
$DIMPOST
  1

  9
$DIMAPOST
  1

  9
$DIMALT
 70
     0
  9
$DIMALTD
 70
     2
  9
$DIMALTF
 40
25.399999999999999
  9
$DIMLFAC
 40
1.0
  9
$DIMTOFL
 70
     0
  9
$DIMTVP
 40
0.0
  9
$DIMTIX
 70
     0
  9
$DIMSOXD
 70
     0
  9
$DIMSAH
 70
     0
  9
$DIMBLK1
  1

  9
$DIMBLK2
  1

  9
$DIMSTYLE
  2
STANDARD
  9
$DIMCLRD
 70
     0
  9
$DIMCLRE
 70
     0
  9
$DIMCLRT
 70
     0
  9
$DIMTFAC
 40
1.0
  9
$DIMGAP
 40
0.09
  9
$LUNITS
 70
     2
  9
$LUPREC
 70
     4
  9
$SKETCHINC
 40
0.1
  9
$FILLETRAD
 40
2.0
  9
$AUNITS
 70
     0
  9
$AUPREC
 70
     0
  9
$MENU
  1
ACAD
  9
$ELEVATION
 40
0.0
  9
$PELEVATION
 40
0.0
  9
$THICKNESS
 40
0.0
  9
$LIMCHECK
 70
     0
  9
$BLIPMODE
 70
     0
  9
$CHAMFERA
 40
0.0
  9
$CHAMFERB
 40
0.0
  9
$SKPOLY
 70
     0
  9
$TDCREATE
 40
2452095.3408761569
  9
$TDUPDATE
 40
2452095.3413333329
  9
$TDINDWG
 40
0.0004685185
  9
$TDUSRTIMER
 40
0.0004685185
  9
$USRTIMER
 70
     1
  9
$ANGBASE
 50
0.0
  9
$ANGDIR
 70
     0
  9
$PDMODE
 70
     0
  9
$PDSIZE
 40
0.0
  9
$PLINEWID
 40
0.0
  9
$COORDS
 70
     1
  9
$SPLFRAME
 70
     0
  9
$SPLINETYPE
 70
     6
  9
$SPLINESEGS
 70
     8
  9
$ATTDIA
 70
     0
  9
$ATTREQ
 70
     1
  9
$HANDLING
 70
 10241
  9
$HANDSEED
  5
BC
  9
$SURFTAB1
 70
     6
  9
$SURFTAB2
 70
     6
  9
$SURFTYPE
 70
     6
  9
$SURFU
 70
     6
  9
$SURFV
 70
     6
  9
$UCSNAME
  2

  9
$UCSORG
 10
0.0
 20
0.0
 30
0.0
  9
$UCSXDIR
 10
1.0
 20
0.0
 30
0.0
  9
$UCSYDIR
 10
0.0
 20
1.0
 30
0.0
  9
$PUCSNAME
  2

  9
$PUCSORG
 10
0.0
 20
0.0
 30
0.0
  9
$PUCSXDIR
 10
1.0
 20
0.0
 30
0.0
  9
$PUCSYDIR
 10
0.0
 20
1.0
 30
0.0
  9
$USERI1
 70
     0
  9
$USERI2
 70
     0
  9
$USERI3
 70
     0
  9
$USERI4
 70
     0
  9
$USERI5
 70
     0
  9
$USERR1
 40
0.0
  9
$USERR2
 40
0.0
  9
$USERR3
 40
0.0
  9
$USERR4
 40
0.0
  9
$USERR5
 40
0.0
  9
$WORLDVIEW
 70
     1
  9
$SHADEDGE
 70
     3
  9
$SHADEDIF
 70
    70
  9
$TILEMODE
 70
     1
  9
$MAXACTVP
 70
    64
  9
$PLIMCHECK
 70
     0
  9
$PEXTMIN
 10
1.0000000000000000E+020
 20
1.0000000000000000E+020
 30
1.0000000000000000E+020
  9
$PEXTMAX
 10
-1.0000000000000000E+020
 20
-1.0000000000000000E+020
 30
-1.0000000000000000E+020
  9
$PLIMMIN
 10
0.0
 20
0.0
  9
$PLIMMAX
 10
12.0
 20
9.0
  9
$UNITMODE
 70
     0
  9
$VISRETAIN
 70
     1
  9
$PLINEGEN
 70
     0
  9
$PSLTSCALE
 70
     1
  0
ENDSEC
  0
SECTION
  2
TABLES
  0
TABLE
  2
VPORT
 70
     2
  0
VPORT
  2
*ACTIVE
 70
     0
 10
0.0
 20
0.0
 11
1.0
 21
1.0
 12
-5.9976750205962013
 22
101.36965720711299
 13
0.0
 23
0.0
 14
1.0
 24
1.0
 15
0.0
 25
0.0
 16
0.0
 26
0.0
 36
1.0
 17
0.0
 27
0.0
 37
0.0
 40
9.0000001439700554
 41
2.4144144144144142
 42
50.0
 43
0.0
 44
0.0
 50
0.0
 51
0.0
 71
     0
 72
   100
 73
     1
 74
     1
 75
     0
 76
     0
 77
     0
 78
     0
  0
ENDTAB
  0
TABLE
  2
LTYPE
 70
     9
  0
LTYPE
  2
CONTINUOUS
 70
     0
  3
Solid line
 72
    65
 73
     0
 40
0.0
  0
LTYPE
  2
BORDER
 70
     0
  3
__ __ . __ __ .
 72
    65
 73
     6
 40
11.209177516624621
 49
3.202622147607034
 49
-1.601311073803517
 49
3.202622147607034
 49
-1.601311073803517
 49
0.0
 49
-1.601311073803517
  0
LTYPE
  2
CENTER
 70
     0
  3
____ _ ____ _
 72
    65
 73
     4
 40
12.810488590428131
 49
8.0065553690175886
 49
-1.601311073803517
 49
1.601311073803517
 49
-1.601311073803517
  0
LTYPE
  2
DASHDOT
 70
     0
  3
__ . __ . __ .
 72
    65
 73
     4
 40
6.4052442952140689
 49
3.202622147607034
 49
-1.601311073803517
 49
0.0
 49
-1.601311073803517
  0
LTYPE
  2
DASHED
 70
     0
  3
__ __ __ __ __
 72
    65
 73
     2
 40
4.8039332214105519
 49
3.202622147607034
 49
-1.601311073803517
  0
LTYPE
  2
DIVIDE
 70
     0
  3
__ . . __ . . 
 72
    65
 73
     6
 40
8.0065553690175886
 49
3.202622147607034
 49
-1.601311073803517
 49
0.0
 49
-1.601311073803517
 49
0.0
 49
-1.601311073803517
  0
LTYPE
  2
DOT
 70
     0
  3
..............
 72
    65
 73
     4
 40
3.202622147607034
 49
0.0
 49
-1.601311073803517
 49
0.0
 49
-1.601311073803517
  0
LTYPE
  2
HIDDEN
 70
     0
  3
_ _ _ _ _ _ _
 72
    65
 73
     2
 40
2.4019666107052751
 49
1.601311073803517
 49
-0.8006555369017586
  0
LTYPE
  2
PHANTOM
 70
     0
  3
_____ _ _ _____ _ _ 
 72
    65
 73
     6
 40
16.01311073803517
 49
8.0065553690175886
 49
-1.601311073803517
 49
1.601311073803517
 49
-1.601311073803517
 49
1.601311073803517
 49
-1.601311073803517
  0
ENDTAB
  0
TABLE
  2
LAYER
 70
     2
  0
LAYER
  2
0
 70
     0
 62
     7
  6
CONTINUOUS
  0
LAYER
  2
1
 70
     0
 62
     7
  6
CONTINUOUS
  0
ENDTAB
  0
TABLE
  2
STYLE
 70
     4
  0
STYLE
  2
STANDARD
 70
     0
 40
0.0
 41
1.0
 50
0.0
 71
     0
 42
3.5
  3
txt
  4

  0
STYLE
  2
SIMPLEX
 70
     0
 40
0.0
 41
1.0
 50
0.0
 71
     0
 42
3.5
  3
simplex
  4

  0
STYLE
  2
COMPLEX
 70
     0
 40
0.0
 41
1.0
 50
0.0
 71
     0
 42
3.5
  3
complex
  4

  0
STYLE
  2
ITALIC
 70
     0
 40
0.0
 41
1.0
 50
0.0
 71
     0
 42
3.5
  3
italic
  4

  0
ENDTAB
  0
TABLE
  2
VIEW
 70
     0
  0
ENDTAB
  0
TABLE
  2
UCS
 70
     0
  0
ENDTAB
  0
TABLE
  2
APPID
 70
     1
  0
APPID
  2
ACAD
 70
     0
  0
ENDTAB
  0
TABLE
  2
DIMSTYLE
 70
     1
  0
DIMSTYLE
  2
STANDARD
 70
     0
  3

  4

  5

  6

  7

 40
1.0
 41
0.18
 42
0.0625
 43
0.38
 44
0.18
 45
0.0
 46
0.0
 47
0.0
 48
0.0
140
0.18
141
0.09
142
0.0
143
25.399999999999999
144
1.0
145
0.0
146
1.0
147
0.09
 71
     0
 72
     0
 73
     1
 74
     1
 75
     0
 76
     0
 77
     0
 78
     0
170
     0
171
     2
172
     0
173
     0
174
     0
175
     0
176
     0
177
     0
178
     0
  0
ENDTAB
  0
ENDSEC
  0
SECTION
  2
BLOCKS
  0
BLOCK
  8
0
  2
$MODEL_SPACE
 70
     0
 10
0.0
 20
0.0
 30
0.0
  3
$MODEL_SPACE
  1

  0
ENDBLK
  5
20
  8
0
  0
BLOCK
 67
     1
  8
0
  2
$PAPER_SPACE
 70
     0
 10
0.0
 20
0.0
 30
0.0
  3
$PAPER_SPACE
  1

  0
ENDBLK
  5
1C
 67
     1
  8
0
  0
ENDSEC
  0
SECTION
  2
ENTITIES
  0
LINE
  5
33
  8
1
 62
     7
 10
33.1933588761175
 20
48.0
 30
0.0
 11
27.393358876117489
 21
48.0
 31
0.0
  0
LINE
  5
34
  8
1
 62
     7
 10
33.1933588761175
 20
72.0
 30
0.0
 11
33.1933588761175
 21
47.027000000000001
 31
0.0
  0
LINE
  5
35
  8
1
 62
     7
 10
29.493358876117501
 20
72.0
 30
0.0
 11
33.1933588761175
 21
72.0
 31
0.0
  0
LINE
  5
36
  8
1
 62
     7
 10
29.493358876117501
 20
73.0
 30
0.0
 11
29.493358876117501
 21
47.027000000000001
 31
0.0
  0
LINE
  5
37
  8
1
 62
     7
 10
11.3933588761175
 20
51.0
 30
0.0
 11
9.3933588761174995
 21
51.0
 31
0.0
  0
LINE
  5
38
  8
1
 62
     7
 10
11.3933588761175
 20
52.5
 30
0.0
 11
11.3933588761175
 21
20.0
 31
0.0
  0
LINE
  5
39
  8
1
 62
     7
 10
11.3933588761175
 20
47.0
 30
0.0
 11
13.3933588761175
 21
47.0
 31
0.0
  0
LINE
  5
3A
  8
1
 62
     7
 10
13.3933588761175
 20
52.5
 30
0.0
 11
11.3933588761175
 21
52.5
 31
0.0
  0
LINE
  5
3B
  8
1
 62
     7
 10
9.3933588761174995
 20
79.0
 30
0.0
 11
9.3933588761174995
 21
20.0
 31
0.0
  0
LINE
  5
3C
  8
1
 62
     7
 10
15.393358876117491
 20
73.0
 30
0.0
 11
15.393358876117491
 21
79.0
 31
0.0
  0
LINE
  5
3D
  8
1
 62
     7
 10
60.393358876117489
 20
37.5
 30
0.0
 11
60.393358876117489
 21
52.5
 31
0.0
  0
LINE
  5
3E
  8
1
 62
     7
 10
60.393358876117489
 20
51.0
 30
0.0
 11
46.393358876117489
 21
51.0
 31
0.0
  0
LINE
  5
3F
  8
1
 62
     7
 10
55.526828761070178
 20
40.807499999999997
 30
0.0
 11
60.393358876117489
 21
40.807499999999997
 31
0.0
  0
LINE
  5
40
  8
1
 62
     7
 10
55.526828761070178
 20
47.692500000000003
 30
0.0
 11
60.393358876117489
 21
47.692500000000003
 31
0.0
  0
LINE
  5
41
  8
1
 62
     7
 10
58.918358876117487
 20
48.519374999999997
 30
0.0
 11
58.918358876117487
 21
39.980625000000003
 31
0.0
  0
LINE
  5
42
  8
1
 62
     7
 10
47.868358876117497
 20
48.519374999999997
 30
0.0
 11
47.868358876117497
 21
39.980625000000003
 31
0.0
  0
LINE
  5
43
  8
1
 62
     7
 10
51.259888991164821
 20
47.692500000000003
 30
0.0
 11
46.393358876117489
 21
47.692500000000003
 31
0.0
  0
LINE
  5
44
  8
1
 62
     7
 10
51.259888991164821
 20
40.807499999999997
 30
0.0
 11
46.393358876117489
 21
40.807499999999997
 31
0.0
  0
LINE
  5
45
  8
1
 62
     7
 10
46.393358876117489
 20
37.5
 30
0.0
 11
46.393358876117489
 21
51.0
 31
0.0
  0
LINE
  5
46
  8
1
 62
     7
 10
13.3933588761175
 20
52.5
 30
0.0
 11
13.3933588761175
 21
20.0
 31
0.0
  0
LINE
  5
47
  8
1
 62
     7
 10
27.393358876117489
 20
51.0
 30
0.0
 11
13.3933588761175
 21
51.0
 31
0.0
  0
LINE
  5
48
  8
1
 62
     7
 10
27.393358876117489
 20
37.5
 30
0.0
 11
27.393358876117489
 21
51.0
 31
0.0
  0
LINE
  5
49
  8
1
 62
     7
 10
14.868358876117499
 20
48.519374999999997
 30
0.0
 11
14.868358876117499
 21
39.980625000000003
 31
0.0
  0
LINE
  5
4A
  8
1
 62
     7
 10
25.918358876117502
 20
48.519374999999997
 30
0.0
 11
25.918358876117502
 21
39.980625000000003
 31
0.0
  0
LINE
  5
4B
  8
1
 62
     7
 10
22.526828761070188
 20
47.692500000000003
 30
0.0
 11
27.393358876117489
 21
47.692500000000003
 31
0.0
  0
LINE
  5
4C
  8
1
 62
     7
 10
18.259888991164821
 20
47.692500000000003
 30
0.0
 11
13.3933588761175
 21
47.692500000000003
 31
0.0
  0
LINE
  5
4D
  8
1
 62
     7
 10
22.526828761070188
 20
40.807499999999997
 30
0.0
 11
27.393358876117489
 21
40.807499999999997
 31
0.0
  0
LINE
  5
4E
  8
1
 62
     7
 10
18.259888991164821
 20
40.807499999999997
 30
0.0
 11
13.3933588761175
 21
40.807499999999997
 31
0.0
  0
LINE
  5
4F
  8
1
 62
     7
 10
39.893358876117503
 20
45.0
 30
0.0
 11
46.393358876117489
 21
45.0
 31
0.0
  0
LINE
  5
50
  8
1
 62
     7
 10
39.893358876117503
 20
72.0
 30
0.0
 11
39.893358876117503
 21
37.5
 31
0.0
  0
LINE
  5
51
  8
1
 62
     7
 10
33.893358876117503
 20
72.0
 30
0.0
 11
39.893358876117503
 21
72.0
 31
0.0
  0
LINE
  5
52
  8
1
 62
     7
 10
33.893358876117503
 20
37.5
 30
0.0
 11
33.893358876117503
 21
72.0
 31
0.0
  0
LINE
  5
53
  8
1
 62
     7
 10
27.393358876117489
 20
45.0
 30
0.0
 11
33.893358876117503
 21
45.0
 31
0.0
  0
LINE
  5
54
  8
1
  6
DASHDOT
 62
     3
 10
68.393358876117503
 20
25.0
 30
0.0
 11
68.393358876117503
 21
15.0
 31
0.0
  0
LINE
  5
55
  8
1
  6
DASHDOT
 62
     3
 10
68.393358876117503
 20
40.499999999999993
 30
0.0
 11
68.393358876117503
 21
27.300000000000001
 31
0.0
  0
LINE
  5
56
  8
1
 62
     7
 10
66.993358876117483
 20
30.300000000000001
 30
0.0
 11
66.993358876117483
 21
37.5
 31
0.0
  0
LINE
  5
57
  8
1
 62
     7
 10
69.793358876117509
 20
37.5
 30
0.0
 11
69.793358876117509
 21
30.300000000000001
 31
0.0
  0
LINE
  5
58
  8
1
 62
     3
 10
66.393358876117503
 20
30.300000000000001
 30
0.0
 11
66.393358876117503
 21
37.5
 31
0.0
  0
LINE
  5
59
  8
1
 62
     3
 10
70.393358876117503
 20
37.5
 30
0.0
 11
70.393358876117503
 21
30.300000000000001
 31
0.0
  0
LINE
  5
5A
  8
1
 62
     7
 10
74.393358876117503
 20
28.0
 30
0.0
 11
13.3933588761175
 21
28.0
 31
0.0
  0
LINE
  5
5B
  8
1
 62
     7
 10
74.393358876117503
 20
30.300000000000001
 30
0.0
 11
13.3933588761175
 21
30.300000000000001
 31
0.0
  0
LINE
  5
5C
  8
1
 62
     7
 10
74.393358876117503
 20
37.5
 30
0.0
 11
13.3933588761175
 21
37.5
 31
0.0
  0
LINE
  5
5D
  8
1
 62
     7
 10
74.393358876117503
 20
20.0
 30
0.0
 11
74.393358876117503
 21
37.5
 31
0.0
  0
LINE
  5
5E
  8
1
 62
     7
 10
15.393358876117491
 20
73.0
 30
0.0
 11
49.99335887611749
 21
73.0
 31
0.0
  0
LINE
  5
5F
  8
1
 62
     7
 10
9.3933588761174995
 20
79.0
 30
0.0
 11
57.893358876117489
 21
79.0
 31
0.0
  0
LINE
  5
60
  8
1
 62
     7
 10
57.893358876117489
 20
79.0
 30
0.0
 11
57.893358876117489
 21
73.0
 31
0.0
  0
LINE
  5
61
  8
1
 62
     7
 10
40.593358876117513
 20
47.027000000000001
 30
0.0
 11
40.593358876117513
 21
72.0
 31
0.0
  0
LINE
  5
62
  8
1
 62
     7
 10
40.593358876117513
 20
72.0
 30
0.0
 11
44.293358876117509
 21
72.0
 31
0.0
  0
LINE
  5
63
  8
1
 62
     7
 10
46.393358876117489
 20
48.0
 30
0.0
 11
40.593358876117513
 21
48.0
 31
0.0
  0
LINE
  5
64
  8
1
 62
     7
 10
44.293358876117509
 20
47.027000000000001
 30
0.0
 11
44.293358876117509
 21
73.0
 31
0.0
  0
LINE
  5
65
  8
1
 62
     7
 10
58.393358876117503
 20
73.0
 30
0.0
 11
58.393358876117503
 21
79.25
 31
0.0
  0
LINE
  5
66
  8
1
 62
     7
 10
58.393358876117503
 20
79.25
 30
0.0
 11
64.393358876117503
 21
79.25
 31
0.0
  0
LINE
  5
67
  8
1
 62
     7
 10
64.393358876117503
 20
79.25
 30
0.0
 11
64.393358876117503
 21
37.5
 31
0.0
  0
LINE
  5
68
  8
1
 62
     7
 10
62.393358876117489
 20
52.5
 30
0.0
 11
60.393358876117489
 21
52.5
 31
0.0
  0
LINE
  5
69
  8
1
 62
     7
 10
60.393358876117489
 20
47.0
 30
0.0
 11
62.393358876117489
 21
47.0
 31
0.0
  0
LINE
  5
6A
  8
1
 62
     7
 10
62.393358876117489
 20
52.5
 30
0.0
 11
62.393358876117489
 21
37.5
 31
0.0
  0
LINE
  5
6B
  8
1
 62
     7
 10
62.393358876117489
 20
51.0
 30
0.0
 11
64.393358876117503
 21
51.0
 31
0.0
  0
LINE
  5
6C
  8
1
 62
     7
 10
55.393358876117489
 20
79.0
 30
0.0
 11
55.393358876117489
 21
75.0
 31
0.0
  0
LINE
  5
6D
  8
1
 62
     7
 10
55.393358876117489
 20
75.0
 30
0.0
 11
47.393358876117489
 21
75.0
 31
0.0
  0
LINE
  5
6E
  8
1
 62
     7
 10
47.393358876117489
 20
75.0
 30
0.0
 11
47.393358876117489
 21
79.0
 31
0.0
  0
LINE
  5
6F
  8
1
 62
     7
 10
53.643358876117489
 20
75.0
 30
0.0
 11
53.643358876117489
 21
73.0
 31
0.0
  0
LINE
  5
70
  8
1
 62
     7
 10
49.143358876117489
 20
75.0
 30
0.0
 11
49.143358876117489
 21
73.0
 31
0.0
  0
LINE
  5
71
  8
1
  6
DASHDOT
 62
     3
 10
51.393358876117503
 20
82.0
 30
0.0
 11
51.393358876117503
 21
59.999999999999972
 31
0.0
  0
LINE
  5
72
  8
1
 62
     7
 10
47.893358876117489
 20
75.000000000000028
 30
0.0
 11
47.893358876117532
 21
78.700000000000031
 31
0.0
  0
LINE
  5
73
  8
1
 62
     7
 10
47.893358876117532
 20
78.700000000000031
 30
0.0
 11
48.412974118388192
 21
79.000000000000028
 31
0.0
  0
LINE
  5
74
  8
1
 62
     7
 10
54.373743633846857
 20
78.999999999999986
 30
0.0
 11
54.893358876117532
 21
78.699999999999974
 31
0.0
  0
LINE
  5
75
  8
1
 62
     7
 10
54.893358876117532
 20
78.699999999999974
 30
0.0
 11
54.893358876117489
 21
74.999999999999972
 31
0.0
  0
LINE
  5
76
  8
1
 62
     7
 10
47.893358876117532
 20
78.700000000000031
 30
0.0
 11
54.893358876117532
 21
78.699999999999974
 31
0.0
  0
LINE
  5
77
  8
1
 62
     7
 10
49.393358876117503
 20
75.000000000000014
 30
0.0
 11
49.393358876117432
 21
63.600000000000023
 31
0.0
  0
LINE
  5
78
  8
1
 62
     7
 10
49.393358876117432
 20
63.600000000000023
 30
0.0
 11
49.993358876117419
 21
63.0
 31
0.0
  0
LINE
  5
79
  8
1
 62
     7
 10
49.993358876117419
 20
63.0
 30
0.0
 11
52.793358876117424
 21
62.999999999999993
 31
0.0
  0
LINE
  5
7A
  8
1
 62
     7
 10
52.793358876117424
 20
62.999999999999993
 30
0.0
 11
53.393358876117432
 21
63.599999999999987
 31
0.0
  0
LINE
  5
7B
  8
1
 62
     7
 10
53.393358876117432
 20
63.599999999999987
 30
0.0
 11
53.393358876117489
 21
74.999999999999986
 31
0.0
  0
LINE
  5
7C
  8
1
 62
     7
 10
49.393358876117432
 20
63.600000000000023
 30
0.0
 11
53.393358876117432
 21
63.599999999999987
 31
0.0
  0
LINE
  5
7D
  8
1
 62
     3
 10
49.993358876117419
 20
63.0
 30
0.0
 11
49.99335887611749
 21
73.460769515458693
 31
0.0
  0
LINE
  5
7E
  8
1
 62
     3
 10
49.99335887611749
 20
73.460769515458693
 30
0.0
 11
49.393358876117503
 21
74.500000000000014
 31
0.0
  0
LINE
  5
7F
  8
1
 62
     3
 10
52.793358876117424
 20
62.999999999999993
 30
0.0
 11
52.793358876117487
 21
73.460769515458665
 31
0.0
  0
LINE
  5
80
  8
1
 62
     3
 10
52.793358876117487
 20
73.460769515458665
 30
0.0
 11
53.393358876117489
 21
74.499999999999986
 31
0.0
  0
LINE
  5
81
  8
1
 62
     3
 10
49.393358876117503
 20
73.460769515458693
 30
0.0
 11
53.393358876117489
 21
73.460769515458665
 31
0.0
  0
LINE
  5
82
  8
1
 62
     7
 10
52.793358876117487
 20
73.0
 30
0.0
 11
58.393358876117503
 21
73.0
 31
0.0
  0
LINE
  5
83
  8
1
 62
     7
 10
57.893358876117489
 20
-39.0
 30
0.0
 11
9.3933588761174995
 21
-39.0
 31
0.0
  0
LINE
  5
84
  8
1
 62
     7
 10
9.3933588761174995
 20
20.0
 30
0.0
 11
9.3933588761174995
 21
-39.0
 31
0.0
  0
LINE
  5
85
  8
1
 62
     7
 10
64.393358876117503
 20
20.0
 30
0.0
 11
64.393358876117503
 21
-39.25
 31
0.0
  0
LINE
  5
86
  8
1
 62
     7
 10
64.393358876117503
 20
-39.25
 30
0.0
 11
58.393358876117503
 21
-39.25
 31
0.0
  0
LINE
  5
87
  8
1
 62
     7
 10
58.393358876117503
 20
-39.25
 30
0.0
 11
58.393358876117503
 21
20.0
 31
0.0
  0
LINE
  5
88
  8
1
 62
     7
 10
57.893358876117489
 20
-39.0
 30
0.0
 11
57.893358876117489
 21
20.0
 31
0.0
  0
LINE
  5
89
  8
1
 62
     7
 10
15.393358876117491
 20
-39.0
 30
0.0
 11
15.393358876117491
 21
20.0
 31
0.0
  0
LINE
  5
8A
  8
1
 62
     7
 10
58.393358876117503
 20
-33.0
 30
0.0
 11
57.893358876117489
 21
-33.0
 31
0.0
  0
LINE
  5
8B
  8
1
 62
     7
 10
74.393358876117503
 20
20.0
 30
0.0
 11
74.393358876117503
 21
2.5
 31
0.0
  0
LINE
  5
8C
  8
1
 62
     7
 10
74.393358876117503
 20
2.5
 30
0.0
 11
64.393358876117503
 21
2.5
 31
0.0
  0
LINE
  5
8D
  8
1
  6
DASHDOT
 62
     3
 10
4.3933588761174978
 20
20.0
 30
0.0
 11
79.393358876117503
 21
20.0
 31
0.0
  0
LINE
  5
8E
  8
1
  6
DASHDOT
 62
     3
 10
167.529532823637
 20
20.0
 30
0.0
 11
167.529532823637
 21
23.0
 31
0.0
  0
LINE
  5
8F
  8
1
  6
DASHDOT
 62
     3
 10
167.529532823637
 20
20.0
 30
0.0
 11
164.529532823637
 21
20.0
 31
0.0
  0
LINE
  5
90
  8
1
  6
DASHDOT
 62
     3
 10
167.529532823637
 20
20.0
 30
0.0
 11
167.529532823637
 21
17.0
 31
0.0
  0
LINE
  5
91
  8
1
  6
DASHDOT
 62
     3
 10
167.529532823637
 20
20.0
 30
0.0
 11
170.529532823637
 21
19.999999999999979
 31
0.0
  0
LINE
  5
92
  8
1
  6
DASHDOT
 62
     3
 10
189.3295328236369
 20
57.75870760500154
 30
0.0
 11
183.82953282363701
 21
48.23242816337271
 31
0.0
  0
LINE
  5
93
  8
1
  6
DASHDOT
 62
     3
 10
123.929532823637
 20
20.000000000000028
 30
0.0
 11
134.92953282363689
 21
20.000000000000028
 31
0.0
  0
LINE
  5
94
  8
1
  6
DASHDOT
 62
     3
 10
189.3295328236369
 20
-17.758707605001518
 30
0.0
 11
183.82953282363701
 21
-8.2324281633726741
 31
0.0
  0
LINE
  5
95
  8
1
 62
     7
 10
165.02953282363691
 20
27.599342076785319
 30
0.0
 11
165.02953282363691
 21
30.300000000000001
 31
0.0
  0
LINE
  5
96
  8
1
 62
     7
 10
165.02953282363691
 20
30.300000000000001
 30
0.0
 11
170.029532823637
 21
30.300000000000001
 31
0.0
  0
LINE
  5
97
  8
1
 62
     7
 10
170.029532823637
 20
30.300000000000001
 30
0.0
 11
170.029532823637
 21
27.599342076785319
 31
0.0
  0
LINE
  5
98
  8
1
  6
DASHED
 62
     3
 10
165.529532823637
 20
30.300000000000001
 30
0.0
 11
165.529532823637
 21
37.385338650713713
 31
0.0
  0
LINE
  5
99
  8
1
  6
DASHED
 62
     3
 10
169.529532823637
 20
37.385338650713713
 30
0.0
 11
169.529532823637
 21
30.300000000000001
 31
0.0
  0
LINE
  5
9A
  8
1
  6
DASHED
 62
     7
 10
166.12953282363699
 20
30.300000000000001
 30
0.0
 11
166.12953282363699
 21
37.443910112127952
 31
0.0
  0
LINE
  5
9B
  8
1
  6
DASHED
 62
     7
 10
168.929532823637
 20
37.443910112127952
 30
0.0
 11
168.929532823637
 21
30.300000000000001
 31
0.0
  0
LINE
  5
9C
  8
1
  6
DASHDOT
 62
     3
 10
167.529532823637
 20
27.300000000000001
 30
0.0
 11
167.529532823637
 21
40.499999999999993
 31
0.0
  0
LINE
  5
9D
  8
1
  6
DASHED
 62
     3
 10
159.7835661312221
 20
17.999999999999979
 30
0.0
 11
150.14419417292331
 21
17.999999999999979
 31
0.0
  0
LINE
  5
9E
  8
1
  6
DASHED
 62
     3
 10
150.14419417292331
 20
21.999999999999979
 30
0.0
 11
159.7835661312221
 21
21.999999999999979
 31
0.0
  0
LINE
  5
9F
  8
1
  6
DASHED
 62
     7
 10
159.65298535663089
 20
18.59999999999998
 30
0.0
 11
150.0856227115091
 21
18.59999999999998
 31
0.0
  0
LINE
  5
A0
  8
1
  6
DASHED
 62
     7
 10
150.0856227115091
 20
21.399999999999981
 30
0.0
 11
159.65298535663089
 21
21.399999999999981
 31
0.0
  0
LINE
  5
A1
  8
1
  6
DASHDOT
 62
     3
 10
162.529532823637
 20
20.0
 30
0.0
 11
147.02953282363691
 21
19.999999999999989
 31
0.0
  0
ARC
  5
A2
  8
1
 62
     3
 10
68.393358876117503
 20
20.0
 30
0.0
 40
2.0
 50
180.0
 51
0.0
  0
ARC
  5
A3
  8
1
 62
     7
 10
68.393358876117503
 20
20.0
 30
0.0
 40
1.400000000000005
 50
180.0
 51
0.0
  0
ARC
  5
A4
  8
1
  6
DASHDOT
 62
     3
 10
167.529532823637
 20
20.0
 30
0.0
 40
38.099999999999973
 50
51.6999563197136
 51
68.300043680286379
  0
ARC
  5
A5
  8
1
  6
DASHDOT
 62
     3
 10
167.529532823637
 20
20.0
 30
0.0
 40
38.100000000000023
 50
171.69995631971341
 51
188.30004368028639
  0
ARC
  5
A6
  8
1
  6
DASHDOT
 62
     3
 10
167.529532823637
 20
20.0
 30
0.0
 40
38.099999999999959
 50
291.69995631971358
 51
308.30004368028631
  0
ARC
  5
A7
  8
1
 62
     7
 10
167.529532823637
 20
20.0
 30
0.0
 40
7.9999999999999973
 50
108.209956864283
 51
71.790043135716985
  0
CIRCLE
  5
A8
  8
1
 62
     7
 10
53.393358876117489
 20
44.249999999999993
 30
0.0
 40
4.0499999999999901
  0
CIRCLE
  5
A9
  8
1
 62
     7
 10
20.3933588761175
 20
44.249999999999993
 30
0.0
 40
4.0500000000000007
  0
CIRCLE
  5
AA
  8
1
 62
     7
 10
167.529532823637
 20
20.0
 30
0.0
 40
59.25
  0
CIRCLE
  5
AB
  8
1
 62
     7
 10
167.529532823637
 20
20.0
 30
0.0
 40
17.5
  0
CIRCLE
  5
AC
  8
1
 62
     7
 10
167.529532823637
 20
20.0
 30
0.0
 40
31.0
  0
CIRCLE
  5
AD
  8
1
 62
     7
 10
186.57953282363701
 20
52.995567884187111
 30
0.0
 40
1.8999999999999759
  0
CIRCLE
  5
AE
  8
1
 62
     3
 10
186.57953282363701
 20
52.995567884187111
 30
0.0
 40
2.5
  0
CIRCLE
  5
AF
  8
1
 62
     7
 10
129.429532823637
 20
20.000000000000028
 30
0.0
 40
1.9000000000000059
  0
CIRCLE
  5
B0
  8
1
 62
     3
 10
129.429532823637
 20
20.000000000000028
 30
0.0
 40
2.5000000000000142
  0
CIRCLE
  5
B1
  8
1
 62
     7
 10
186.57953282363701
 20
-12.9955678841871
 30
0.0
 40
1.9000000000000139
  0
CIRCLE
  5
B2
  8
1
 62
     3
 10
186.57953282363701
 20
-12.9955678841871
 30
0.0
 40
2.4999999999999951
  0
TEXT
  5
B4
  8
1
 62
     7
 10
-16.61975039449765
 20
102.1275049469609
 30
0.0
 40
3.5
  1
PHT 30D
 41
0.9
  7
SIMPLEX
  0
ENDSEC
  0
EOF
