  0
SECTION
  2
HEADER
  9
$ACADVER
  1
AC1009
  9
$INSBASE
 10
0
 20
0
  9
$EXTMIN
 10
236.1522074978541
 20
-124.4099550583727
  9
$EXTMAX
 10
508.5522074978543
 20
-18.20637478695927
  9
$LIMMIN
 10
236.1522074978541
 20
-124.4099550583727
  9
$LIMMAX
 10
508.5522074978543
 20
-18.20637478695927
  9
$VIEWCTR
 10
10
 20
10
  9
$VIEWSIZE
 40
10
  9
$SNAPMODE
 70
0
  9
$SNAPUNIT
 10
1
 20
1
  9
$SNAPBASE
 10
0
 20
0
  9
$SNAPANG
 50
0
  9
$SNAPSTYLE
 70
0
  9
$SNAPISOPAIR
 70
0
  9
$GRIDMODE
 70
0
  9
$GRIDUNIT
 10
0
 20
0
  9
$ORTHOMODE
 70
0
  9
$REGENMODE
 70
1
  9
$FILLMODE
 70
1
  9
$QTEXTMODE
 70
0
  9
$DRAGMODE
 70
2
  9
$LTSCALE
 40
1
  9
$OSMODE
 70
0
  9
$ATTMODE
 70
1
  9
$TEXTSIZE
 40
3.5
  9
$TRACEWID
 40
0.5
  9
$TEXTSTYLE
  7
STANDARD
  9
$CLAYER
  8
0
  9
$CELTYPE
  6
BYLAYER
  9
$CECOLOR
 62
256
  9
$DIMSCALE
 40
1
  9
$DIMASZ
 40
0.18
  9
$DIMEXO
 40
0.0625
  9
$DIMDLI
 40
0.38
  9
$DIMRND
 40
0
  9
$DIMDLE
 40
0
  9
$DIMEXE
 40
0.18
  9
$DIMTP
 40
0
  9
$DIMTM
 40
0
  9
$DIMTXT
 40
0.18
  9
$DIMCEN
 40
0.09
  9
$DIMTSZ
 40
0
  9
$DIMTOL
 70
0
  9
$DIMLIM
 70
0
  9
$DIMTIH
 70
1
  9
$DIMTOH
 70
1
  9
$DIMSE1
 70
0
  9
$DIMSE2
 70
0
  9
$DIMTAD
 70
0
  9
$DIMZIN
 70
0
  9
$DIMBLK
  1

  9
$DIMASO
 70
1
  9
$DIMSHO
 70
1
  9
$DIMPOST
  1

  9
$DIMAPOST
  1

  9
$DIMALT
 70
0
  9
$DIMALTD
 70
2
  9
$DIMALTF
 40
25.4
  9
$DIMLFAC
 40
1
  9
$DIMTOFL
 70
0
  9
$DIMTVP
 40
0
  9
$DIMTIX
 70
0
  9
$DIMSOXD
 70
0
  9
$DIMSAH
 70
0
  9
$DIMBLK1
  1

  9
$DIMBLK2
  1

  9
$DIMSTYLE
  2
*UNNAMED
  9
$DIMCLRD
 70
0
  9
$DIMCLRE
 70
0
  9
$DIMCLRT
 70
0
  9
$DIMTFAC
 40
1
  9
$DIMGAP
 40
0.09
  9
$LUNITS
 70
2
  9
$LUPREC
 70
4
  9
$AXISMODE
 70
0
  9
$AXISUNIT
 10
0
 20
0
  9
$SKETCHINC
 40
0.1
  9
$FILLETRAD
 40
2
  9
$AUNITS
 70
0
  9
$AUPREC
 70
0
  9
$MENU
  1
ACAD
  9
$ELEVATION
 40
0
  9
$THICKNESS
 40
0
  9
$VIEWDIR
 10
0
 20
0
 30
1
  9
$LIMCHECK
 70
0
  9
$BLIPMODE
 70
1
  9
$CHAMFERA
 40
0
  9
$CHAMFERB
 40
0
  9
$FASTZOOM
 70
1
  9
$SKPOLY
 70
0
  9
$ANGBASE
 50
0
  9
$ANGDIR
 70
0
  9
$PDMODE
 70
0
  9
$PDSIZE
 40
0
  9
$PLINEWID
 40
0
  9
$COORDS
 70
2
  0
ENDSEC
  0
SECTION
  2
TABLES
  0
TABLE
  2
DIMSTYLE
 70
0
  0
ENDTAB
  0
TABLE
  2
LTYPE
 70
9
  0
LTYPE
  2
CONTINUOUS
 70
64
  3
Solid line
 72
65
 73
0
 40
0
  0
LTYPE
  2
BORDER
 70
64
  3
__ __ . __ __ .
 72
65
 73
6
 40
12.54473684210527
 49
3.584210526315792
 49
-1.792105263157896
 49
3.584210526315792
 49
-1.792105263157896
 49
0
 49
-1.792105263157896
  0
LTYPE
  2
CENTER
 70
64
  3
____ _ ____ _
 72
65
 73
4
 40
14.33684210526317
 49
8.96052631578948
 49
-1.792105263157896
 49
1.792105263157896
 49
-1.792105263157896
  0
LTYPE
  2
DASHDOT
 70
64
  3
__ . __ . __ .
 72
65
 73
4
 40
7.168421052631584
 49
3.584210526315792
 49
-1.792105263157896
 49
0
 49
-1.792105263157896
  0
LTYPE
  2
DASHED
 70
64
  3
__ __ __ __ __
 72
65
 73
2
 40
5.376315789473688
 49
3.584210526315792
 49
-1.792105263157896
  0
LTYPE
  2
DIVIDE
 70
64
  3
__ . . __ . . 
 72
65
 73
6
 40
8.96052631578948
 49
3.584210526315792
 49
-1.792105263157896
 49
0
 49
-1.792105263157896
 49
0
 49
-1.792105263157896
  0
LTYPE
  2
DOT
 70
64
  3
..............
 72
65
 73
4
 40
3.584210526315792
 49
0
 49
-1.792105263157896
 49
0
 49
-1.792105263157896
  0
LTYPE
  2
HIDDEN
 70
64
  3
_ _ _ _ _ _ _
 72
65
 73
2
 40
2.688157894736844
 49
1.792105263157896
 49
-0.896052631578948
  0
LTYPE
  2
PHANTOM
 70
64
  3
_____ _ _ _____ _ _ 
 72
65
 73
6
 40
17.92105263157896
 49
8.96052631578948
 49
-1.792105263157896
 49
1.792105263157896
 49
-1.792105263157896
 49
1.792105263157896
 49
-1.792105263157896
  0
ENDTAB
  0
TABLE
  2
LAYER
 70
3
  0
LAYER
  2
1
 70
0
 62
7
  6
CONTINUOUS
  0
LAYER
  2
0
 70
0
 62
7
  6
CONTINUOUS
  0
ENDTAB
  0
TABLE
  2
STYLE
 70
4
  0
STYLE
  2
STANDARD
 70
0
 40
0
 41
1
 50
0
 71
0
 42
3.5
  3
txt
  4

  0
STYLE
  2
SIMPLEX
 70
0
 40
0
 41
1
 50
0
 71
0
 42
3.5
  3
simplex
  4

  0
STYLE
  2
COMPLEX
 70
0
 40
0
 41
1
 50
0
 71
0
 42
3.5
  3
complex
  4

  0
STYLE
  2
ITALIC
 70
0
 40
0
 41
1
 50
0
 71
0
 42
3.5
  3
italic
  4

  0
ENDTAB
  0
TABLE
  2
VIEW
 70
0
  0
ENDTAB
  0
ENDSEC
  0
SECTION
  2
BLOCKS
  0
BLOCK
  8
1
  2
*X0
 70
1
 10
0
 20
0
 30
0
  0
LINE
  8
1
 62
3
 10
467.5522074978543
 20
-50.0684609362998
 30
0
 11
470.5522074978543
 21
-50.0684609362998
 31
0
  0
LINE
  8
1
 62
3
 10
467.5522074978543
 20
-50.5684609362998
 30
0
 11
470.5522074978543
 21
-50.5684609362998
 31
0
  0
LINE
  8
1
 62
3
 10
467.5522074978543
 20
-51.0684609362998
 30
0
 11
470.5522074978543
 21
-51.0684609362998
 31
0
  0
LINE
  8
1
 62
3
 10
467.5522074978543
 20
-51.5684609362998
 30
0
 11
470.5522074978543
 21
-51.5684609362998
 31
0
  0
LINE
  8
1
 62
3
 10
467.5522074978543
 20
-52.0684609362998
 30
0
 11
470.5522074978543
 21
-52.0684609362998
 31
0
  0
LINE
  8
1
 62
3
 10
467.5522074978543
 20
-52.5684609362998
 30
0
 11
470.5522074978543
 21
-52.5684609362998
 31
0
  0
LINE
  8
1
 62
3
 10
467.5522074978543
 20
-53.0684609362998
 30
0
 11
470.5522074978543
 21
-53.0684609362998
 31
0
  0
LINE
  8
1
 62
3
 10
467.5522074978543
 20
-53.5684609362998
 30
0
 11
470.5522074978543
 21
-53.5684609362998
 31
0
  0
LINE
  8
1
 62
3
 10
467.5522074978543
 20
-54.0684609362998
 30
0
 11
470.5522074978543
 21
-54.0684609362998
 31
0
  0
LINE
  8
1
 62
3
 10
467.5522074978543
 20
-54.5684609362998
 30
0
 11
470.5522074978543
 21
-54.5684609362998
 31
0
  0
LINE
  8
1
 62
3
 10
467.5522074978543
 20
-55.0684609362998
 30
0
 11
470.5522074978543
 21
-55.0684609362998
 31
0
  0
LINE
  8
1
 62
3
 10
467.5522074978543
 20
-55.5684609362998
 30
0
 11
470.5522074978543
 21
-55.5684609362998
 31
0
  0
LINE
  8
1
 62
3
 10
467.5522074978543
 20
-56.0684609362998
 30
0
 11
470.5522074978543
 21
-56.0684609362998
 31
0
  0
LINE
  8
1
 62
3
 10
467.5522074978543
 20
-56.5684609362998
 30
0
 11
470.5522074978543
 21
-56.5684609362998
 31
0
  0
LINE
  8
1
 62
3
 10
467.5522074978543
 20
-57.0684609362998
 30
0
 11
470.5522074978543
 21
-57.0684609362998
 31
0
  0
LINE
  8
1
 62
3
 10
467.5522074978543
 20
-57.5684609362998
 30
0
 11
470.5522074978543
 21
-57.5684609362998
 31
0
  0
LINE
  8
1
 62
3
 10
467.5522074978543
 20
-58.0684609362998
 30
0
 11
470.5522074978543
 21
-58.0684609362998
 31
0
  0
LINE
  8
1
 62
3
 10
467.5522074978543
 20
-58.5684609362998
 30
0
 11
470.5522074978543
 21
-58.5684609362998
 31
0
  0
LINE
  8
1
 62
3
 10
467.5522074978543
 20
-59.0684609362998
 30
0
 11
470.5522074978543
 21
-59.0684609362998
 31
0
  0
LINE
  8
1
 62
3
 10
467.5522074978543
 20
-59.5684609362998
 30
0
 11
470.5522074978543
 21
-59.5684609362998
 31
0
  0
LINE
  8
1
 62
3
 10
467.5522074978543
 20
-60.0684609362998
 30
0
 11
470.5522074978543
 21
-60.0684609362998
 31
0
  0
LINE
  8
1
 62
3
 10
467.5522074978543
 20
-60.5684609362998
 30
0
 11
470.5522074978543
 21
-60.5684609362998
 31
0
  0
LINE
  8
1
 62
3
 10
467.5522074978543
 20
-61.0684609362998
 30
0
 11
470.5522074978543
 21
-61.0684609362998
 31
0
  0
LINE
  8
1
 62
3
 10
467.5522074978543
 20
-61.5684609362998
 30
0
 11
470.5522074978543
 21
-61.5684609362998
 31
0
  0
LINE
  8
1
 62
3
 10
467.5522074978543
 20
-62.0684609362998
 30
0
 11
470.5522074978543
 21
-62.0684609362998
 31
0
  0
LINE
  8
1
 62
3
 10
467.5522074978543
 20
-62.5684609362998
 30
0
 11
470.5522074978543
 21
-62.5684609362998
 31
0
  0
LINE
  8
1
 62
3
 10
467.5522074978543
 20
-63.0684609362998
 30
0
 11
470.5522074978543
 21
-63.0684609362998
 31
0
  0
LINE
  8
1
 62
3
 10
467.5522074978543
 20
-63.5684609362998
 30
0
 11
470.5522074978543
 21
-63.5684609362998
 31
0
  0
LINE
  8
1
 62
3
 10
467.5522074978543
 20
-64.0684609362998
 30
0
 11
470.5522074978543
 21
-64.0684609362998
 31
0
  0
LINE
  8
1
 62
3
 10
467.5522074978543
 20
-64.5684609362998
 30
0
 11
470.5522074978543
 21
-64.5684609362998
 31
0
  0
LINE
  8
1
 62
3
 10
467.5522074978543
 20
-65.0684609362998
 30
0
 11
470.5522074978543
 21
-65.0684609362998
 31
0
  0
LINE
  8
1
 62
3
 10
467.5522074978543
 20
-65.5684609362998
 30
0
 11
470.5522074978543
 21
-65.5684609362998
 31
0
  0
LINE
  8
1
 62
3
 10
467.5522074978543
 20
-66.0684609362998
 30
0
 11
470.5522074978543
 21
-66.0684609362998
 31
0
  0
LINE
  8
1
 62
3
 10
467.5522074978543
 20
-66.5684609362998
 30
0
 11
470.5522074978543
 21
-66.5684609362998
 31
0
  0
LINE
  8
1
 62
3
 10
467.5522074978543
 20
-67.0684609362998
 30
0
 11
470.5522074978543
 21
-67.0684609362998
 31
0
  0
LINE
  8
1
 62
3
 10
467.5522074978543
 20
-67.5684609362998
 30
0
 11
470.5522074978543
 21
-67.5684609362998
 31
0
  0
LINE
  8
1
 62
3
 10
467.5522074978543
 20
-68.0684609362998
 30
0
 11
470.5522074978543
 21
-68.0684609362998
 31
0
  0
LINE
  8
1
 62
3
 10
467.5522074978543
 20
-68.5684609362998
 30
0
 11
470.5522074978543
 21
-68.5684609362998
 31
0
  0
LINE
  8
1
 62
3
 10
467.5522074978543
 20
-69.0684609362998
 30
0
 11
470.5522074978543
 21
-69.0684609362998
 31
0
  0
LINE
  8
1
 62
3
 10
467.5522074978543
 20
-69.5684609362998
 30
0
 11
470.5522074978543
 21
-69.5684609362998
 31
0
  0
LINE
  8
1
 62
3
 10
467.5522074978543
 20
-70.0684609362998
 30
0
 11
470.5522074978543
 21
-70.0684609362998
 31
0
  0
LINE
  8
1
 62
3
 10
467.5522074978543
 20
-70.5684609362998
 30
0
 11
470.5522074978543
 21
-70.5684609362998
 31
0
  0
LINE
  8
1
 62
3
 10
467.5522074978543
 20
-71.0684609362998
 30
0
 11
470.5522074978543
 21
-71.0684609362998
 31
0
  0
LINE
  8
1
 62
3
 10
467.5522074978543
 20
-71.5684609362998
 30
0
 11
470.5522074978543
 21
-71.5684609362998
 31
0
  0
LINE
  8
1
 62
3
 10
467.5522074978543
 20
-72.0684609362998
 30
0
 11
470.5522074978543
 21
-72.0684609362998
 31
0
  0
LINE
  8
1
 62
3
 10
467.5522074978543
 20
-72.5684609362998
 30
0
 11
470.5522074978543
 21
-72.5684609362998
 31
0
  0
LINE
  8
1
 62
3
 10
467.5522074978543
 20
-73.0684609362998
 30
0
 11
470.5522074978543
 21
-73.0684609362998
 31
0
  0
LINE
  8
1
 62
3
 10
467.5522074978543
 20
-73.5684609362998
 30
0
 11
470.5522074978543
 21
-73.5684609362998
 31
0
  0
LINE
  8
1
 62
3
 10
467.5522074978543
 20
-74.0684609362998
 30
0
 11
470.5522074978543
 21
-74.0684609362998
 31
0
  0
LINE
  8
1
 62
3
 10
467.5522074978543
 20
-74.5684609362998
 30
0
 11
470.5522074978543
 21
-74.5684609362998
 31
0
  0
LINE
  8
1
 62
3
 10
467.5522074978543
 20
-75.0684609362998
 30
0
 11
470.5522074978543
 21
-75.0684609362998
 31
0
  0
LINE
  8
1
 62
3
 10
467.5522074978543
 20
-75.5684609362998
 30
0
 11
470.5522074978543
 21
-75.5684609362998
 31
0
  0
LINE
  8
1
 62
3
 10
467.5522074978543
 20
-76.0684609362998
 30
0
 11
470.5522074978543
 21
-76.0684609362998
 31
0
  0
LINE
  8
1
 62
3
 10
467.5522074978543
 20
-76.5684609362998
 30
0
 11
470.5522074978543
 21
-76.5684609362998
 31
0
  0
LINE
  8
1
 62
3
 10
467.5522074978543
 20
-77.0684609362998
 30
0
 11
470.5522074978543
 21
-77.0684609362998
 31
0
  0
LINE
  8
1
 62
3
 10
467.5522074978543
 20
-77.5684609362998
 30
0
 11
470.5522074978543
 21
-77.5684609362998
 31
0
  0
LINE
  8
1
 62
3
 10
467.5522074978543
 20
-78.0684609362998
 30
0
 11
470.5522074978543
 21
-78.0684609362998
 31
0
  0
LINE
  8
1
 62
3
 10
467.5522074978543
 20
-78.5684609362998
 30
0
 11
470.5522074978543
 21
-78.5684609362998
 31
0
  0
LINE
  8
1
 62
3
 10
467.5522074978543
 20
-79.0684609362998
 30
0
 11
470.5522074978543
 21
-79.0684609362998
 31
0
  0
LINE
  8
1
 62
3
 10
467.5522074978543
 20
-79.5684609362998
 30
0
 11
470.5522074978543
 21
-79.5684609362998
 31
0
  0
LINE
  8
1
 62
3
 10
467.5522074978543
 20
-80.0684609362998
 30
0
 11
470.5522074978543
 21
-80.0684609362998
 31
0
  0
LINE
  8
1
 62
3
 10
467.5522074978543
 20
-80.5684609362998
 30
0
 11
470.5522074978543
 21
-80.5684609362998
 31
0
  0
LINE
  8
1
 62
3
 10
467.5522074978543
 20
-81.0684609362998
 30
0
 11
470.5522074978543
 21
-81.0684609362998
 31
0
  0
LINE
  8
1
 62
3
 10
467.5522074978543
 20
-81.5684609362998
 30
0
 11
470.5522074978543
 21
-81.5684609362998
 31
0
  0
LINE
  8
1
 62
3
 10
467.5522074978543
 20
-82.0684609362998
 30
0
 11
470.5522074978543
 21
-82.0684609362998
 31
0
  0
LINE
  8
1
 62
3
 10
467.5522074978543
 20
-82.5684609362998
 30
0
 11
470.5522074978543
 21
-82.5684609362998
 31
0
  0
LINE
  8
1
 62
3
 10
467.5522074978543
 20
-83.0684609362998
 30
0
 11
470.5522074978543
 21
-83.0684609362998
 31
0
  0
LINE
  8
1
 62
3
 10
467.5522074978543
 20
-83.5684609362998
 30
0
 11
470.5522074978543
 21
-83.5684609362998
 31
0
  0
LINE
  8
1
 62
3
 10
467.5522074978543
 20
-84.0684609362998
 30
0
 11
470.5522074978543
 21
-84.0684609362998
 31
0
  0
LINE
  8
1
 62
3
 10
467.5522074978543
 20
-84.5684609362998
 30
0
 11
470.5522074978543
 21
-84.5684609362998
 31
0
  0
ENDBLK
  8
0
  0
BLOCK
  8
1
  2
*X1
 70
1
 10
0
 20
0
 30
0
  0
LINE
  8
1
 62
3
 10
467.5522074978543
 20
-86.0684609362998
 30
0
 11
470.5522074978543
 21
-86.0684609362998
 31
0
  0
LINE
  8
1
 62
3
 10
467.5522074978543
 20
-86.5684609362998
 30
0
 11
470.5522074978543
 21
-86.5684609362998
 31
0
  0
LINE
  8
1
 62
3
 10
467.5522074978543
 20
-87.0684609362998
 30
0
 11
470.5522074978543
 21
-87.0684609362998
 31
0
  0
LINE
  8
1
 62
3
 10
467.5522074978543
 20
-87.5684609362998
 30
0
 11
470.5522074978543
 21
-87.5684609362998
 31
0
  0
LINE
  8
1
 62
3
 10
467.5522074978543
 20
-88.0684609362998
 30
0
 11
470.5522074978543
 21
-88.0684609362998
 31
0
  0
LINE
  8
1
 62
3
 10
467.5522074978543
 20
-88.5684609362998
 30
0
 11
470.5522074978543
 21
-88.5684609362998
 31
0
  0
LINE
  8
1
 62
3
 10
467.5522074978543
 20
-89.0684609362998
 30
0
 11
470.5522074978543
 21
-89.0684609362998
 31
0
  0
LINE
  8
1
 62
3
 10
467.5522074978543
 20
-89.5684609362998
 30
0
 11
470.5522074978543
 21
-89.5684609362998
 31
0
  0
LINE
  8
1
 62
3
 10
467.5522074978543
 20
-90.0684609362998
 30
0
 11
470.5522074978543
 21
-90.0684609362998
 31
0
  0
LINE
  8
1
 62
3
 10
467.5522074978543
 20
-90.5684609362998
 30
0
 11
470.5522074978543
 21
-90.5684609362998
 31
0
  0
LINE
  8
1
 62
3
 10
467.5522074978543
 20
-91.0684609362998
 30
0
 11
470.5522074978543
 21
-91.0684609362998
 31
0
  0
LINE
  8
1
 62
3
 10
467.5522074978543
 20
-91.5684609362998
 30
0
 11
470.5522074978543
 21
-91.5684609362998
 31
0
  0
LINE
  8
1
 62
3
 10
467.5522074978543
 20
-92.0684609362998
 30
0
 11
470.5522074978543
 21
-92.0684609362998
 31
0
  0
LINE
  8
1
 62
3
 10
467.5522074978543
 20
-92.5684609362998
 30
0
 11
470.5522074978543
 21
-92.5684609362998
 31
0
  0
LINE
  8
1
 62
3
 10
467.5522074978543
 20
-93.0684609362998
 30
0
 11
470.5522074978543
 21
-93.0684609362998
 31
0
  0
LINE
  8
1
 62
3
 10
467.5522074978543
 20
-93.5684609362998
 30
0
 11
470.5522074978543
 21
-93.5684609362998
 31
0
  0
LINE
  8
1
 62
3
 10
467.5522074978543
 20
-94.0684609362998
 30
0
 11
470.5522074978543
 21
-94.0684609362998
 31
0
  0
LINE
  8
1
 62
3
 10
467.5522074978543
 20
-94.5684609362998
 30
0
 11
470.5522074978543
 21
-94.5684609362998
 31
0
  0
LINE
  8
1
 62
3
 10
467.5522074978543
 20
-95.0684609362998
 30
0
 11
470.5522074978543
 21
-95.0684609362998
 31
0
  0
LINE
  8
1
 62
3
 10
467.5522074978543
 20
-95.5684609362998
 30
0
 11
470.5522074978543
 21
-95.5684609362998
 31
0
  0
LINE
  8
1
 62
3
 10
467.5522074978543
 20
-96.0684609362998
 30
0
 11
470.5522074978543
 21
-96.0684609362998
 31
0
  0
LINE
  8
1
 62
3
 10
467.5522074978543
 20
-96.5684609362998
 30
0
 11
470.5522074978543
 21
-96.5684609362998
 31
0
  0
LINE
  8
1
 62
3
 10
467.5522074978543
 20
-97.0684609362998
 30
0
 11
470.5522074978543
 21
-97.0684609362998
 31
0
  0
LINE
  8
1
 62
3
 10
467.5522074978543
 20
-97.5684609362998
 30
0
 11
470.5522074978543
 21
-97.5684609362998
 31
0
  0
LINE
  8
1
 62
3
 10
467.5522074978543
 20
-98.0684609362998
 30
0
 11
470.5522074978543
 21
-98.0684609362998
 31
0
  0
LINE
  8
1
 62
3
 10
467.5522074978543
 20
-98.5684609362998
 30
0
 11
470.5522074978543
 21
-98.5684609362998
 31
0
  0
LINE
  8
1
 62
3
 10
467.5522074978543
 20
-99.0684609362998
 30
0
 11
470.5522074978543
 21
-99.0684609362998
 31
0
  0
LINE
  8
1
 62
3
 10
467.5522074978543
 20
-99.5684609362998
 30
0
 11
470.5522074978543
 21
-99.5684609362998
 31
0
  0
LINE
  8
1
 62
3
 10
467.5522074978543
 20
-100.0684609362998
 30
0
 11
470.5522074978543
 21
-100.0684609362998
 31
0
  0
LINE
  8
1
 62
3
 10
467.5522074978543
 20
-100.5684609362998
 30
0
 11
470.5522074978543
 21
-100.5684609362998
 31
0
  0
LINE
  8
1
 62
3
 10
467.5522074978543
 20
-101.0684609362998
 30
0
 11
470.5522074978543
 21
-101.0684609362998
 31
0
  0
LINE
  8
1
 62
3
 10
467.5522074978543
 20
-101.5684609362998
 30
0
 11
470.5522074978543
 21
-101.5684609362998
 31
0
  0
LINE
  8
1
 62
3
 10
467.5522074978543
 20
-102.0684609362998
 30
0
 11
470.5522074978543
 21
-102.0684609362998
 31
0
  0
LINE
  8
1
 62
3
 10
467.5522074978543
 20
-102.5684609362998
 30
0
 11
470.5522074978543
 21
-102.5684609362998
 31
0
  0
LINE
  8
1
 62
3
 10
467.5522074978543
 20
-103.0684609362998
 30
0
 11
470.5522074978543
 21
-103.0684609362998
 31
0
  0
LINE
  8
1
 62
3
 10
467.5522074978543
 20
-103.5684609362998
 30
0
 11
470.5522074978543
 21
-103.5684609362998
 31
0
  0
LINE
  8
1
 62
3
 10
467.5522074978543
 20
-104.0684609362998
 30
0
 11
470.5522074978543
 21
-104.0684609362998
 31
0
  0
LINE
  8
1
 62
3
 10
467.5522074978543
 20
-104.5684609362998
 30
0
 11
470.5522074978543
 21
-104.5684609362998
 31
0
  0
LINE
  8
1
 62
3
 10
467.5522074978543
 20
-105.0684609362998
 30
0
 11
470.5522074978543
 21
-105.0684609362998
 31
0
  0
LINE
  8
1
 62
3
 10
467.5522074978543
 20
-105.5684609362998
 30
0
 11
470.5522074978543
 21
-105.5684609362998
 31
0
  0
LINE
  8
1
 62
3
 10
467.5522074978543
 20
-106.0684609362998
 30
0
 11
470.5522074978543
 21
-106.0684609362998
 31
0
  0
LINE
  8
1
 62
3
 10
467.5522074978543
 20
-106.5684609362998
 30
0
 11
470.5522074978543
 21
-106.5684609362998
 31
0
  0
LINE
  8
1
 62
3
 10
467.5522074978543
 20
-107.0684609362998
 30
0
 11
470.5522074978543
 21
-107.0684609362998
 31
0
  0
LINE
  8
1
 62
3
 10
467.5522074978543
 20
-107.5684609362998
 30
0
 11
470.5522074978543
 21
-107.5684609362998
 31
0
  0
LINE
  8
1
 62
3
 10
467.5522074978543
 20
-108.0684609362998
 30
0
 11
470.5522074978543
 21
-108.0684609362998
 31
0
  0
LINE
  8
1
 62
3
 10
467.5522074978543
 20
-108.5684609362998
 30
0
 11
470.5522074978543
 21
-108.5684609362998
 31
0
  0
LINE
  8
1
 62
3
 10
467.5522074978543
 20
-109.0684609362998
 30
0
 11
470.5522074978543
 21
-109.0684609362998
 31
0
  0
LINE
  8
1
 62
3
 10
467.5522074978543
 20
-109.5684609362998
 30
0
 11
470.5522074978543
 21
-109.5684609362998
 31
0
  0
LINE
  8
1
 62
3
 10
467.5522074978543
 20
-110.0684609362998
 30
0
 11
470.5522074978543
 21
-110.0684609362998
 31
0
  0
LINE
  8
1
 62
3
 10
467.5522074978543
 20
-110.5684609362998
 30
0
 11
470.5522074978543
 21
-110.5684609362998
 31
0
  0
LINE
  8
1
 62
3
 10
467.5522074978543
 20
-111.0684609362998
 30
0
 11
470.5522074978543
 21
-111.0684609362998
 31
0
  0
LINE
  8
1
 62
3
 10
467.5522074978543
 20
-111.5684609362998
 30
0
 11
470.5522074978543
 21
-111.5684609362998
 31
0
  0
LINE
  8
1
 62
3
 10
467.5522074978543
 20
-112.0684609362998
 30
0
 11
470.5522074978543
 21
-112.0684609362998
 31
0
  0
LINE
  8
1
 62
3
 10
467.5522074978543
 20
-112.5684609362998
 30
0
 11
470.5522074978543
 21
-112.5684609362998
 31
0
  0
LINE
  8
1
 62
3
 10
467.5522074978543
 20
-113.0684609362998
 30
0
 11
470.5522074978543
 21
-113.0684609362998
 31
0
  0
LINE
  8
1
 62
3
 10
467.5522074978543
 20
-113.5684609362998
 30
0
 11
470.5522074978543
 21
-113.5684609362998
 31
0
  0
LINE
  8
1
 62
3
 10
467.5522074978543
 20
-114.0684609362998
 30
0
 11
470.5522074978543
 21
-114.0684609362998
 31
0
  0
LINE
  8
1
 62
3
 10
467.5522074978543
 20
-114.5684609362998
 30
0
 11
470.5522074978543
 21
-114.5684609362998
 31
0
  0
LINE
  8
1
 62
3
 10
467.5522074978543
 20
-115.0684609362998
 30
0
 11
470.5522074978543
 21
-115.0684609362998
 31
0
  0
LINE
  8
1
 62
3
 10
467.5522074978543
 20
-115.5684609362998
 30
0
 11
470.5522074978543
 21
-115.5684609362998
 31
0
  0
LINE
  8
1
 62
3
 10
467.5522074978543
 20
-116.0684609362998
 30
0
 11
470.5522074978543
 21
-116.0684609362998
 31
0
  0
LINE
  8
1
 62
3
 10
467.5522074978543
 20
-116.5684609362998
 30
0
 11
470.5522074978543
 21
-116.5684609362998
 31
0
  0
LINE
  8
1
 62
3
 10
467.5522074978543
 20
-117.0684609362998
 30
0
 11
470.5522074978543
 21
-117.0684609362998
 31
0
  0
LINE
  8
1
 62
3
 10
467.5522074978543
 20
-117.5684609362998
 30
0
 11
470.5522074978543
 21
-117.5684609362998
 31
0
  0
LINE
  8
1
 62
3
 10
467.5522074978543
 20
-118.0684609362998
 30
0
 11
470.5522074978543
 21
-118.0684609362998
 31
0
  0
LINE
  8
1
 62
3
 10
467.5522074978543
 20
-118.5684609362998
 30
0
 11
470.5522074978543
 21
-118.5684609362998
 31
0
  0
LINE
  8
1
 62
3
 10
467.5522074978543
 20
-119.0684609362998
 30
0
 11
470.5522074978543
 21
-119.0684609362998
 31
0
  0
LINE
  8
1
 62
3
 10
467.5522074978543
 20
-119.5684609362998
 30
0
 11
470.5522074978543
 21
-119.5684609362998
 31
0
  0
LINE
  8
1
 62
3
 10
467.5522074978543
 20
-120.0684609362998
 30
0
 11
470.5522074978543
 21
-120.0684609362998
 31
0
  0
ENDBLK
  8
0
  0
ENDSEC
  0
SECTION
  2
ENTITIES
  0
INSERT
  8
1
  2
*X0
 10
0
 20
0
 30
0
  0
INSERT
  8
1
  2
*X1
 10
0
 20
0
 30
0
  0
LINE
  8
1
 62
7
 10
479.3022074978545
 20
-50.1599550583727
 30
0
 11
504.5522074978545
 21
-50.15995505837265
 31
0
  0
LINE
  8
1
 62
7
 10
473.8022074978545
 20
-49.85995505837263
 30
0
 11
474.1486176593682
 21
-49.65995505837265
 31
0
  0
LINE
  8
1
 62
7
 10
473.8022074978545
 20
-49.85995505837263
 30
0
 11
479.3022074978545
 21
-49.85995505837263
 31
0
  0
LINE
  8
1
 62
7
 10
473.8022074978545
 20
-52.65995505837265
 30
0
 11
473.8022074978545
 21
-49.85995505837263
 31
0
  0
LINE
  8
1
 62
7
 10
479.3022074978545
 20
-49.85995505837263
 30
0
 11
479.3022074978545
 21
-52.65995505837265
 31
0
  0
LINE
  8
1
 62
7
 10
478.9557973363407
 20
-49.65995505837265
 30
0
 11
479.3022074978545
 21
-49.85995505837263
 31
0
  0
LINE
  8
1
 62
7
 10
474.1486176593682
 20
-49.65995505837265
 30
0
 11
478.9557973363407
 21
-49.65995505837265
 31
0
  0
LINE
  8
1
 62
3
  6
DASHED
 10
372.5022074978543
 20
-50.01738827676161
 30
0
 11
372.5022074978543
 21
-52.6599550583727
 31
0
  0
LINE
  8
1
 62
3
  6
DASHED
 10
372.5022074978543
 20
-52.6599550583727
 30
0
 11
367.0022074978543
 21
-52.6599550583727
 31
0
  0
LINE
  8
1
 62
3
  6
DASHED
 10
367.0022074978543
 20
-52.6599550583727
 30
0
 11
367.0022074978543
 21
-50.01738827676161
 31
0
  0
LINE
  8
1
 62
7
 10
367.0022074978543
 20
-50.01738827676161
 30
0
 11
367.0022074978543
 21
-49.85995505837275
 31
0
  0
LINE
  8
1
 62
7
 10
372.5022074978543
 20
-49.85995505837275
 30
0
 11
372.5022074978543
 21
-50.01738827676161
 31
0
  0
LINE
  8
1
 62
7
 10
367.0022074978543
 20
-49.85995505837275
 30
0
 11
372.5022074978543
 21
-49.85995505837275
 31
0
  0
LINE
  8
1
 62
7
 10
372.1557973363406
 20
-49.6599550583727
 30
0
 11
372.5022074978543
 21
-49.85995505837275
 31
0
  0
LINE
  8
1
 62
7
 10
367.3486176593681
 20
-49.6599550583727
 30
0
 11
372.1557973363406
 21
-49.6599550583727
 31
0
  0
LINE
  8
1
 62
7
 10
367.0022074978543
 20
-49.85995505837275
 30
0
 11
367.3486176593681
 21
-49.6599550583727
 31
0
  0
LINE
  8
1
 62
7
 10
367.0022074978543
 20
-120.4599550583726
 30
0
 11
367.0022074978543
 21
-120.3025218399837
 31
0
  0
LINE
  8
1
 62
7
 10
372.5022074978543
 20
-120.3025218399837
 30
0
 11
372.5022074978543
 21
-120.4599550583726
 31
0
  0
LINE
  8
1
 62
7
 10
372.5022074978543
 20
-120.4599550583726
 30
0
 11
367.0022074978543
 21
-120.4599550583726
 31
0
  0
LINE
  8
1
 62
7
 10
372.5022074978543
 20
-120.4599550583726
 30
0
 11
372.1557973363406
 21
-120.6599550583727
 31
0
  0
LINE
  8
1
 62
7
 10
372.1557973363406
 20
-120.6599550583727
 30
0
 11
367.3486176593681
 21
-120.6599550583727
 31
0
  0
LINE
  8
1
 62
7
 10
367.3486176593681
 20
-120.6599550583727
 30
0
 11
367.0022074978543
 21
-120.4599550583726
 31
0
  0
LINE
  8
1
 62
3
  6
DASHED
 10
367.0022074978543
 20
-117.6599550583727
 30
0
 11
372.5022074978543
 21
-117.6599550583727
 31
0
  0
LINE
  8
1
 62
3
  6
DASHED
 10
372.5022074978543
 20
-117.6599550583727
 30
0
 11
372.5022074978543
 21
-120.3025218399837
 31
0
  0
LINE
  8
1
 62
3
  6
DASHED
 10
367.0022074978543
 20
-120.3025218399837
 30
0
 11
367.0022074978543
 21
-117.6599550583727
 31
0
  0
LINE
  8
1
 62
7
 10
265.9022074978541
 20
-120.1599550583727
 30
0
 11
240.1522074978541
 21
-120.1599550583727
 31
0
  0
LINE
  8
1
 62
7
 10
271.4022074978541
 20
-120.4599550583726
 30
0
 11
271.0557973363402
 21
-120.6599550583727
 31
0
  0
LINE
  8
1
 62
7
 10
266.2486176593677
 20
-120.6599550583727
 30
0
 11
265.9022074978541
 21
-120.4599550583726
 31
0
  0
LINE
  8
1
 62
7
 10
271.4022074978541
 20
-117.6599550583727
 30
0
 11
271.4022074978541
 21
-120.4599550583726
 31
0
  0
LINE
  8
1
 62
7
 10
265.9022074978541
 20
-120.4599550583726
 30
0
 11
265.9022074978541
 21
-117.6599550583727
 31
0
  0
LINE
  8
1
 62
7
 10
271.4022074978541
 20
-120.4599550583726
 30
0
 11
265.9022074978541
 21
-120.4599550583726
 31
0
  0
LINE
  8
1
 62
7
 10
271.0557973363402
 20
-120.6599550583727
 30
0
 11
266.2486176593677
 21
-120.6599550583727
 31
0
  0
LINE
  8
1
 62
7
 10
271.4022074978541
 20
-50.15995505837265
 30
0
 11
274.0522074978543
 21
-50.15995505837265
 31
0
  0
LINE
  8
1
 62
7
 10
271.4022074978541
 20
-49.85995505837275
 30
0
 11
271.4022074978541
 21
-52.65995505837265
 31
0
  0
LINE
  8
1
 62
7
 10
271.0557973363402
 20
-49.65995505837265
 30
0
 11
271.4022074978541
 21
-49.85995505837275
 31
0
  0
LINE
  8
1
 62
7
 10
266.2486176593677
 20
-49.65995505837265
 30
0
 11
271.0557973363402
 21
-49.65995505837265
 31
0
  0
LINE
  8
1
 62
7
 10
265.9022074978541
 20
-49.85995505837275
 30
0
 11
271.4022074978541
 21
-49.85995505837275
 31
0
  0
LINE
  8
1
 62
7
 10
266.2486176593677
 20
-49.65995505837265
 30
0
 11
271.0557973363402
 21
-49.65995505837265
 31
0
  0
LINE
  8
1
 62
7
 10
265.9022074978541
 20
-49.85995505837275
 30
0
 11
266.2486176593677
 21
-49.65995505837265
 31
0
  0
LINE
  8
1
 62
7
 10
265.9022074978541
 20
-49.85995505837275
 30
0
 11
266.2486176593677
 21
-49.65995505837265
 31
0
  0
LINE
  8
1
 62
7
 10
265.9022074978541
 20
-49.85995505837275
 30
0
 11
271.4022074978541
 21
-49.85995505837275
 31
0
  0
LINE
  8
1
 62
7
 10
265.9022074978541
 20
-49.85995505837275
 30
0
 11
266.2486176593677
 21
-49.65995505837265
 31
0
  0
LINE
  8
1
 62
7
 10
265.9022074978541
 20
-49.85995505837275
 30
0
 11
266.2486176593677
 21
-49.65995505837265
 31
0
  0
LINE
  8
1
 62
7
 10
265.9022074978541
 20
-52.65995505837265
 30
0
 11
265.9022074978541
 21
-49.85995505837275
 31
0
  0
LINE
  8
1
 62
7
 10
265.9022074978541
 20
-52.65995505837265
 30
0
 11
265.9022074978541
 21
-49.85995505837275
 31
0
  0
LINE
  8
1
 62
3
  6
DASHDOT
 10
476.5522074978543
 20
-72.4246088458878
 30
0
 11
476.5522074978543
 21
-48.1599550583727
 31
0
  0
LINE
  8
1
 62
3
  6
DASHED
 10
342.5069472602305
 20
-98.86928744854254
 30
0
 11
340.7722146140268
 21
-99.87083580880022
 31
0
  0
LINE
  8
1
 62
3
  6
DASHED
 10
396.9974677354779
 20
-71.4506226682027
 30
0
 11
398.7322003816819
 21
-70.44907430794501
 31
0
  0
LINE
  8
1
 62
7
 10
501.5522074978545
 20
-50.15995505837265
 30
0
 11
501.5522074978543
 21
-120.1599550583727
 31
0
  0
LINE
  8
1
 62
7
 10
504.5522074978543
 20
-120.1599550583727
 30
0
 11
504.5522074978545
 21
-50.15995505837265
 31
0
  0
LINE
  8
1
 62
7
 10
470.6522074978543
 20
-120.1599550583727
 30
0
 11
504.5522074978543
 21
-120.1599550583727
 31
0
  0
LINE
  8
1
 62
7
 10
467.5522074978543
 20
-85.65995505837265
 30
0
 11
470.5522074978543
 21
-85.65995505837265
 31
0
  0
LINE
  8
1
 62
7
 10
467.5522074978543
 20
-84.65995505837265
 30
0
 11
470.5522074978543
 21
-84.65995505837265
 31
0
  0
LINE
  8
1
 62
3
  6
DASHDOT
 10
508.5522074978543
 20
-85.15995505837265
 30
0
 11
455.5522074978543
 21
-85.15995505837265
 31
0
  0
LINE
  8
1
 62
7
 10
474.6522074978543
 20
-115.6873505417742
 30
0
 11
471.6522074978543
 21
-115.6873505417742
 31
0
  0
LINE
  8
1
 62
7
 10
473.1522074978543
 20
-114.0350646195597
 30
0
 11
471.6522074978543
 21
-114.0350646195597
 31
0
  0
LINE
  8
1
 62
7
 10
474.6522074978543
 20
-112.1630216783166
 30
0
 11
471.6522074978543
 21
-112.1630216783166
 31
0
  0
LINE
  8
1
 62
7
 10
473.1522074978543
 20
-110.0854690951985
 30
0
 11
471.6522074978543
 21
-110.0854690951985
 31
0
  0
LINE
  8
1
 62
7
 10
474.6522074978543
 20
-107.8182182998231
 30
0
 11
471.6522074978543
 21
-107.8182182998231
 31
0
  0
LINE
  8
1
 62
7
 10
473.1522074978543
 20
-105.378524439747
 30
0
 11
471.6522074978543
 21
-105.378524439747
 31
0
  0
LINE
  8
1
 62
7
 10
474.6522074978543
 20
-102.7849550583727
 30
0
 11
471.6522074978543
 21
-102.7849550583727
 31
0
  0
LINE
  8
1
 62
7
 10
473.1522074978543
 20
-100.0572487847323
 30
0
 11
471.6522074978543
 21
-100.0572487847323
 31
0
  0
LINE
  8
1
 62
7
 10
474.6522074978543
 20
-97.21616511060245
 30
0
 11
471.6522074978543
 21
-97.21616511060245
 31
0
  0
LINE
  8
1
 62
7
 10
473.1522074978543
 20
-94.28332639823651
 30
0
 11
471.6522074978543
 21
-94.28332639823651
 31
0
  0
LINE
  8
1
 62
7
 10
474.6522074978543
 20
-91.28105332113194
 30
0
 11
471.6522074978543
 21
-91.28105332113194
 31
0
  0
LINE
  8
1
 62
7
 10
473.1522074978543
 20
-88.23219499022764
 30
0
 11
471.6522074978543
 21
-88.23219499022764
 31
0
  0
LINE
  8
1
 62
7
 10
474.6522074978543
 20
-85.15995505837265
 30
0
 11
471.6522074978543
 21
-85.15995505837265
 31
0
  0
LINE
  8
1
 62
7
 10
471.6522074978543
 20
-80.15995505837265
 30
0
 11
478.6522074978543
 21
-80.15995505837265
 31
0
  0
LINE
  8
1
 62
7
 10
471.6522074978543
 20
-117.6426080149996
 30
0
 11
471.6522074978543
 21
-80.15995505837265
 31
0
  0
LINE
  8
1
 62
7
 10
478.6522074978543
 20
-117.6426080149996
 30
0
 11
471.6522074978543
 21
-117.6426080149996
 31
0
  0
LINE
  8
1
 62
7
 10
478.6522074978543
 20
-80.15995505837265
 30
0
 11
478.6522074978543
 21
-117.6426080149996
 31
0
  0
LINE
  8
1
 62
7
 10
467.5522074978543
 20
-77.65995505837265
 30
0
 11
467.5522074978543
 21
-92.65995505837265
 31
0
  0
LINE
  8
1
 62
7
 10
465.0522074978543
 20
-76.05995505837262
 30
0
 11
465.0522074978543
 21
-77.65995505837265
 31
0
  0
LINE
  8
1
 62
7
 10
467.5522074978543
 20
-92.65995505837265
 30
0
 11
459.5522074978543
 21
-92.65995505837265
 31
0
  0
LINE
  8
1
 62
3
 10
464.4522074978542
 20
-77.65995505837265
 30
0
 11
464.4522074978542
 21
-75.75995505837261
 31
0
  0
LINE
  8
1
 62
3
 10
462.6522074978543
 20
-77.65995505837265
 30
0
 11
462.6522074978542
 21
-75.75995505837261
 31
0
  0
LINE
  8
1
 62
7
 10
462.0522074978543
 20
-77.65995505837265
 30
0
 11
462.0522074978543
 21
-76.05995505837262
 31
0
  0
LINE
  8
1
 62
7
 10
462.5718227401249
 20
-75.75995505837261
 30
0
 11
464.5325922555836
 21
-75.75995505837261
 31
0
  0
LINE
  8
1
 62
7
 10
464.5325922555836
 20
-75.75995505837261
 30
0
 11
465.0522074978543
 21
-76.05995505837262
 31
0
  0
LINE
  8
1
 62
7
 10
465.0522074978543
 20
-76.05995505837262
 30
0
 11
462.0522074978543
 21
-76.05995505837262
 31
0
  0
LINE
  8
1
 62
7
 10
462.0522074978543
 20
-76.05995505837262
 30
0
 11
462.5718227401249
 21
-75.75995505837261
 31
0
  0
LINE
  8
1
 62
7
 10
470.5522074978543
 20
-49.90995505837265
 30
0
 11
470.5522074978543
 21
-120.4099550583727
 31
0
  0
LINE
  8
1
 62
7
 10
467.5522074978543
 20
-49.90995505837265
 30
0
 11
470.5522074978543
 21
-49.90995505837265
 31
0
  0
LINE
  8
1
 62
7
 10
470.5522074978543
 20
-120.4099550583727
 30
0
 11
467.5522074978543
 21
-120.4099550583727
 31
0
  0
LINE
  8
1
 62
7
 10
467.5522074978543
 20
-120.4099550583727
 30
0
 11
467.5522074978543
 21
-92.65995505837265
 31
0
  0
LINE
  8
1
 62
7
 10
459.5522074978543
 20
-92.65995505837265
 30
0
 11
459.5522074978543
 21
-77.65995505837265
 31
0
  0
LINE
  8
1
 62
7
 10
459.5522074978543
 20
-77.65995505837265
 30
0
 11
467.5522074978543
 21
-77.65995505837265
 31
0
  0
LINE
  8
1
 62
7
 10
467.5522074978543
 20
-77.65995505837265
 30
0
 11
467.5522074978543
 21
-49.90995505837265
 31
0
  0
LINE
  8
1
 62
7
 10
470.6522074978543
 20
-120.1599550583727
 30
0
 11
470.6522074978543
 21
-50.1599550583727
 31
0
  0
LINE
  8
1
 62
7
 10
470.6522074978543
 20
-50.1599550583727
 30
0
 11
473.8022074978545
 21
-50.1599550583727
 31
0
  0
LINE
  8
1
 62
3
 10
267.7522074978541
 20
-106.6207245738314
 30
0
 11
267.1522074978541
 21
-107.6599550583727
 31
0
  0
LINE
  8
1
 62
3
 10
269.5522074978543
 20
-106.6207245738314
 30
0
 11
270.1522074978541
 21
-107.6599550583727
 31
0
  0
LINE
  8
1
 62
3
 10
267.1522074978541
 20
-107.6599550583727
 30
0
 11
270.1522074978541
 21
-107.6599550583727
 31
0
  0
LINE
  8
1
 62
7
 10
267.7522074978541
 20
-105.8599550583726
 30
0
 11
268.6522074978541
 21
-104.9939296545882
 31
0
  0
LINE
  8
1
 62
7
 10
268.6522074978541
 20
-104.9939296545882
 30
0
 11
269.5522074978543
 21
-105.8599550583726
 31
0
  0
LINE
  8
1
 62
7
 10
267.7522074978541
 20
-105.8599550583726
 30
0
 11
269.5522074978543
 21
-105.8599550583726
 31
0
  0
LINE
  8
1
 62
3
 10
267.7522074978541
 20
-106.6207245738314
 30
0
 11
267.1522074978541
 21
-107.6599550583727
 31
0
  0
LINE
  8
1
 62
7
 10
269.5522074978543
 20
-105.8599550583726
 30
0
 11
269.5522074978543
 21
-109.6599550583727
 31
0
  0
LINE
  8
1
 62
7
 10
267.7522074978541
 20
-109.6599550583727
 30
0
 11
267.7522074978541
 21
-105.8599550583726
 31
0
  0
LINE
  8
1
 62
3
 10
267.1522074978541
 20
-110.2599550583726
 30
0
 11
267.1522074978541
 21
-107.6599550583727
 31
0
  0
LINE
  8
1
 62
3
 10
270.1522074978541
 20
-107.6599550583727
 30
0
 11
270.1522074978541
 21
-110.2599550583726
 31
0
  0
LINE
  8
1
 62
3
  6
DASHDOT
 10
268.6522074978541
 20
-102.9939296545882
 30
0
 11
268.6522074978541
 21
-122.1599550583727
 31
0
  0
LINE
  8
1
 62
3
  6
DASHDOT
 10
268.6522074978541
 20
-48.15995505837265
 30
0
 11
268.6522074978541
 21
-67.32598046215702
 31
0
  0
LINE
  8
1
 62
3
 10
267.1522074978541
 20
-62.65995505837265
 30
0
 11
267.7522074978541
 21
-63.69918554291394
 31
0
  0
LINE
  8
1
 62
3
 10
270.1522074978541
 20
-62.65995505837265
 30
0
 11
269.5522074978543
 21
-63.69918554291394
 31
0
  0
LINE
  8
1
 62
3
 10
270.1522074978541
 20
-62.65995505837265
 30
0
 11
267.1522074978541
 21
-62.65995505837265
 31
0
  0
LINE
  8
1
 62
7
 10
268.6522074978541
 20
-65.32598046215702
 30
0
 11
267.7522074978541
 21
-64.4599550583726
 31
0
  0
LINE
  8
1
 62
7
 10
269.5522074978543
 20
-64.4599550583726
 30
0
 11
268.6522074978541
 21
-65.32598046215702
 31
0
  0
LINE
  8
1
 62
7
 10
269.5522074978543
 20
-64.4599550583726
 30
0
 11
267.7522074978541
 21
-64.4599550583726
 31
0
  0
LINE
  8
1
 62
3
 10
267.1522074978541
 20
-62.65995505837265
 30
0
 11
267.7522074978541
 21
-63.69918554291394
 31
0
  0
LINE
  8
1
 62
3
 10
270.1522074978541
 20
-60.05995505837262
 30
0
 11
270.1522074978541
 21
-62.65995505837265
 31
0
  0
LINE
  8
1
 62
7
 10
269.5522074978543
 20
-60.65995505837265
 30
0
 11
269.5522074978543
 21
-64.4599550583726
 31
0
  0
LINE
  8
1
 62
7
 10
267.7522074978541
 20
-64.4599550583726
 30
0
 11
267.7522074978541
 21
-60.65995505837265
 31
0
  0
LINE
  8
1
 62
3
 10
267.1522074978541
 20
-62.65995505837265
 30
0
 11
267.1522074978541
 21
-60.05995505837262
 31
0
  0
LINE
  8
1
 62
3
 10
250.1522074978541
 20
-60.05995505837262
 30
0
 11
250.1522074978541
 21
-62.65995505837265
 31
0
  0
LINE
  8
1
 62
7
 10
249.5522074978543
 20
-60.65995505837265
 30
0
 11
249.5522074978543
 21
-64.4599550583726
 31
0
  0
LINE
  8
1
 62
3
  6
DASHDOT
 10
248.6522074978541
 20
-48.15995505837265
 30
0
 11
248.6522074978541
 21
-67.32598046215702
 31
0
  0
LINE
  8
1
 62
3
 10
247.1522074978541
 20
-62.65995505837265
 30
0
 11
247.7522074978541
 21
-63.69918554291394
 31
0
  0
LINE
  8
1
 62
3
 10
250.1522074978541
 20
-62.65995505837265
 30
0
 11
249.5522074978543
 21
-63.69918554291394
 31
0
  0
LINE
  8
1
 62
3
 10
247.1522074978541
 20
-62.65995505837265
 30
0
 11
247.1522074978541
 21
-60.05995505837262
 31
0
  0
LINE
  8
1
 62
3
 10
250.1522074978541
 20
-62.65995505837265
 30
0
 11
247.1522074978541
 21
-62.65995505837265
 31
0
  0
LINE
  8
1
 62
7
 10
248.6522074978541
 20
-65.32598046215702
 30
0
 11
247.7522074978541
 21
-64.4599550583726
 31
0
  0
LINE
  8
1
 62
7
 10
249.5522074978543
 20
-64.4599550583726
 30
0
 11
248.6522074978541
 21
-65.32598046215702
 31
0
  0
LINE
  8
1
 62
7
 10
247.7522074978541
 20
-64.4599550583726
 30
0
 11
247.7522074978541
 21
-60.65995505837265
 31
0
  0
LINE
  8
1
 62
7
 10
249.5522074978543
 20
-64.4599550583726
 30
0
 11
247.7522074978541
 21
-64.4599550583726
 31
0
  0
LINE
  8
1
 62
3
 10
247.1522074978541
 20
-62.65995505837265
 30
0
 11
247.7522074978541
 21
-63.69918554291394
 31
0
  0
LINE
  8
1
 62
7
 10
250.4022074978541
 20
-52.65995505837265
 30
0
 11
250.4022074978541
 21
-54.65995505837265
 31
0
  0
LINE
  8
1
 62
7
 10
246.9022074978541
 20
-52.65995505837265
 30
0
 11
246.9022074978541
 21
-54.65995505837265
 31
0
  0
LINE
  8
1
 62
3
 10
250.1522074978541
 20
-54.19918554291394
 30
0
 11
247.1522074978541
 21
-54.19918554291394
 31
0
  0
LINE
  8
1
 62
3
 10
247.7522074978541
 20
-54.19918554291394
 30
0
 11
247.1522074978541
 21
-53.15995505837265
 31
0
  0
LINE
  8
1
 62
3
 10
247.7522074978541
 20
-60.65995505837265
 30
0
 11
247.7522074978541
 21
-54.19918554291394
 31
0
  0
LINE
  8
1
 62
3
 10
249.5522074978543
 20
-54.19918554291394
 30
0
 11
250.1522074978541
 21
-53.15995505837265
 31
0
  0
LINE
  8
1
 62
3
 10
249.5522074978543
 20
-60.65995505837265
 30
0
 11
249.5522074978543
 21
-54.19918554291394
 31
0
  0
LINE
  8
1
 62
7
 10
250.1522074978541
 20
-60.05995505837262
 30
0
 11
247.1522074978541
 21
-60.05995505837262
 31
0
  0
LINE
  8
1
 62
7
 10
247.1522074978541
 20
-60.05995505837262
 30
0
 11
247.1522074978541
 21
-52.65995505837265
 31
0
  0
LINE
  8
1
 62
7
 10
247.7522074978541
 20
-60.65995505837265
 30
0
 11
247.1522074978541
 21
-60.05995505837262
 31
0
  0
LINE
  8
1
 62
7
 10
249.5522074978543
 20
-60.65995505837265
 30
0
 11
247.7522074978541
 21
-60.65995505837265
 31
0
  0
LINE
  8
1
 62
7
 10
250.1522074978541
 20
-60.05995505837262
 30
0
 11
249.5522074978543
 21
-60.65995505837265
 31
0
  0
LINE
  8
1
 62
7
 10
250.1522074978541
 20
-52.65995505837265
 30
0
 11
250.1522074978541
 21
-60.05995505837262
 31
0
  0
LINE
  8
1
 62
7
 10
250.1522074978541
 20
-50.50995505837261
 30
0
 11
247.1522074978541
 21
-50.50995505837261
 31
0
  0
LINE
  8
1
 62
7
 10
245.9022074978541
 20
-52.65995505837265
 30
0
 11
251.4022074978541
 21
-52.65995505837265
 31
0
  0
LINE
  8
1
 62
7
 10
245.9022074978541
 20
-52.25995505837261
 30
0
 11
245.9022074978541
 21
-52.65995505837265
 31
0
  0
LINE
  8
1
 62
7
 10
251.4022074978541
 20
-52.25995505837261
 30
0
 11
245.9022074978541
 21
-52.25995505837261
 31
0
  0
LINE
  8
1
 62
7
 10
251.4022074978541
 20
-52.65995505837265
 30
0
 11
251.4022074978541
 21
-52.25995505837261
 31
0
  0
LINE
  8
1
 62
7
 10
251.9022074978541
 20
-52.65995505837265
 30
0
 11
251.9022074978541
 21
-50.15995505837265
 31
0
  0
LINE
  8
1
 62
7
 10
245.4022074978541
 20
-52.65995505837265
 30
0
 11
251.9022074978541
 21
-52.65995505837265
 31
0
  0
LINE
  8
1
 62
7
 10
245.4022074978541
 20
-50.15995505837265
 30
0
 11
245.4022074978541
 21
-52.65995505837265
 31
0
  0
LINE
  8
1
 62
3
 10
282.6522074978543
 20
-79.15995505837265
 30
0
 11
282.6522074978543
 21
-79.75995505837261
 31
0
  0
LINE
  8
1
 62
3
 10
279.6522074978543
 20
-79.15995505837265
 30
0
 11
279.6522074978543
 21
-79.75995505837261
 31
0
  0
LINE
  8
1
 62
7
 10
282.6522074978543
 20
-77.65995505837265
 30
0
 11
285.1522074978541
 21
-77.65995505837265
 31
0
  0
LINE
  8
1
 62
3
 10
280.2522074978542
 20
-75.75995505837261
 30
0
 11
280.2522074978542
 21
-79.75995505837261
 31
0
  0
LINE
  8
1
 62
3
 10
282.0522074978543
 20
-75.75995505837261
 30
0
 11
282.0522074978543
 21
-79.75995505837261
 31
0
  0
LINE
  8
1
 62
7
 10
282.6522074978543
 20
-79.15995505837265
 30
0
 11
279.6522074978543
 21
-79.15995505837265
 31
0
  0
LINE
  8
1
 62
7
 10
279.6522074978543
 20
-79.15995505837265
 30
0
 11
279.6522074978543
 21
-76.05995505837262
 31
0
  0
LINE
  8
1
 62
7
 10
280.2522074978542
 20
-79.75995505837261
 30
0
 11
279.6522074978543
 21
-79.15995505837265
 31
0
  0
LINE
  8
1
 62
7
 10
282.0522074978543
 20
-79.75995505837261
 30
0
 11
280.2522074978542
 21
-79.75995505837261
 31
0
  0
LINE
  8
1
 62
7
 10
282.6522074978543
 20
-79.15995505837265
 30
0
 11
282.0522074978543
 21
-79.75995505837261
 31
0
  0
LINE
  8
1
 62
7
 10
282.6522074978543
 20
-76.05995505837262
 30
0
 11
282.6522074978543
 21
-79.15995505837265
 31
0
  0
LINE
  8
1
 62
7
 10
280.171822740125
 20
-75.75995505837261
 30
0
 11
282.1325922555836
 21
-75.75995505837261
 31
0
  0
LINE
  8
1
 62
7
 10
279.6522074978543
 20
-76.05995505837262
 30
0
 11
280.171822740125
 21
-75.75995505837261
 31
0
  0
LINE
  8
1
 62
7
 10
282.6522074978543
 20
-76.05995505837262
 30
0
 11
279.6522074978543
 21
-76.05995505837262
 31
0
  0
LINE
  8
1
 62
7
 10
282.1325922555836
 20
-75.75995505837261
 30
0
 11
282.6522074978543
 21
-76.05995505837262
 31
0
  0
LINE
  8
1
 62
3
  6
DASHDOT
 10
281.1522074978543
 20
-74.87924848478895
 30
0
 11
281.1522074978543
 21
-80.89970219431251
 31
0
  0
LINE
  8
1
 62
7
 10
251.4522074978542
 20
-99.65995505837265
 30
0
 11
255.4522074978542
 21
-99.65995505837265
 31
0
  0
LINE
  8
1
 62
7
 10
255.4522074978542
 20
-98.15995505837265
 30
0
 11
255.4522074978542
 21
-114.6599550583727
 31
0
  0
LINE
  8
1
 62
7
 10
255.4522074978542
 20
-114.6599550583727
 30
0
 11
251.4522074978542
 21
-114.6599550583727
 31
0
  0
LINE
  8
1
 62
7
 10
261.8522074978541
 20
-114.6599550583727
 30
0
 11
265.8522074978541
 21
-114.6599550583727
 31
0
  0
LINE
  8
1
 62
7
 10
261.8522074978541
 20
-98.15995505837265
 30
0
 11
261.8522074978541
 21
-114.6599550583727
 31
0
  0
LINE
  8
1
 62
7
 10
265.8522074978541
 20
-99.65995505837265
 30
0
 11
261.8522074978541
 21
-99.65995505837265
 31
0
  0
LINE
  8
1
 62
7
 10
261.8522074978541
 20
-70.65995505837265
 30
0
 11
265.8522074978541
 21
-70.65995505837265
 31
0
  0
LINE
  8
1
 62
7
 10
261.8522074978541
 20
-55.65995505837265
 30
0
 11
261.8522074978541
 21
-72.15995505837265
 31
0
  0
LINE
  8
1
 62
7
 10
265.8522074978541
 20
-55.65995505837265
 30
0
 11
261.8522074978541
 21
-55.65995505837265
 31
0
  0
LINE
  8
1
 62
7
 10
255.4522074978542
 20
-70.65995505837265
 30
0
 11
251.4522074978542
 21
-70.65995505837265
 31
0
  0
LINE
  8
1
 62
7
 10
255.4522074978542
 20
-55.65995505837265
 30
0
 11
255.4522074978542
 21
-72.15995505837265
 31
0
  0
LINE
  8
1
 62
7
 10
251.4522074978542
 20
-55.65995505837265
 30
0
 11
255.4522074978542
 21
-55.65995505837265
 31
0
  0
LINE
  8
1
 62
7
 10
277.1522074978541
 20
-99.15995505837265
 30
0
 11
275.3522074978541
 21
-99.15995505837265
 31
0
  0
LINE
  8
1
 62
7
 10
265.8522074978541
 20
-71.15995505837265
 30
0
 11
274.0022074978541
 21
-71.15995505837265
 31
0
  0
LINE
  8
1
 62
7
 10
275.3522074978541
 20
-70.4599550583726
 30
0
 11
275.3522074978541
 21
-77.65995505837265
 31
0
  0
LINE
  8
1
 62
7
 10
275.3522074978541
 20
-99.85995505837263
 30
0
 11
274.0022074978541
 21
-99.85995505837263
 31
0
  0
LINE
  8
1
 62
7
 10
274.0022074978541
 20
-99.85995505837263
 30
0
 11
274.0022074978541
 21
-99.15995505837265
 31
0
  0
LINE
  8
1
 62
7
 10
274.0022074978541
 20
-70.4599550583726
 30
0
 11
275.3522074978541
 21
-70.4599550583726
 31
0
  0
LINE
  8
1
 62
7
 10
274.0022074978541
 20
-99.15995505837265
 30
0
 11
265.8522074978541
 21
-99.15995505837265
 31
0
  0
LINE
  8
1
 62
7
 10
274.1522074978541
 20
-115.6599550583727
 30
0
 11
270.1522074978541
 21
-115.6599550583727
 31
0
  0
LINE
  8
1
 62
7
 10
274.1522074978541
 20
-120.4099550583727
 30
0
 11
274.1522074978541
 21
-115.6599550583727
 31
0
  0
LINE
  8
1
 62
7
 10
277.1522074978541
 20
-120.4099550583727
 30
0
 11
274.1522074978541
 21
-120.4099550583727
 31
0
  0
LINE
  8
1
 62
7
 10
275.3522074978541
 20
-71.15995505837265
 30
0
 11
277.1522074978541
 21
-71.15995505837265
 31
0
  0
LINE
  8
1
 62
7
 10
274.1522074978543
 20
-54.65995505837265
 30
0
 11
274.1522074978541
 21
-49.90995505837265
 31
0
  0
LINE
  8
1
 62
7
 10
274.1522074978541
 20
-49.90995505837265
 30
0
 11
277.1522074978543
 21
-49.90995505837265
 31
0
  0
LINE
  8
1
 62
7
 10
277.1522074978543
 20
-49.90995505837265
 30
0
 11
277.1522074978541
 21
-77.65995505837265
 31
0
  0
LINE
  8
1
 62
3
  6
DASHDOT
 10
236.1522074978541
 20
-85.15995505837265
 30
0
 11
289.1522074978543
 21
-85.15995505837265
 31
0
  0
LINE
  8
1
 62
7
 10
241.9522074978542
 20
-99.15995505837265
 30
0
 11
240.1522074978541
 21
-99.15995505837265
 31
0
  0
LINE
  8
1
 62
7
 10
243.3022074978543
 20
-71.15995505837265
 30
0
 11
251.4522074978542
 21
-71.15995505837265
 31
0
  0
LINE
  8
1
 62
7
 10
241.9522074978542
 20
-99.85995505837263
 30
0
 11
241.9522074978542
 21
-70.4599550583726
 31
0
  0
LINE
  8
1
 62
7
 10
243.3022074978543
 20
-99.85995505837263
 30
0
 11
241.9522074978542
 21
-99.85995505837263
 31
0
  0
LINE
  8
1
 62
7
 10
243.3022074978543
 20
-70.4599550583726
 30
0
 11
243.3022074978543
 21
-71.15995505837265
 31
0
  0
LINE
  8
1
 62
7
 10
241.9522074978542
 20
-70.4599550583726
 30
0
 11
243.3022074978543
 21
-70.4599550583726
 31
0
  0
LINE
  8
1
 62
7
 10
251.4522074978542
 20
-99.15995505837265
 30
0
 11
243.3022074978543
 21
-99.15995505837265
 31
0
  0
LINE
  8
1
 62
7
 10
267.1522074978541
 20
-115.6599550583727
 30
0
 11
243.1522074978541
 21
-115.6599550583727
 31
0
  0
LINE
  8
1
 62
7
 10
243.1522074978541
 20
-115.6599550583727
 30
0
 11
243.1522074978541
 21
-120.1599550583727
 31
0
  0
LINE
  8
1
 62
7
 10
240.1522074978541
 20
-71.15995505837265
 30
0
 11
241.9522074978542
 21
-71.15995505837265
 31
0
  0
LINE
  8
1
 62
7
 10
243.1522074978541
 20
-54.65995505837265
 30
0
 11
247.1522074978541
 21
-54.65995505837265
 31
0
  0
LINE
  8
1
 62
7
 10
243.1522074978541
 20
-50.15995505837265
 30
0
 11
243.1522074978541
 21
-54.65995505837265
 31
0
  0
LINE
  8
1
 62
7
 10
240.1522074978541
 20
-50.15995505837265
 30
0
 11
265.9022074978541
 21
-50.15995505837265
 31
0
  0
LINE
  8
1
 62
7
 10
240.1522074978541
 20
-120.1599550583727
 30
0
 11
240.1522074978541
 21
-50.15995505837265
 31
0
  0
LINE
  8
1
 62
7
 10
241.9522074978542
 20
-70.4599550583726
 30
0
 11
241.9522074978542
 21
-99.85995505837263
 31
0
  0
LINE
  8
1
 62
7
 10
241.9522074978542
 20
-70.4599550583726
 30
0
 11
241.9522074978542
 21
-99.85995505837263
 31
0
  0
LINE
  8
1
 62
7
 10
243.1522074978541
 20
-70.4599550583726
 30
0
 11
243.1522074978541
 21
-77.65995505837265
 31
0
  0
LINE
  8
1
 62
7
 10
241.9522074978542
 20
-73.4599550583726
 30
0
 11
243.1522074978541
 21
-73.4599550583726
 31
0
  0
LINE
  8
1
 62
7
 10
243.1522074978541
 20
-96.85995505837263
 30
0
 11
241.9522074978542
 21
-96.85995505837263
 31
0
  0
LINE
  8
1
 62
7
 10
243.3022074978543
 20
-99.15995505837265
 30
0
 11
243.3022074978543
 21
-99.85995505837263
 31
0
  0
LINE
  8
1
 62
7
 10
249.3722074978541
 20
-71.15995505837265
 30
0
 11
243.9322074978543
 21
-71.15995505837265
 31
0
  0
LINE
  8
1
 62
7
 10
243.9322074978543
 20
-77.65995505837265
 30
0
 11
249.3722074978541
 21
-77.65995505837265
 31
0
  0
LINE
  8
1
 62
7
 10
250.1522074978541
 20
-76.87995505837262
 30
0
 11
250.1522074978541
 21
-71.93995505837262
 31
0
  0
LINE
  8
1
 62
7
 10
245.6772074978543
 20
-76.09870459575234
 30
0
 11
243.1522074978541
 21
-76.09870459575234
 31
0
  0
LINE
  8
1
 62
7
 10
247.6272074978541
 20
-76.09870459575234
 30
0
 11
250.1522074978541
 21
-76.09870459575234
 31
0
  0
LINE
  8
1
 62
7
 10
247.6272074978541
 20
-72.72120552099295
 30
0
 11
250.1522074978541
 21
-72.72120552099295
 31
0
  0
LINE
  8
1
 62
7
 10
245.6772074978543
 20
-72.72120552099295
 30
0
 11
243.1522074978541
 21
-72.72120552099295
 31
0
  0
LINE
  8
1
 62
7
 10
250.1522074978541
 20
-71.15995505837265
 30
0
 11
249.3722074978541
 21
-71.15995505837265
 31
0
  0
LINE
  8
1
 62
7
 10
250.1522074978541
 20
-71.93995505837262
 30
0
 11
250.1522074978541
 21
-71.15995505837265
 31
0
  0
LINE
  8
1
 62
7
 10
243.1522074978541
 20
-77.65995505837265
 30
0
 11
243.9322074978543
 21
-77.65995505837265
 31
0
  0
LINE
  8
1
 62
7
 10
250.1522074978543
 20
-77.65995505837265
 30
0
 11
250.1522074978541
 21
-76.87995505837262
 31
0
  0
LINE
  8
1
 62
7
 10
249.3722074978541
 20
-77.65995505837265
 30
0
 11
250.1522074978543
 21
-77.65995505837265
 31
0
  0
LINE
  8
1
 62
7
 10
243.9322074978543
 20
-71.15995505837265
 30
0
 11
243.1522074978541
 21
-71.15995505837265
 31
0
  0
LINE
  8
1
 62
7
 10
243.8522074978541
 20
-72.4599550583726
 30
0
 11
243.8522074978541
 21
-76.35995505837263
 31
0
  0
LINE
  8
1
 62
7
 10
249.4522074978542
 20
-72.4599550583726
 30
0
 11
249.4522074978542
 21
-76.35995505837263
 31
0
  0
LINE
  8
1
 62
3
 10
248.7972074978543
 20
-74.40995505837265
 30
0
 11
244.5072074978541
 21
-74.40995505837265
 31
0
  0
LINE
  8
1
 62
3
 10
246.6522074978541
 20
-76.55495505837263
 30
0
 11
246.6522074978541
 21
-72.26495505837261
 31
0
  0
LINE
  8
1
 62
7
 10
243.9322074978543
 20
-99.15995505837265
 30
0
 11
249.3722074978541
 21
-99.15995505837265
 31
0
  0
LINE
  8
1
 62
7
 10
250.1522074978541
 20
-99.15995505837265
 30
0
 11
250.1522074978541
 21
-92.65995505837265
 31
0
  0
LINE
  8
1
 62
7
 10
249.3722074978541
 20
-92.65995505837265
 30
0
 11
243.9322074978543
 21
-92.65995505837265
 31
0
  0
LINE
  8
1
 62
7
 10
243.1522074978541
 20
-93.43995505837262
 30
0
 11
243.1522074978541
 21
-98.37995505837262
 31
0
  0
LINE
  8
1
 62
7
 10
247.6272074978541
 20
-94.22120552099295
 30
0
 11
250.1522074978541
 21
-94.22120552099295
 31
0
  0
LINE
  8
1
 62
7
 10
245.6772074978543
 20
-94.22120552099295
 30
0
 11
243.1522074978541
 21
-94.22120552099295
 31
0
  0
LINE
  8
1
 62
7
 10
245.6772074978543
 20
-97.59870459575234
 30
0
 11
243.1522074978541
 21
-97.59870459575234
 31
0
  0
LINE
  8
1
 62
7
 10
247.6272074978541
 20
-97.59870459575234
 30
0
 11
250.1522074978541
 21
-97.59870459575234
 31
0
  0
LINE
  8
1
 62
7
 10
243.1522074978541
 20
-99.15995505837265
 30
0
 11
243.9322074978543
 21
-99.15995505837265
 31
0
  0
LINE
  8
1
 62
7
 10
243.1522074978541
 20
-98.37995505837262
 30
0
 11
243.1522074978541
 21
-99.15995505837265
 31
0
  0
LINE
  8
1
 62
7
 10
250.1522074978541
 20
-92.65995505837265
 30
0
 11
249.3722074978541
 21
-92.65995505837265
 31
0
  0
LINE
  8
1
 62
7
 10
243.1522074978541
 20
-92.65995505837265
 30
0
 11
243.1522074978541
 21
-93.43995505837262
 31
0
  0
LINE
  8
1
 62
7
 10
243.9322074978543
 20
-92.65995505837265
 30
0
 11
243.1522074978541
 21
-92.65995505837265
 31
0
  0
LINE
  8
1
 62
7
 10
249.4522074978542
 20
-97.85995505837263
 30
0
 11
249.4522074978542
 21
-93.9599550583726
 31
0
  0
LINE
  8
1
 62
7
 10
243.8522074978541
 20
-97.85995505837263
 30
0
 11
243.8522074978541
 21
-93.9599550583726
 31
0
  0
LINE
  8
1
 62
3
 10
244.5072074978541
 20
-95.90995505837265
 30
0
 11
248.7972074978543
 21
-95.90995505837265
 31
0
  0
LINE
  8
1
 62
3
 10
246.6522074978541
 20
-93.76495505837261
 30
0
 11
246.6522074978541
 21
-98.05495505837263
 31
0
  0
LINE
  8
1
 62
7
 10
274.0022074978541
 20
-71.15995505837265
 30
0
 11
274.0022074978541
 21
-70.4599550583726
 31
0
  0
LINE
  8
1
 62
7
 10
267.9322074978543
 20
-77.65995505837265
 30
0
 11
273.3722074978542
 21
-77.65995505837265
 31
0
  0
LINE
  8
1
 62
7
 10
274.1522074978543
 20
-76.87995505837262
 30
0
 11
274.1522074978543
 21
-71.93995505837262
 31
0
  0
LINE
  8
1
 62
7
 10
273.3722074978542
 20
-71.15995505837265
 30
0
 11
267.9322074978543
 21
-71.15995505837265
 31
0
  0
LINE
  8
1
 62
7
 10
267.1522074978543
 20
-71.93995505837262
 30
0
 11
267.1522074978543
 21
-76.87995505837262
 31
0
  0
LINE
  8
1
 62
7
 10
271.6272074978542
 20
-72.72120552099301
 30
0
 11
274.1522074978543
 21
-72.72120552099301
 31
0
  0
LINE
  8
1
 62
7
 10
269.6772074978543
 20
-72.72120552099301
 30
0
 11
267.1522074978543
 21
-72.72120552099301
 31
0
  0
LINE
  8
1
 62
7
 10
269.6772074978543
 20
-76.09870459575234
 30
0
 11
267.1522074978543
 21
-76.09870459575234
 31
0
  0
LINE
  8
1
 62
7
 10
271.6272074978542
 20
-76.09870459575234
 30
0
 11
274.1522074978543
 21
-76.09870459575234
 31
0
  0
LINE
  8
1
 62
7
 10
267.1522074978543
 20
-77.65995505837265
 30
0
 11
267.9322074978543
 21
-77.65995505837265
 31
0
  0
LINE
  8
1
 62
7
 10
267.1522074978543
 20
-76.87995505837262
 30
0
 11
267.1522074978543
 21
-77.65995505837265
 31
0
  0
LINE
  8
1
 62
7
 10
274.1522074978543
 20
-71.15995505837265
 30
0
 11
273.3722074978542
 21
-71.15995505837265
 31
0
  0
LINE
  8
1
 62
7
 10
274.1522074978543
 20
-71.93995505837262
 30
0
 11
274.1522074978543
 21
-71.15995505837265
 31
0
  0
LINE
  8
1
 62
7
 10
267.1522074978543
 20
-71.15995505837265
 30
0
 11
267.1522074978543
 21
-71.93995505837262
 31
0
  0
LINE
  8
1
 62
7
 10
267.9322074978543
 20
-71.15995505837265
 30
0
 11
267.1522074978543
 21
-71.15995505837265
 31
0
  0
LINE
  8
1
 62
7
 10
273.3722074978542
 20
-77.65995505837265
 30
0
 11
274.1522074978543
 21
-77.65995505837265
 31
0
  0
LINE
  8
1
 62
7
 10
274.1522074978543
 20
-77.65995505837265
 30
0
 11
274.1522074978543
 21
-76.87995505837262
 31
0
  0
LINE
  8
1
 62
7
 10
273.4522074978543
 20
-76.35995505837263
 30
0
 11
273.4522074978543
 21
-72.4599550583726
 31
0
  0
LINE
  8
1
 62
7
 10
267.8522074978541
 20
-76.35995505837263
 30
0
 11
267.8522074978541
 21
-72.4599550583726
 31
0
  0
LINE
  8
1
 62
3
 10
268.5072074978542
 20
-74.40995505837265
 30
0
 11
272.7972074978543
 21
-74.40995505837265
 31
0
  0
LINE
  8
1
 62
3
 10
270.6522074978543
 20
-72.26495505837261
 30
0
 11
270.6522074978543
 21
-76.55495505837263
 31
0
  0
LINE
  8
1
 62
7
 10
267.1522074978543
 20
-99.15995505837265
 30
0
 11
274.1522074978543
 21
-99.15995505837265
 31
0
  0
LINE
  8
1
 62
7
 10
274.1522074978543
 20
-99.85995505837263
 30
0
 11
274.1522074978543
 21
-92.65995505837265
 31
0
  0
LINE
  8
1
 62
7
 10
274.1522074978543
 20
-92.65995505837265
 30
0
 11
267.1522074978543
 21
-92.65995505837265
 31
0
  0
LINE
  8
1
 62
7
 10
267.1522074978543
 20
-92.65995505837265
 30
0
 11
267.1522074978543
 21
-99.15995505837265
 31
0
  0
LINE
  8
1
 62
7
 10
271.6272074978542
 20
-94.22120552099295
 30
0
 11
274.1522074978543
 21
-94.22120552099295
 31
0
  0
LINE
  8
1
 62
7
 10
269.6772074978543
 20
-94.22120552099295
 30
0
 11
267.1522074978543
 21
-94.22120552099295
 31
0
  0
LINE
  8
1
 62
7
 10
269.6772074978543
 20
-97.59870459575234
 30
0
 11
267.1522074978543
 21
-97.59870459575234
 31
0
  0
LINE
  8
1
 62
7
 10
271.6272074978542
 20
-97.59870459575234
 30
0
 11
274.1522074978543
 21
-97.59870459575234
 31
0
  0
LINE
  8
1
 62
7
 10
273.4522074978543
 20
-97.85995505837263
 30
0
 11
273.4522074978543
 21
-93.9599550583726
 31
0
  0
LINE
  8
1
 62
7
 10
267.8522074978541
 20
-97.85995505837263
 30
0
 11
267.8522074978541
 21
-93.9599550583726
 31
0
  0
LINE
  8
1
 62
3
 10
268.5072074978542
 20
-95.90995505837265
 30
0
 11
272.7972074978543
 21
-95.90995505837265
 31
0
  0
LINE
  8
1
 62
3
 10
270.6522074978543
 20
-93.76495505837261
 30
0
 11
270.6522074978543
 21
-98.05495505837263
 31
0
  0
LINE
  8
1
 62
7
 10
274.1522074978543
 20
-71.15995505837265
 30
0
 11
274.1522074978541
 21
-70.4599550583726
 31
0
  0
LINE
  8
1
 62
7
 10
274.1522074978543
 20
-73.4599550583726
 30
0
 11
275.3522074978541
 21
-73.4599550583726
 31
0
  0
LINE
  8
1
 62
7
 10
275.3522074978541
 20
-96.85995505837263
 30
0
 11
274.1522074978543
 21
-96.85995505837263
 31
0
  0
LINE
  8
1
 62
7
 10
267.1522074978541
 20
-74.65995505837265
 30
0
 11
266.1522074978543
 21
-74.65995505837265
 31
0
  0
LINE
  8
1
 62
7
 10
266.1522074978543
 20
-74.65995505837265
 30
0
 11
266.1522074978543
 21
-72.15995505837265
 31
0
  0
LINE
  8
1
 62
7
 10
266.1522074978543
 20
-72.15995505837265
 30
0
 11
260.6522074978541
 21
-72.15995505837265
 31
0
  0
LINE
  8
1
 62
7
 10
250.1522074978541
 20
-74.65995505837265
 30
0
 11
251.1522074978541
 21
-74.65995505837265
 31
0
  0
LINE
  8
1
 62
7
 10
251.1522074978541
 20
-74.65995505837265
 30
0
 11
251.1522074978541
 21
-72.15995505837265
 31
0
  0
LINE
  8
1
 62
7
 10
251.1522074978541
 20
-72.15995505837265
 30
0
 11
256.6522074978541
 21
-72.15995505837265
 31
0
  0
LINE
  8
1
 62
7
 10
256.6522074978541
 20
-55.65995505837265
 30
0
 11
260.6522074978541
 21
-55.65995505837265
 31
0
  0
LINE
  8
1
 62
7
 10
260.6522074978541
 20
-55.65995505837265
 30
0
 11
260.6522074978541
 21
-72.15995505837265
 31
0
  0
LINE
  8
1
 62
7
 10
250.1522074978543
 20
-77.65995505837265
 30
0
 11
267.1522074978543
 21
-77.65995505837265
 31
0
  0
LINE
  8
1
 62
7
 10
265.8522074978541
 20
-72.15995505837265
 30
0
 11
265.8522074978541
 21
-55.65995505837265
 31
0
  0
LINE
  8
1
 62
7
 10
256.6522074978541
 20
-114.6599550583727
 30
0
 11
256.6522074978541
 21
-98.15995505837265
 31
0
  0
LINE
  8
1
 62
7
 10
260.6522074978541
 20
-114.6599550583727
 30
0
 11
256.6522074978541
 21
-114.6599550583727
 31
0
  0
LINE
  8
1
 62
7
 10
256.6522074978541
 20
-98.15995505837265
 30
0
 11
251.1522074978541
 21
-98.15995505837265
 31
0
  0
LINE
  8
1
 62
7
 10
251.1522074978541
 20
-98.15995505837265
 30
0
 11
251.1522074978541
 21
-95.65995505837265
 31
0
  0
LINE
  8
1
 62
7
 10
260.6522074978541
 20
-98.15995505837265
 30
0
 11
266.1522074978543
 21
-98.15995505837265
 31
0
  0
LINE
  8
1
 62
7
 10
266.1522074978543
 20
-98.15995505837265
 30
0
 11
266.1522074978543
 21
-95.65995505837265
 31
0
  0
LINE
  8
1
 62
7
 10
266.1522074978543
 20
-95.65995505837265
 30
0
 11
267.1522074978541
 21
-95.65995505837265
 31
0
  0
LINE
  8
1
 62
7
 10
251.1522074978541
 20
-95.65995505837265
 30
0
 11
250.1522074978541
 21
-95.65995505837265
 31
0
  0
LINE
  8
1
 62
7
 10
251.4522074978542
 20
-98.15995505837265
 30
0
 11
251.4522074978542
 21
-114.6599550583727
 31
0
  0
LINE
  8
1
 62
7
 10
250.1522074978541
 20
-92.65995505837265
 30
0
 11
267.1522074978543
 21
-92.65995505837265
 31
0
  0
LINE
  8
1
 62
7
 10
274.1522074978543
 20
-77.65995505837265
 30
0
 11
279.6522074978543
 21
-77.65995505837265
 31
0
  0
LINE
  8
1
 62
7
 10
285.1522074978541
 20
-77.65995505837265
 30
0
 11
285.1522074978543
 21
-92.65995505837265
 31
0
  0
LINE
  8
1
 62
7
 10
285.1522074978543
 20
-92.65995505837265
 30
0
 11
274.1522074978543
 21
-92.65995505837265
 31
0
  0
LINE
  8
1
 62
7
 10
243.1522074978541
 20
-77.65995505837265
 30
0
 11
242.1522074978543
 21
-77.65995505837265
 31
0
  0
LINE
  8
1
 62
7
 10
242.1522074978543
 20
-77.65995505837265
 30
0
 11
242.1522074978543
 21
-92.65995505837265
 31
0
  0
LINE
  8
1
 62
7
 10
242.1522074978543
 20
-92.65995505837265
 30
0
 11
243.1522074978541
 21
-92.65995505837265
 31
0
  0
LINE
  8
1
 62
7
 10
243.1522074978541
 20
-92.65995505837265
 30
0
 11
243.1522074978541
 21
-99.85995505837263
 31
0
  0
LINE
  8
1
 62
7
 10
277.1522074978541
 20
-92.65995505837265
 30
0
 11
277.1522074978541
 21
-120.4099550583727
 31
0
  0
LINE
  8
1
 62
7
 10
275.3522074978541
 20
-92.65995505837265
 30
0
 11
275.3522074978541
 21
-99.85995505837263
 31
0
  0
LINE
  8
1
 62
7
 10
250.1522074978541
 20
-54.65995505837265
 30
0
 11
267.1522074978541
 21
-54.65995505837265
 31
0
  0
LINE
  8
1
 62
7
 10
274.0522074978543
 20
-50.15995505837265
 30
0
 11
274.0522074978543
 21
-54.65995505837265
 31
0
  0
LINE
  8
1
 62
7
 10
274.0522074978543
 20
-120.1599550583727
 30
0
 11
271.4022074978541
 21
-120.1599550583727
 31
0
  0
LINE
  8
1
 62
7
 10
274.0522074978543
 20
-115.6599550583727
 30
0
 11
274.0522074978543
 21
-120.1599550583727
 31
0
  0
LINE
  8
1
 62
7
 10
265.4022074978541
 20
-50.15995505837265
 30
0
 11
265.4022074978541
 21
-52.65995505837265
 31
0
  0
LINE
  8
1
 62
7
 10
265.4022074978541
 20
-52.65995505837265
 30
0
 11
271.9022074978541
 21
-52.65995505837265
 31
0
  0
LINE
  8
1
 62
7
 10
271.9022074978541
 20
-52.65995505837265
 30
0
 11
271.9022074978541
 21
-50.15995505837265
 31
0
  0
LINE
  8
1
 62
7
 10
266.9022074978541
 20
-52.65995505837265
 30
0
 11
266.9022074978541
 21
-54.65995505837265
 31
0
  0
LINE
  8
1
 62
7
 10
270.4022074978541
 20
-52.65995505837265
 30
0
 11
270.4022074978541
 21
-54.65995505837265
 31
0
  0
LINE
  8
1
 62
7
 10
270.1522074978541
 20
-52.65995505837265
 30
0
 11
270.1522074978541
 21
-60.05995505837262
 31
0
  0
LINE
  8
1
 62
7
 10
270.1522074978541
 20
-60.05995505837262
 30
0
 11
269.5522074978543
 21
-60.65995505837265
 31
0
  0
LINE
  8
1
 62
7
 10
269.5522074978543
 20
-60.65995505837265
 30
0
 11
267.7522074978541
 21
-60.65995505837265
 31
0
  0
LINE
  8
1
 62
7
 10
267.7522074978541
 20
-60.65995505837265
 30
0
 11
267.1522074978541
 21
-60.05995505837262
 31
0
  0
LINE
  8
1
 62
7
 10
267.1522074978541
 20
-60.05995505837262
 30
0
 11
267.1522074978541
 21
-52.65995505837265
 31
0
  0
LINE
  8
1
 62
7
 10
270.1522074978541
 20
-60.05995505837262
 30
0
 11
267.1522074978541
 21
-60.05995505837262
 31
0
  0
LINE
  8
1
 62
3
 10
269.5522074978543
 20
-60.65995505837265
 30
0
 11
269.5522074978543
 21
-54.19918554291394
 31
0
  0
LINE
  8
1
 62
3
 10
269.5522074978543
 20
-54.19918554291394
 30
0
 11
270.1522074978541
 21
-53.15995505837265
 31
0
  0
LINE
  8
1
 62
3
 10
267.7522074978541
 20
-60.65995505837265
 30
0
 11
267.7522074978541
 21
-54.19918554291394
 31
0
  0
LINE
  8
1
 62
3
 10
267.7522074978541
 20
-54.19918554291394
 30
0
 11
267.1522074978541
 21
-53.15995505837265
 31
0
  0
LINE
  8
1
 62
3
 10
270.1522074978541
 20
-54.19918554291394
 30
0
 11
267.1522074978541
 21
-54.19918554291394
 31
0
  0
LINE
  8
1
 62
7
 10
270.1522074978541
 20
-54.65995505837265
 30
0
 11
274.1522074978543
 21
-54.65995505837265
 31
0
  0
LINE
  8
1
 62
7
 10
265.4022074978541
 20
-117.6599550583727
 30
0
 11
265.4022074978541
 21
-120.1599550583727
 31
0
  0
LINE
  8
1
 62
7
 10
271.9022074978541
 20
-117.6599550583727
 30
0
 11
265.4022074978541
 21
-117.6599550583727
 31
0
  0
LINE
  8
1
 62
7
 10
271.9022074978541
 20
-120.1599550583727
 30
0
 11
271.9022074978541
 21
-117.6599550583727
 31
0
  0
LINE
  8
1
 62
7
 10
266.9022074978541
 20
-115.6599550583727
 30
0
 11
266.9022074978541
 21
-117.6599550583727
 31
0
  0
LINE
  8
1
 62
7
 10
270.4022074978541
 20
-115.6599550583727
 30
0
 11
270.4022074978541
 21
-117.6599550583727
 31
0
  0
LINE
  8
1
 62
7
 10
271.4022074978541
 20
-117.6599550583727
 30
0
 11
265.9022074978541
 21
-117.6599550583727
 31
0
  0
LINE
  8
1
 62
7
 10
270.1522074978541
 20
-110.2599550583726
 30
0
 11
270.1522074978541
 21
-117.6599550583727
 31
0
  0
LINE
  8
1
 62
7
 10
269.5522074978543
 20
-109.6599550583727
 30
0
 11
270.1522074978541
 21
-110.2599550583726
 31
0
  0
LINE
  8
1
 62
7
 10
267.7522074978541
 20
-109.6599550583727
 30
0
 11
269.5522074978543
 21
-109.6599550583727
 31
0
  0
LINE
  8
1
 62
7
 10
267.1522074978541
 20
-110.2599550583726
 30
0
 11
267.7522074978541
 21
-109.6599550583727
 31
0
  0
LINE
  8
1
 62
7
 10
267.1522074978541
 20
-117.6599550583727
 30
0
 11
267.1522074978541
 21
-110.2599550583726
 31
0
  0
LINE
  8
1
 62
7
 10
267.1522074978541
 20
-110.2599550583726
 30
0
 11
270.1522074978541
 21
-110.2599550583726
 31
0
  0
LINE
  8
1
 62
3
 10
269.5522074978543
 20
-116.1207245738314
 30
0
 11
269.5522074978543
 21
-109.6599550583727
 31
0
  0
LINE
  8
1
 62
3
 10
270.1522074978541
 20
-117.1599550583727
 30
0
 11
269.5522074978543
 21
-116.1207245738314
 31
0
  0
LINE
  8
1
 62
3
 10
267.7522074978541
 20
-116.1207245738314
 30
0
 11
267.7522074978541
 21
-109.6599550583727
 31
0
  0
LINE
  8
1
 62
3
 10
267.1522074978541
 20
-117.1599550583727
 30
0
 11
267.7522074978541
 21
-116.1207245738314
 31
0
  0
LINE
  8
1
 62
3
 10
267.1522074978541
 20
-116.1207245738314
 30
0
 11
270.1522074978541
 21
-116.1207245738314
 31
0
  0
LINE
  8
1
 62
7
 10
285.1522074978543
 20
-89.15995505837265
 30
0
 11
242.1522074978543
 21
-89.15995505837265
 31
0
  0
LINE
  8
1
 62
7
 10
285.1522074978543
 20
-81.45185581482485
 30
0
 11
242.1522074978543
 21
-81.45185581482485
 31
0
  0
LINE
  8
1
 62
7
 10
285.1522074978543
 20
-79.75995505837261
 30
0
 11
242.1522074978543
 21
-79.75995505837261
 31
0
  0
LINE
  8
1
 62
3
  6
DASHDOT
 10
463.5522074978543
 20
-79.65995505837265
 30
0
 11
463.5522074978543
 21
-73.75995505837261
 31
0
  0
LINE
  8
1
 62
7
 10
371.2522074978543
 20
-79.75995505837261
 30
0
 11
371.2522074978543
 21
-81.45185581482485
 31
0
  0
LINE
  8
1
 62
3
  6
DASHED
 10
368.2522074978543
 20
-79.75995505837261
 30
0
 11
368.2522074978543
 21
-77.81148583002312
 31
0
  0
LINE
  8
1
 62
3
  6
DASHED
 10
368.8522074978544
 20
-79.75995505837261
 30
0
 11
368.8522074978542
 21
-77.7141508707781
 31
0
  0
LINE
  8
1
 62
7
 10
496.5522074978543
 20
-84.58260478918294
 30
0
 11
495.5522074978546
 21
-84.0052545199934
 31
0
  0
LINE
  8
1
 62
7
 10
496.5522074978546
 20
-85.73730532756224
 30
0
 11
496.5522074978543
 21
-84.58260478918294
 31
0
  0
LINE
  8
1
 62
7
 10
495.5522074978543
 20
-86.31465559675195
 30
0
 11
496.5522074978546
 21
-85.73730532756224
 31
0
  0
LINE
  8
1
 62
7
 10
494.5522074978546
 20
-85.73730532756224
 30
0
 11
495.5522074978543
 21
-86.31465559675195
 31
0
  0
LINE
  8
1
 62
7
 10
494.5522074978543
 20
-84.58260478918294
 30
0
 11
494.5522074978546
 21
-85.73730532756224
 31
0
  0
LINE
  8
1
 62
7
 10
495.5522074978546
 20
-84.0052545199934
 30
0
 11
494.5522074978543
 21
-84.58260478918294
 31
0
  0
LINE
  8
1
 62
3
  6
DASHDOT
 10
495.5522074978543
 20
-80.12365251081241
 30
0
 11
495.5522074978546
 21
-90.46068371425201
 31
0
  0
LINE
  8
1
 62
3
  6
DASHDOT
 10
393.3416512592711
 20
-71.54058335268502
 30
0
 11
402.4928268981047
 21
-66.25714963420285
 31
0
  0
LINE
  8
1
 62
7
 10
404.5022074978543
 20
-85.65995505837265
 30
0
 11
404.9986612201793
 21
-85.65995505837265
 31
0
  0
LINE
  8
1
 62
7
 10
404.5022074978543
 20
-84.65995505837265
 30
0
 11
404.5022074978543
 21
-85.65995505837265
 31
0
  0
LINE
  8
1
 62
7
 10
404.9986612201793
 20
-84.65995505837265
 30
0
 11
404.5022074978543
 21
-84.65995505837265
 31
0
  0
LINE
  8
1
 62
7
 10
473.3022074978546
 20
-52.65995505837265
 30
0
 11
479.8022074978546
 21
-52.65995505837265
 31
0
  0
LINE
  8
1
 62
7
 10
473.3022074978546
 20
-50.1599550583727
 30
0
 11
473.3022074978546
 21
-67.1746088458878
 31
0
  0
LINE
  8
1
 62
7
 10
478.3522074978545
 20
-52.65995505837265
 30
0
 11
478.3522074978545
 21
-68.69907430794501
 31
0
  0
LINE
  8
1
 62
7
 10
474.7522074978544
 20
-52.65995505837265
 30
0
 11
474.7522074978544
 21
-68.69907430794501
 31
0
  0
LINE
  8
1
 62
7
 10
479.8022074978543
 20
-67.1746088458878
 30
0
 11
479.8022074978546
 21
-50.1599550583727
 31
0
  0
LINE
  8
1
 62
3
  6
DASHED
 10
370.6522074978542
 20
-60.65995505837265
 30
0
 11
370.6522074978542
 21
-54.19918554291394
 31
0
  0
LINE
  8
1
 62
3
  6
DASHED
 10
368.8522074978542
 20
-54.19918554291394
 30
0
 11
368.8522074978542
 21
-60.65995505837265
 31
0
  0
LINE
  8
1
 62
3
  6
DASHED
 10
370.6522074978542
 20
-60.65995505837265
 30
0
 11
370.6522074978542
 21
-64.4599550583726
 31
0
  0
LINE
  8
1
 62
3
  6
DASHED
 10
371.2522074978543
 20
-60.05995505837262
 30
0
 11
371.2522074978543
 21
-62.65995505837265
 31
0
  0
LINE
  8
1
 62
3
  6
DASHED
 10
368.8522074978542
 20
-64.4599550583726
 30
0
 11
368.8522074978542
 21
-60.65995505837265
 31
0
  0
LINE
  8
1
 62
3
  6
DASHED
 10
369.7522074978543
 20
-65.32598046215702
 30
0
 11
370.6522074978542
 21
-64.4599550583726
 31
0
  0
LINE
  8
1
 62
3
  6
DASHED
 10
368.8522074978542
 20
-64.4599550583726
 30
0
 11
369.7522074978543
 21
-65.32598046215702
 31
0
  0
LINE
  8
1
 62
3
  6
DASHED
 10
368.8522074978542
 20
-64.4599550583726
 30
0
 11
370.6522074978542
 21
-64.4599550583726
 31
0
  0
LINE
  8
1
 62
3
  6
DASHED
 10
371.2522074978543
 20
-54.19918554291394
 30
0
 11
368.2522074978543
 21
-54.19918554291394
 31
0
  0
LINE
  8
1
 62
3
  6
DASHED
 10
368.8522074978542
 20
-54.19918554291394
 30
0
 11
368.2522074978543
 21
-53.15995505837265
 31
0
  0
LINE
  8
1
 62
3
  6
DASHED
 10
370.6522074978542
 20
-54.19918554291394
 30
0
 11
371.2522074978543
 21
-53.15995505837265
 31
0
  0
LINE
  8
1
 62
3
  6
DASHED
 10
371.2522074978543
 20
-60.05995505837262
 30
0
 11
368.2522074978543
 21
-60.05995505837262
 31
0
  0
LINE
  8
1
 62
3
  6
DASHED
 10
368.2522074978543
 20
-60.05995505837262
 30
0
 11
368.2522074978543
 21
-52.65995505837265
 31
0
  0
LINE
  8
1
 62
3
  6
DASHED
 10
368.8522074978542
 20
-60.65995505837265
 30
0
 11
368.2522074978543
 21
-60.05995505837262
 31
0
  0
LINE
  8
1
 62
3
  6
DASHED
 10
370.6522074978542
 20
-60.65995505837265
 30
0
 11
368.8522074978542
 21
-60.65995505837265
 31
0
  0
LINE
  8
1
 62
3
  6
DASHED
 10
371.2522074978543
 20
-60.05995505837262
 30
0
 11
370.6522074978542
 21
-60.65995505837265
 31
0
  0
LINE
  8
1
 62
3
  6
DASHED
 10
371.2522074978543
 20
-52.65995505837265
 30
0
 11
371.2522074978543
 21
-60.05995505837262
 31
0
  0
LINE
  8
1
 62
7
 10
362.4037382695047
 20
-86.65995505837265
 30
0
 11
362.0522074978543
 21
-86.65995505837265
 31
0
  0
LINE
  8
1
 62
3
 10
361.7522074978543
 20
-86.05995505837262
 30
0
 11
362.3064033102598
 21
-86.05995505837262
 31
0
  0
LINE
  8
1
 62
3
 10
361.7522074978543
 20
-84.25995505837261
 30
0
 11
362.3064033102598
 21
-84.25995505837261
 31
0
  0
LINE
  8
1
 62
3
  6
DASHED
 10
365.1522074978544
 20
-83.65995505837265
 30
0
 11
365.1522074978544
 21
-86.65995505837265
 31
0
  0
LINE
  8
1
 62
3
  6
DASHED
 10
365.7522074978543
 20
-86.05995505837262
 30
0
 11
365.1522074978544
 21
-86.65995505837265
 31
0
  0
LINE
  8
1
 62
3
  6
DASHED
 10
365.7522074978543
 20
-84.25995505837261
 30
0
 11
365.7522074978543
 21
-86.05995505837262
 31
0
  0
LINE
  8
1
 62
3
  6
DASHED
 10
365.1522074978544
 20
-83.65995505837265
 30
0
 11
365.7522074978543
 21
-84.25995505837261
 31
0
  0
LINE
  8
1
 62
7
 10
362.0522074978543
 20
-83.65995505837265
 30
0
 11
362.4037382695047
 21
-83.65995505837265
 31
0
  0
LINE
  8
1
 62
7
 10
361.7522074978543
 20
-86.14033981610191
 30
0
 11
361.7522074978543
 21
-84.17957030064332
 31
0
  0
LINE
  8
1
 62
7
 10
362.0522074978543
 20
-86.65995505837265
 30
0
 11
361.7522074978543
 21
-86.14033981610191
 31
0
  0
LINE
  8
1
 62
7
 10
362.0522074978543
 20
-83.65995505837265
 30
0
 11
362.0522074978543
 21
-86.65995505837265
 31
0
  0
LINE
  8
1
 62
7
 10
361.7522074978543
 20
-84.17957030064332
 30
0
 11
362.0522074978543
 21
-83.65995505837265
 31
0
  0
LINE
  8
1
 62
3
  6
DASHED
 10
362.4037382695047
 20
-83.65995505837265
 30
0
 11
366.0441082543065
 21
-83.65995505837265
 31
0
  0
LINE
  8
1
 62
3
  6
DASHED
 10
362.3064033102598
 20
-84.25995505837261
 30
0
 11
365.8547724438733
 21
-84.25995505837261
 31
0
  0
LINE
  8
1
 62
3
  6
DASHED
 10
365.8547724438733
 20
-86.05995505837262
 30
0
 11
362.3064033102598
 21
-86.05995505837262
 31
0
  0
LINE
  8
1
 62
3
  6
DASHED
 10
366.0441082543065
 20
-86.65995505837265
 30
0
 11
362.4037382695047
 21
-86.65995505837265
 31
0
  0
LINE
  8
1
 62
7
 10
371.2522074978543
 20
-76.05995505837262
 30
0
 11
371.2522074978543
 21
-77.81148583002312
 31
0
  0
LINE
  8
1
 62
3
 10
370.6522074978542
 20
-77.7141508707781
 30
0
 11
370.6522074978544
 21
-75.75995505837261
 31
0
  0
LINE
  8
1
 62
3
 10
368.8522074978542
 20
-77.7141508707781
 30
0
 11
368.8522074978542
 21
-75.75995505837261
 31
0
  0
LINE
  8
1
 62
3
  6
DASHED
 10
371.2522074978543
 20
-79.15995505837265
 30
0
 11
368.2522074978543
 21
-79.15995505837265
 31
0
  0
LINE
  8
1
 62
3
  6
DASHED
 10
371.2522074978543
 20
-79.15995505837265
 30
0
 11
370.6522074978544
 21
-79.75995505837261
 31
0
  0
LINE
  8
1
 62
3
  6
DASHED
 10
368.8522074978544
 20
-79.75995505837261
 30
0
 11
368.2522074978543
 21
-79.15995505837265
 31
0
  0
LINE
  8
1
 62
7
 10
368.2522074978543
 20
-77.81148583002312
 30
0
 11
368.2522074978543
 21
-76.05995505837262
 31
0
  0
LINE
  8
1
 62
7
 10
368.771822740125
 20
-75.75995505837261
 30
0
 11
370.7325922555835
 21
-75.75995505837261
 31
0
  0
LINE
  8
1
 62
7
 10
370.7325922555835
 20
-75.75995505837261
 30
0
 11
371.2522074978543
 21
-76.05995505837262
 31
0
  0
LINE
  8
1
 62
7
 10
371.2522074978543
 20
-76.05995505837262
 30
0
 11
368.2522074978543
 21
-76.05995505837262
 31
0
  0
LINE
  8
1
 62
7
 10
368.2522074978543
 20
-76.05995505837262
 30
0
 11
368.771822740125
 21
-75.75995505837261
 31
0
  0
LINE
  8
1
 62
3
  6
DASHDOT
 10
383.5022074978543
 20
-108.9756536624447
 30
0
 11
379.0022074978543
 21
-101.1814250283848
 31
0
  0
LINE
  8
1
 62
3
  6
DASHDOT
 10
383.5022074978543
 20
-61.34425645430065
 30
0
 11
379.0022074978543
 21
-69.13848508836054
 31
0
  0
LINE
  8
1
 62
3
  6
DASHED
 10
368.2522074978543
 20
-62.65995505837265
 30
0
 11
368.2522074978543
 21
-60.05995505837262
 31
0
  0
LINE
  8
1
 62
3
  6
DASHED
 10
371.2522074978543
 20
-62.65995505837265
 30
0
 11
368.2522074978543
 21
-62.65995505837265
 31
0
  0
LINE
  8
1
 62
3
  6
DASHED
 10
368.8522074978542
 20
-63.69918554291394
 30
0
 11
368.2522074978543
 21
-62.65995505837265
 31
0
  0
LINE
  8
1
 62
3
  6
DASHED
 10
370.6522074978542
 20
-63.69918554291394
 30
0
 11
371.2522074978543
 21
-62.65995505837265
 31
0
  0
LINE
  8
1
 62
3
  6
DASHDOT
 10
409.0022074978543
 20
-85.15995505837265
 30
0
 11
330.5022074978543
 21
-85.15995505837265
 31
0
  0
LINE
  8
1
 62
3
  6
DASHDOT
 10
369.7522074978543
 20
-45.9099550583727
 30
0
 11
369.7522074978543
 21
-124.4099550583727
 31
0
  0
LINE
  8
1
 62
7
 10
368.2522074978543
 20
-79.75995505837261
 30
0
 11
371.2522074978543
 21
-79.75995505837261
 31
0
  0
LINE
  8
1
 62
7
 10
368.2522074978543
 20
-81.45185581482485
 30
0
 11
368.2522074978543
 21
-79.75995505837261
 31
0
  0
LINE
  8
1
 62
3
  6
DASHED
 10
370.6522074978542
 20
-77.7141508707781
 30
0
 11
370.6522074978544
 21
-79.75995505837261
 31
0
  0
LINE
  8
1
 62
3
  6
DASHED
 10
371.2522074978543
 20
-77.81148583002312
 30
0
 11
371.2522074978543
 21
-79.75995505837261
 31
0
  0
LINE
  8
1
 62
3
  6
DASHED
 10
366.5022074978543
 20
-50.06009750880412
 30
0
 11
366.5022074978543
 21
-52.82286335240752
 31
0
  0
LINE
  8
1
 62
3
  6
DASHED
 10
368.0022074978543
 20
-52.70710464427191
 30
0
 11
368.0022074978543
 21
-54.71020136478751
 31
0
  0
LINE
  8
1
 62
3
  6
DASHED
 10
399.3819503997271
 20
-71.80599176768953
 30
0
 11
401.7745758049956
 21
-70.4246088458878
 31
0
  0
LINE
  8
1
 62
3
  6
DASHED
 10
368.8522074978544
 20
-109.6599550583727
 30
0
 11
368.8522074978544
 21
-116.1207245738314
 31
0
  0
LINE
  8
1
 62
3
  6
DASHED
 10
370.6522074978544
 20
-116.1207245738314
 30
0
 11
370.6522074978544
 21
-109.6599550583727
 31
0
  0
LINE
  8
1
 62
3
  6
DASHED
 10
368.8522074978544
 20
-109.6599550583727
 30
0
 11
368.8522074978544
 21
-105.8599550583726
 31
0
  0
LINE
  8
1
 62
3
  6
DASHED
 10
368.2522074978543
 20
-110.2599550583726
 30
0
 11
368.2522074978543
 21
-107.6599550583727
 31
0
  0
LINE
  8
1
 62
3
  6
DASHED
 10
370.6522074978544
 20
-105.8599550583726
 30
0
 11
370.6522074978544
 21
-109.6599550583727
 31
0
  0
LINE
  8
1
 62
3
  6
DASHED
 10
369.7522074978543
 20
-104.9939296545882
 30
0
 11
368.8522074978544
 21
-105.8599550583726
 31
0
  0
LINE
  8
1
 62
3
  6
DASHED
 10
370.6522074978544
 20
-105.8599550583726
 30
0
 11
369.7522074978543
 21
-104.9939296545882
 31
0
  0
LINE
  8
1
 62
3
  6
DASHED
 10
370.6522074978544
 20
-105.8599550583726
 30
0
 11
368.8522074978544
 21
-105.8599550583726
 31
0
  0
LINE
  8
1
 62
3
  6
DASHED
 10
368.2522074978543
 20
-116.1207245738314
 30
0
 11
371.2522074978543
 21
-116.1207245738314
 31
0
  0
LINE
  8
1
 62
3
  6
DASHED
 10
370.6522074978544
 20
-116.1207245738314
 30
0
 11
371.2522074978543
 21
-117.1599550583727
 31
0
  0
LINE
  8
1
 62
3
  6
DASHED
 10
368.8522074978544
 20
-116.1207245738314
 30
0
 11
368.2522074978543
 21
-117.1599550583727
 31
0
  0
LINE
  8
1
 62
3
  6
DASHED
 10
368.2522074978543
 20
-110.2599550583726
 30
0
 11
371.2522074978543
 21
-110.2599550583726
 31
0
  0
LINE
  8
1
 62
3
  6
DASHED
 10
371.2522074978543
 20
-110.2599550583726
 30
0
 11
371.2522074978543
 21
-117.6599550583727
 31
0
  0
LINE
  8
1
 62
3
  6
DASHED
 10
370.6522074978544
 20
-109.6599550583727
 30
0
 11
371.2522074978543
 21
-110.2599550583726
 31
0
  0
LINE
  8
1
 62
3
  6
DASHED
 10
368.8522074978544
 20
-109.6599550583727
 30
0
 11
370.6522074978544
 21
-109.6599550583727
 31
0
  0
LINE
  8
1
 62
3
  6
DASHED
 10
368.2522074978543
 20
-110.2599550583726
 30
0
 11
368.8522074978544
 21
-109.6599550583727
 31
0
  0
LINE
  8
1
 62
3
  6
DASHED
 10
368.2522074978543
 20
-117.6599550583727
 30
0
 11
368.2522074978543
 21
-110.2599550583726
 31
0
  0
LINE
  8
1
 62
3
  6
DASHED
 10
371.2522074978543
 20
-107.6599550583727
 30
0
 11
371.2522074978543
 21
-110.2599550583726
 31
0
  0
LINE
  8
1
 62
3
  6
DASHED
 10
368.2522074978543
 20
-107.6599550583727
 30
0
 11
371.2522074978543
 21
-107.6599550583727
 31
0
  0
LINE
  8
1
 62
3
  6
DASHED
 10
370.6522074978542
 20
-106.6207245738314
 30
0
 11
371.2522074978543
 21
-107.6599550583727
 31
0
  0
LINE
  8
1
 62
3
  6
DASHED
 10
368.8522074978542
 20
-106.6207245738314
 30
0
 11
368.2522074978543
 21
-107.6599550583727
 31
0
  0
LINE
  8
1
 62
3
  6
DASHED
 10
373.0022074978543
 20
-120.259812607941
 30
0
 11
373.0022074978543
 21
-117.4970467643377
 31
0
  0
LINE
  8
1
 62
3
  6
DASHED
 10
371.5022074978543
 20
-117.6128054724734
 30
0
 11
371.5022074978543
 21
-115.6097087519578
 31
0
  0
LINE
  8
1
 62
3
  6
DASHDOT
 10
346.1627637364373
 20
-98.77932676406022
 30
0
 11
337.0115880976038
 21
-104.0627604825424
 31
0
  0
LINE
  8
1
 62
3
  6
DASHED
 10
340.1224645959813
 20
-98.5139183490557
 30
0
 11
337.7298391907129
 21
-99.89530127085743
 31
0
  0
LINE
  8
1
 62
7
 10
474.7522074978544
 20
-54.65995505837265
 30
0
 11
478.3522074978545
 21
-54.65995505837265
 31
0
  0
LINE
  8
1
 62
7
 10
478.0522074978543
 20
-52.65995505837265
 30
0
 11
478.0522074978543
 21
-54.65995505837265
 31
0
  0
LINE
  8
1
 62
3
 10
477.4522074978542
 20
-54.19918554291405
 30
0
 11
478.0522074978543
 21
-53.15995505837265
 31
0
  0
LINE
  8
1
 62
3
 10
475.6522074978542
 20
-54.19918554291405
 30
0
 11
475.0522074978543
 21
-53.15995505837265
 31
0
  0
LINE
  8
1
 62
3
 10
478.0522074978543
 20
-54.19918554291405
 30
0
 11
475.0522074978543
 21
-54.19918554291405
 31
0
  0
LINE
  8
1
 62
7
 10
475.0522074978543
 20
-54.65995505837265
 30
0
 11
475.0522074978543
 21
-52.65995505837265
 31
0
  0
LINE
  8
1
 62
3
 10
475.6522074978542
 20
-54.65995505837265
 30
0
 11
475.6522074978542
 21
-54.19918554291405
 31
0
  0
LINE
  8
1
 62
3
 10
477.4522074978542
 20
-54.65995505837265
 30
0
 11
477.4522074978542
 21
-54.19918554291405
 31
0
  0
LINE
  8
1
 62
7
 10
264.8522074978541
 20
-54.65995505837265
 30
0
 11
264.8522074978541
 21
-55.65995505837265
 31
0
  0
LINE
  8
1
 62
7
 10
252.4522074978542
 20
-54.65995505837265
 30
0
 11
252.4522074978542
 21
-55.65995505837265
 31
0
  0
LINE
  8
1
 62
7
 10
251.4522074978542
 20
-55.65995505837265
 30
0
 11
251.4522074978542
 21
-72.15995505837265
 31
0
  0
LINE
  8
1
 62
7
 10
252.4522074978542
 20
-114.6599550583727
 30
0
 11
252.4522074978542
 21
-115.6599550583727
 31
0
  0
LINE
  8
1
 62
7
 10
264.8522074978541
 20
-114.6599550583727
 30
0
 11
264.8522074978541
 21
-115.6599550583727
 31
0
  0
LINE
  8
1
 62
7
 10
265.8522074978541
 20
-114.6599550583727
 30
0
 11
265.8522074978541
 21
-98.15995505837265
 31
0
  0
LINE
  8
1
 62
7
 10
256.6522074978541
 20
-72.15995505837265
 30
0
 11
256.6522074978541
 21
-55.65995505837265
 31
0
  0
LINE
  8
1
 62
7
 10
260.6522074978541
 20
-98.15995505837265
 30
0
 11
260.6522074978541
 21
-114.6599550583727
 31
0
  0
ARC
  8
1
 62
7
 10
248.8062060628954
 20
-53.01281117625911
 30
0
 40
3.00000000000009
 50
123.4585005244474
 51
165.4661438916077
  0
ARC
  8
1
 62
7
 10
248.498208932813
 20
-53.01281117625911
 30
0
 40
3.000000000000004
 50
14.53385610839304
 51
56.54149947555535
  0
ARC
  8
1
 62
7
 10
369.7522074978543
 20
-85.15995505837265
 30
0
 40
4
 50
270
 51
67.97568716295763
  0
ARC
  8
1
 62
7
 10
369.7522074978543
 20
-85.15995505837265
 30
0
 40
3.999999999999964
 50
112.0243128370424
 51
270
  0
ARC
  8
1
 62
7
 10
369.7522074978543
 20
-85.15995505837265
 30
0
 40
35.00000000000008
 50
359.181461021027
 51
0.8185389789730936
  0
ARC
  8
1
 62
7
 10
369.7522074978543
 20
-85.15995505837265
 30
0
 40
35.24999999999999
 50
90
 51
359.1872666527935
  0
ARC
  8
1
 62
7
 10
369.7522074978543
 20
-85.15995505837265
 30
0
 40
35.25000000000001
 50
0.8127333472064239
 51
90
  0
ARC
  8
1
 62
7
 10
361.4972681661778
 20
-96.6888798369759
 30
0
 40
6.343676533041545
 50
338.9817040500504
 51
0
  0
ARC
  8
1
 62
7
 10
378.0071468295309
 20
-96.6888798369759
 30
0
 40
6.343676533041901
 50
180
 51
201.0182959499486
  0
ARC
  8
1
 62
7
 10
369.7522074978543
 20
-85.98495505837263
 30
0
 40
12.52499999999992
 50
306.6859416250176
 51
233.3140583749818
  0
ARC
  8
1
 62
7
 10
366.2809446992195
 20
-98.99446921948891
 30
0
 40
3.865589382513065
 50
90
 51
129.1232600470169
  0
ARC
  8
1
 62
7
 10
373.223470296489
 20
-98.99446921948902
 30
0
 40
3.865589382513204
 50
50.87673995298551
 51
90
  0
ARC
  8
1
 62
7
 10
366.2809446992195
 20
-96.6888798369759
 30
0
 40
1.560000000000002
 50
0
 51
90
  0
ARC
  8
1
 62
7
 10
373.223470296489
 20
-96.6888798369759
 30
0
 40
1.560000000000059
 50
90
 51
180
  0
CIRCLE
  8
1
 62
7
 10
369.7522074978543
 20
-85.15995505837265
 30
0
 40
7.5
  0
ARC
  8
1
 62
3
  6
DASHED
 10
369.7522074978543
 20
-85.15995505837265
 30
0
 40
32.49999999999992
 50
24.26082952273321
 51
95.73917047726677
  0
ARC
  8
1
 62
3
  6
DASHED
 10
369.7522074978543
 20
-85.15995505837265
 30
0
 40
32.50000000000005
 50
204.260829522733
 51
275.7391704772668
  0
CIRCLE
  8
1
 62
3
  6
DASHED
 10
369.7522074978543
 20
-85.15995505837265
 30
0
 40
30.5
  0
CIRCLE
  8
1
 62
7
 10
246.6522074978541
 20
-74.40995505837265
 30
0
 40
1.949999999999989
  0
CIRCLE
  8
1
 62
7
 10
246.6522074978541
 20
-95.90995505837265
 30
0
 40
1.949999999999989
  0
CIRCLE
  8
1
 62
7
 10
270.6522074978543
 20
-74.40995505837265
 30
0
 40
1.949999999999875
  0
CIRCLE
  8
1
 62
7
 10
270.6522074978543
 20
-95.90995505837265
 30
0
 40
1.949999999999875
  0
CIRCLE
  8
1
 62
7
 10
495.5522074978546
 20
-85.15995505837265
 30
0
 40
2.749999999999659
  0
CIRCLE
  8
1
 62
7
 10
365.9476113658863
 20
-97.02221317030922
 30
0
 40
0.99999999999985
  0
CIRCLE
  8
1
 62
7
 10
373.5568036298224
 20
-97.02221317030922
 30
0
 40
1.000000000000012
  0
CIRCLE
  8
1
 62
7
 10
369.7522074978543
 20
-85.15995505837265
 30
0
 40
14
  0
CIRCLE
  8
1
 62
7
 10
369.7522074978543
 20
-85.15995505837265
 30
0
 40
14
  0
CIRCLE
  8
1
 62
3
  6
DASHDOT
 10
369.7522074978543
 20
-85.15995505837265
 30
0
 40
22.99999999999999
  0
CIRCLE
  8
1
 62
7
 10
346.7522074978543
 20
-85.15995505837265
 30
0
 40
0.9000000000000341
  0
CIRCLE
  8
1
 62
3
 10
346.7522074978543
 20
-85.15995505837265
 30
0
 40
1.5
  0
CIRCLE
  8
1
 62
7
 10
381.2522074978543
 20
-105.0785393454147
 30
0
 40
0.9000000000000655
  0
CIRCLE
  8
1
 62
3
 10
381.2522074978543
 20
-105.0785393454147
 30
0
 40
1.500000000000025
  0
CIRCLE
  8
1
 62
7
 10
381.2522074978543
 20
-65.24137077133054
 30
0
 40
0.8999999999999598
  0
CIRCLE
  8
1
 62
3
 10
381.2522074978543
 20
-65.24137077133054
 30
0
 40
1.499999999999975
  0
CIRCLE
  8
1
 62
7
 10
495.5522074978546
 20
-85.15995505837265
 30
0
 40
3.25
  0
ARC
  8
1
 62
7
 10
249.3722074978541
 20
-71.93995505837262
 30
0
 40
0.7800000000000011
 50
0
 51
90
  0
ARC
  8
1
 62
7
 10
243.9322074978543
 20
-76.87995505837262
 30
0
 40
0.7800000000002001
 50
180
 51
270
  0
ARC
  8
1
 62
7
 10
249.3722074978541
 20
-76.87995505837262
 30
0
 40
0.7800000000000296
 50
270
 51
0
  0
ARC
  8
1
 62
7
 10
243.9322074978543
 20
-71.93995505837262
 30
0
 40
0.7799999999999727
 50
90
 51
180
  0
ARC
  8
1
 62
7
 10
243.9322074978543
 20
-98.37995505837262
 30
0
 40
0.7800000000002001
 50
180
 51
270
  0
ARC
  8
1
 62
7
 10
249.3722074978541
 20
-93.43995505837262
 30
0
 40
0.7800000000000011
 50
0
 51
90
  0
ARC
  8
1
 62
7
 10
243.9322074978543
 20
-93.43995505837262
 30
0
 40
0.7799999999999727
 50
90
 51
180
  0
ARC
  8
1
 62
7
 10
249.3722074978541
 20
-98.37995505837262
 30
0
 40
0.7800000000000296
 50
270
 51
0
  0
ARC
  8
1
 62
7
 10
267.9322074978543
 20
-76.87995505837262
 30
0
 40
0.7799999999999727
 50
180
 51
270
  0
ARC
  8
1
 62
7
 10
273.3722074978542
 20
-71.93995505837262
 30
0
 40
0.7800000000000864
 50
0
 51
90
  0
ARC
  8
1
 62
7
 10
267.9322074978543
 20
-71.93995505837262
 30
0
 40
0.7799999999999727
 50
90
 51
180
  0
ARC
  8
1
 62
7
 10
273.3722074978542
 20
-76.87995505837262
 30
0
 40
0.7800000000000296
 50
270
 51
0
  0
ARC
  8
1
 62
7
 10
267.9322074978543
 20
-98.37995505837262
 30
0
 40
0.7799999999999727
 50
180
 51
270
  0
ARC
  8
1
 62
7
 10
273.3722074978542
 20
-93.43995505837262
 30
0
 40
0.7800000000000864
 50
0
 51
90
  0
ARC
  8
1
 62
7
 10
267.9322074978543
 20
-93.43995505837262
 30
0
 40
0.7799999999999727
 50
90
 51
180
  0
ARC
  8
1
 62
7
 10
273.3722074978542
 20
-98.37995505837262
 30
0
 40
0.7800000000000296
 50
270
 51
0
  0
ARC
  8
1
 62
7
 10
363.0341251245359
 20
-95.00257083114252
 30
0
 40
1.280000000000036
 50
233.3140583749821
 51
309.1232600470114
  0
ARC
  8
1
 62
7
 10
376.4702898711726
 20
-95.00257083114252
 30
0
 40
1.279999999999954
 50
230.8767399529847
 51
306.6859416250139
  0
ARC
  8
1
 62
7
 10
476.6022074978545
 20
-68.69907430794501
 30
0
 40
1.750000000000066
 50
286.1604346432825
 51
0
  0
ARC
  8
1
 62
7
 10
476.5522074978543
 20
-67.1746088458878
 30
0
 40
3.249999999999659
 50
180
 51
0
  0
ARC
  8
1
 62
7
 10
476.5022074978544
 20
-68.69907430794501
 30
0
 40
1.75
 50
180
 51
253.8395653567318
  0
TEXT
  8
1
 62
7
 10
243.2787751855779
 20
-21.20637478695927
 30
0
 40
3
  1
PHT 5D
 41
0.8910000000000001
  7
SIMPLEX
  0
TEXT
  8
1
 62
3
 10
475.4022074978543
 20
-114.5623505417742
 30
0
 40
2.5
  1
6
 50
270
 41
0.9
  7
SIMPLEX
 72
1
 73
2
 11
476.6522074978543
 21
-115.6873505417742
 31
0
  0
TEXT
  8
1
 62
3
 10
475.4022074978543
 20
-106.6932182998231
 30
0
 40
2.5
  1
4
 50
270
 41
0.9
  7
SIMPLEX
 72
1
 73
2
 11
476.6522074978543
 21
-107.8182182998231
 31
0
  0
TEXT
  8
1
 62
3
 10
475.4022074978543
 20
-96.09116511060245
 30
0
 40
2.5
  1
2
 50
270
 41
0.9
  7
SIMPLEX
 72
1
 73
2
 11
476.6522074978543
 21
-97.21616511060245
 31
0
  0
TEXT
  8
1
 62
3
 10
475.4022074978543
 20
-84.03495505837265
 30
0
 40
2.5
  1
0
 50
270
 41
0.9
  7
SIMPLEX
 72
1
 73
2
 11
476.6522074978543
 21
-85.15995505837265
 31
0
  0
ENDSEC
  0
EOF
