  0
SECTION
  2
HEADER
  9
$ACADVER
  1
AC1009
  9
$INSBASE
 10
0
 20
0
  9
$EXTMIN
 10
122.8491008189576
 20
207.7796746465586
  9
$EXTMAX
 10
274.8491008189576
 20
239.949889771381
  9
$LIMMIN
 10
122.8491008189576
 20
207.7796746465586
  9
$LIMMAX
 10
274.8491008189576
 20
239.949889771381
  9
$VIEWCTR
 10
10
 20
10
  9
$VIEWSIZE
 40
10
  9
$SNAPMODE
 70
0
  9
$SNAPUNIT
 10
1
 20
1
  9
$SNAPBASE
 10
0
 20
0
  9
$SNAPANG
 50
0
  9
$SNAPSTYLE
 70
0
  9
$SNAPISOPAIR
 70
0
  9
$GRIDMODE
 70
0
  9
$GRIDUNIT
 10
0
 20
0
  9
$ORTHOMODE
 70
0
  9
$REGENMODE
 70
1
  9
$FILLMODE
 70
1
  9
$QTEXTMODE
 70
0
  9
$DRAGMODE
 70
2
  9
$LTSCALE
 40
1
  9
$OSMODE
 70
0
  9
$ATTMODE
 70
1
  9
$TEXTSIZE
 40
3.5
  9
$TRACEWID
 40
0.5
  9
$TEXTSTYLE
  7
STANDARD
  9
$CLAYER
  8
0
  9
$CELTYPE
  6
BYLAYER
  9
$CECOLOR
 62
256
  9
$DIMSCALE
 40
1
  9
$DIMASZ
 40
0.18
  9
$DIMEXO
 40
0.0625
  9
$DIMDLI
 40
0.38
  9
$DIMRND
 40
0
  9
$DIMDLE
 40
0
  9
$DIMEXE
 40
0.18
  9
$DIMTP
 40
0
  9
$DIMTM
 40
0
  9
$DIMTXT
 40
0.18
  9
$DIMCEN
 40
0.09
  9
$DIMTSZ
 40
0
  9
$DIMTOL
 70
0
  9
$DIMLIM
 70
0
  9
$DIMTIH
 70
1
  9
$DIMTOH
 70
1
  9
$DIMSE1
 70
0
  9
$DIMSE2
 70
0
  9
$DIMTAD
 70
0
  9
$DIMZIN
 70
0
  9
$DIMBLK
  1

  9
$DIMASO
 70
1
  9
$DIMSHO
 70
1
  9
$DIMPOST
  1

  9
$DIMAPOST
  1

  9
$DIMALT
 70
0
  9
$DIMALTD
 70
2
  9
$DIMALTF
 40
25.4
  9
$DIMLFAC
 40
1
  9
$DIMTOFL
 70
0
  9
$DIMTVP
 40
0
  9
$DIMTIX
 70
0
  9
$DIMSOXD
 70
0
  9
$DIMSAH
 70
0
  9
$DIMBLK1
  1

  9
$DIMBLK2
  1

  9
$DIMSTYLE
  2
*UNNAMED
  9
$DIMCLRD
 70
0
  9
$DIMCLRE
 70
0
  9
$DIMCLRT
 70
0
  9
$DIMTFAC
 40
1
  9
$DIMGAP
 40
0.09
  9
$LUNITS
 70
2
  9
$LUPREC
 70
4
  9
$AXISMODE
 70
0
  9
$AXISUNIT
 10
0
 20
0
  9
$SKETCHINC
 40
0.1
  9
$FILLETRAD
 40
2
  9
$AUNITS
 70
0
  9
$AUPREC
 70
0
  9
$MENU
  1
ACAD
  9
$ELEVATION
 40
0
  9
$THICKNESS
 40
0
  9
$VIEWDIR
 10
0
 20
0
 30
1
  9
$LIMCHECK
 70
0
  9
$BLIPMODE
 70
1
  9
$CHAMFERA
 40
0
  9
$CHAMFERB
 40
0
  9
$FASTZOOM
 70
1
  9
$SKPOLY
 70
0
  9
$ANGBASE
 50
0
  9
$ANGDIR
 70
0
  9
$PDMODE
 70
0
  9
$PDSIZE
 40
0
  9
$PLINEWID
 40
0
  9
$COORDS
 70
2
  0
ENDSEC
  0
SECTION
  2
TABLES
  0
TABLE
  2
DIMSTYLE
 70
0
  0
ENDTAB
  0
TABLE
  2
LTYPE
 70
9
  0
LTYPE
  2
CONTINUOUS
 70
64
  3
Solid line
 72
65
 73
0
 40
0
  0
LTYPE
  2
BORDER
 70
64
  3
__ __ . __ __ .
 72
65
 73
6
 40
7
 49
2
 49
-1
 49
2
 49
-1
 49
0
 49
-1
  0
LTYPE
  2
CENTER
 70
64
  3
____ _ ____ _
 72
65
 73
4
 40
8
 49
5
 49
-1
 49
1
 49
-1
  0
LTYPE
  2
DASHDOT
 70
64
  3
__ . __ . __ .
 72
65
 73
4
 40
4
 49
2
 49
-1
 49
0
 49
-1
  0
LTYPE
  2
DASHED
 70
64
  3
__ __ __ __ __
 72
65
 73
2
 40
3
 49
2
 49
-1
  0
LTYPE
  2
DIVIDE
 70
64
  3
__ . . __ . . 
 72
65
 73
6
 40
5
 49
2
 49
-1
 49
0
 49
-1
 49
0
 49
-1
  0
LTYPE
  2
DOT
 70
64
  3
..............
 72
65
 73
4
 40
2
 49
0
 49
-1
 49
0
 49
-1
  0
LTYPE
  2
HIDDEN
 70
64
  3
_ _ _ _ _ _ _
 72
65
 73
2
 40
1.5
 49
1
 49
-0.5
  0
LTYPE
  2
PHANTOM
 70
64
  3
_____ _ _ _____ _ _ 
 72
65
 73
6
 40
10
 49
5
 49
-1
 49
1
 49
-1
 49
1
 49
-1
  0
ENDTAB
  0
TABLE
  2
LAYER
 70
3
  0
LAYER
  2
1
 70
0
 62
7
  6
CONTINUOUS
  0
LAYER
  2
0
 70
0
 62
7
  6
CONTINUOUS
  0
ENDTAB
  0
TABLE
  2
STYLE
 70
4
  0
STYLE
  2
STANDARD
 70
0
 40
0
 41
1
 50
0
 71
0
 42
3.5
  3
txt
  4

  0
STYLE
  2
SIMPLEX
 70
0
 40
0
 41
1
 50
0
 71
0
 42
3.5
  3
simplex
  4

  0
STYLE
  2
COMPLEX
 70
0
 40
0
 41
1
 50
0
 71
0
 42
3.5
  3
complex
  4

  0
STYLE
  2
ITALIC
 70
0
 40
0
 41
1
 50
0
 71
0
 42
3.5
  3
italic
  4

  0
ENDTAB
  0
TABLE
  2
VIEW
 70
0
  0
ENDTAB
  0
ENDSEC
  0
SECTION
  2
BLOCKS
  0
ENDSEC
  0
SECTION
  2
ENTITIES
  0
LINE
  8
1
 62
7
 10
188.7491008189576
 20
209.3648068519939
 30
0
 11
186.2491008189576
 21
209.3648068519939
 31
0
  0
LINE
  8
1
 62
7
 10
186.2491008189576
 20
226.1945424411232
 30
0
 11
188.7491008189576
 21
226.1945424411232
 31
0
  0
LINE
  8
1
 62
3
  6
DASHED
 10
213.7491008189579
 20
213.7796746465586
 30
0
 11
188.7491008189576
 21
213.7796746465586
 31
0
  0
LINE
  8
1
 62
3
  6
DASHED
 10
188.7491008189576
 20
221.7796746465586
 30
0
 11
213.7491008189579
 21
221.7796746465586
 31
0
  0
LINE
  8
1
 62
7
 10
128.9420376178892
 20
223.824081742615
 30
0
 11
128.3446948126805
 21
224.7481986316371
 31
0
  0
LINE
  8
1
 62
7
 10
137.3535068252347
 20
224.7481986316371
 30
0
 11
136.756164020026
 21
223.824081742615
 31
0
  0
LINE
  8
1
 62
7
 10
128.3446948126805
 20
210.8111506614802
 30
0
 11
128.9420376178892
 21
211.7352675505022
 31
0
  0
LINE
  8
1
 62
7
 10
136.756164020026
 20
211.7352675505022
 30
0
 11
137.3535068252347
 21
210.8111506614802
 31
0
  0
LINE
  8
1
 62
7
 10
188.7491008189576
 20
207.7796746465586
 30
0
 11
208.7491008189577
 21
207.7796746465586
 31
0
  0
LINE
  8
1
 62
7
 10
186.2491008189576
 20
209.2796746465586
 30
0
 11
188.7491008189576
 21
209.2796746465586
 31
0
  0
LINE
  8
1
 62
7
 10
186.2491008189576
 20
212.2796746465586
 30
0
 11
186.2491008189576
 21
209.2796746465586
 31
0
  0
LINE
  8
1
 62
7
 10
188.7491008189576
 20
212.2796746465586
 30
0
 11
186.2491008189576
 21
212.2796746465586
 31
0
  0
LINE
  8
1
 62
7
 10
189.7491008189576
 20
216.8796746465586
 30
0
 11
191.1491008189576
 21
216.8796746465586
 31
0
  0
LINE
  8
1
 62
7
 10
189.7491008189576
 20
216.8796746465586
 30
0
 11
189.7491008189576
 21
207.7796746465586
 31
0
  0
LINE
  8
1
 62
7
 10
206.3491008189577
 20
216.8796746465586
 30
0
 11
207.7491008189577
 21
216.8796746465586
 31
0
  0
LINE
  8
1
 62
7
 10
207.7491008189577
 20
207.7796746465586
 30
0
 11
207.7491008189577
 21
216.8796746465586
 31
0
  0
LINE
  8
1
 62
7
 10
131.6491008189576
 20
212.4121798864307
 30
0
 11
131.6491008189576
 21
209.364806851994
 31
0
  0
LINE
  8
1
 62
7
 10
134.0491008189577
 20
212.4121798864307
 30
0
 11
134.0491008189577
 21
209.364806851994
 31
0
  0
LINE
  8
1
 62
7
 10
131.6491008189576
 20
226.1945424411232
 30
0
 11
131.6491008189576
 21
223.1471694066864
 31
0
  0
LINE
  8
1
 62
7
 10
134.0491008189577
 20
226.1945424411232
 30
0
 11
134.0491008189577
 21
223.1471694066864
 31
0
  0
LINE
  8
1
 62
7
 10
259.4502583504279
 20
216.7296746465586
 30
0
 11
260.9893728492685
 21
216.7296746465586
 31
0
  0
LINE
  8
1
 62
7
 10
259.4502583504279
 20
218.8296746465586
 30
0
 11
260.9893728492685
 21
218.8296746465586
 31
0
  0
LINE
  8
1
 62
7
 10
268.7088287886468
 20
216.7296746465586
 30
0
 11
270.2479432874874
 21
216.7296746465586
 31
0
  0
LINE
  8
1
 62
7
 10
268.7088287886468
 20
218.8296746465586
 30
0
 11
270.2479432874874
 21
218.8296746465586
 31
0
  0
LINE
  8
1
 62
7
 10
213.7491008189579
 20
216.7296746465585
 30
0
 11
210.7991008189579
 21
216.7296746465585
 31
0
  0
LINE
  8
1
 62
7
 10
213.7491008189579
 20
216.7296746465585
 30
0
 11
213.7491008189579
 21
212.2796746465586
 31
0
  0
LINE
  8
1
 62
7
 10
208.7491008189577
 20
212.2796746465586
 30
0
 11
213.7491008189579
 21
212.2796746465586
 31
0
  0
LINE
  8
1
 62
7
 10
208.7491008189577
 20
227.7796746465586
 30
0
 11
188.7491008189576
 21
227.7796746465586
 31
0
  0
LINE
  8
1
 62
7
 10
188.7491008189576
 20
226.2796746465586
 30
0
 11
186.2491008189576
 21
226.2796746465586
 31
0
  0
LINE
  8
1
 62
7
 10
186.2491008189576
 20
226.2796746465586
 30
0
 11
186.2491008189576
 21
223.2796746465586
 31
0
  0
LINE
  8
1
 62
7
 10
186.2491008189576
 20
223.2796746465586
 30
0
 11
188.7491008189576
 21
223.2796746465586
 31
0
  0
LINE
  8
1
 62
7
 10
188.7491008189576
 20
227.7796746465586
 30
0
 11
188.7491008189576
 21
207.7796746465586
 31
0
  0
LINE
  8
1
 62
7
 10
208.7491008189577
 20
227.7796746465586
 30
0
 11
208.7491008189577
 21
207.7796746465586
 31
0
  0
LINE
  8
1
 62
7
 10
191.1491008189576
 20
218.6796746465586
 30
0
 11
189.7491008189576
 21
218.6796746465586
 31
0
  0
LINE
  8
1
 62
7
 10
191.1491008189576
 20
218.6796746465586
 30
0
 11
191.1491008189576
 21
216.8796746465586
 31
0
  0
LINE
  8
1
 62
7
 10
189.7491008189576
 20
227.7796746465586
 30
0
 11
189.7491008189576
 21
218.6796746465586
 31
0
  0
LINE
  8
1
 62
7
 10
206.3491008189577
 20
218.6796746465586
 30
0
 11
206.3491008189577
 21
216.8796746465586
 31
0
  0
LINE
  8
1
 62
7
 10
207.7491008189577
 20
218.6796746465586
 30
0
 11
206.3491008189577
 21
218.6796746465586
 31
0
  0
LINE
  8
1
 62
7
 10
207.7491008189577
 20
218.6796746465586
 30
0
 11
207.7491008189577
 21
227.7796746465586
 31
0
  0
LINE
  8
1
 62
7
 10
210.7991008189579
 20
218.8296746465586
 30
0
 11
213.7491008189579
 21
218.8296746465586
 31
0
  0
LINE
  8
1
 62
7
 10
213.7491008189579
 20
223.2796746465586
 30
0
 11
213.7491008189579
 21
218.8296746465586
 31
0
  0
LINE
  8
1
 62
7
 10
213.7491008189579
 20
223.2796746465586
 30
0
 11
208.7491008189577
 21
223.2796746465586
 31
0
  0
LINE
  8
1
 62
3
  6
DASHDOT
 10
135.3491008189576
 20
217.7796746465586
 30
0
 11
130.3491008189576
 21
217.7796746465586
 31
0
  0
LINE
  8
1
 62
3
  6
DASHDOT
 10
132.8491008189576
 20
220.2796746465586
 30
0
 11
132.8491008189576
 21
215.2796746465586
 31
0
  0
LINE
  8
1
 62
3
  6
DASHDOT
 10
267.3491008189576
 20
217.7796746465586
 30
0
 11
262.3491008189576
 21
217.7796746465586
 31
0
  0
LINE
  8
1
 62
3
  6
DASHDOT
 10
264.8491008189576
 20
220.2796746465586
 30
0
 11
264.8491008189576
 21
215.2796746465586
 31
0
  0
LINE
  8
1
 62
3
  6
DASHDOT
 10
188.7491008189576
 20
217.7796746465586
 30
0
 11
185.7491008189576
 21
217.7796746465586
 31
0
  0
LINE
  8
1
 62
3
  6
DASHDOT
 10
213.7491008189579
 20
217.7796746465586
 30
0
 11
216.7491008189579
 21
217.7796746465586
 31
0
  0
ARC
  8
1
 62
7
 10
129.1100026288229
 20
223.9326531711864
 30
0
 40
0.1999999999999778
 50
212.8783495643701
 51
301.2865953877829
  0
ARC
  8
1
 62
7
 10
128.1767298017468
 20
224.6396272030657
 30
0
 40
0.1999999999999932
 50
32.87834956437693
 51
124.2591043987332
  0
ARC
  8
1
 62
7
 10
136.5881990090923
 20
223.9326531711864
 30
0
 40
0.1999999999999348
 50
238.7134046122102
 51
327.1216504356299
  0
ARC
  8
1
 62
7
 10
137.5214718361684
 20
224.6396272030657
 30
0
 40
0.2000000000000545
 50
55.74089560126004
 51
147.1216504356231
  0
ARC
  8
1
 62
7
 10
129.1100026288229
 20
211.6266961219308
 30
0
 40
0.19999999999992
 50
58.71340461221712
 51
147.1216504356299
  0
ARC
  8
1
 62
7
 10
128.1767298017468
 20
210.9197220900515
 30
0
 40
0.2000000000000385
 50
235.7408956012667
 51
327.1216504356573
  0
ARC
  8
1
 62
7
 10
136.5881990090923
 20
211.6266961219308
 30
0
 40
0.1999999999999778
 50
32.87834956437009
 51
121.2865953877898
  0
ARC
  8
1
 62
7
 10
137.5214718361684
 20
210.9197220900515
 30
0
 40
0.199999999999916
 50
212.8783495643428
 51
304.2591043987601
  0
ARC
  8
1
 62
7
 10
210.7991008189579
 20
217.7796746465586
 30
0
 40
1.050000000000011
 50
90
 51
270
  0
ARC
  8
1
 62
7
 10
132.8491008189576
 20
217.7796746465586
 30
0
 40
6.249999999999981
 50
101.0695249733731
 51
258.9304750266268
  0
ARC
  8
1
 62
7
 10
132.8491008189576
 20
217.7796746465586
 30
0
 40
6.25
 50
0
 51
78.93047502662589
  0
ARC
  8
1
 62
7
 10
132.8491008189576
 20
217.7796746465586
 30
0
 40
6.249999999999975
 50
281.0695249733742
 51
0
  0
ARC
  8
1
 62
7
 10
132.8491008189576
 20
217.7796746465586
 30
0
 40
7.000000000000034
 50
58.71340461220807
 51
80.12911039385971
  0
ARC
  8
1
 62
7
 10
132.8491008189576
 20
217.7796746465586
 30
0
 40
7.000000000000034
 50
238.7134046122081
 51
260.1291103938606
  0
ARC
  8
1
 62
7
 10
132.8491008189576
 20
217.7796746465586
 30
0
 40
7.00000000000005
 50
99.87088960613937
 51
121.286595387792
  0
ARC
  8
1
 62
7
 10
132.8491008189576
 20
217.7796746465586
 30
0
 40
8.500000000000084
 50
304.2591043987313
 51
55.74089560126916
  0
ARC
  8
1
 62
7
 10
132.8491008189576
 20
217.7796746465586
 30
0
 40
7.00000000000004
 50
279.8708896061403
 51
301.2865953877919
  0
ARC
  8
1
 62
7
 10
132.8491008189576
 20
217.7796746465586
 30
0
 40
8.50000000000002
 50
124.2591043987307
 51
235.7408956012693
  0
ARC
  8
1
 62
7
 10
132.8491008189576
 20
217.7796746465586
 30
0
 40
5.500000000000036
 50
257.3977351585352
 51
282.602264841466
  0
ARC
  8
1
 62
7
 10
132.8491008189576
 20
217.7796746465586
 30
0
 40
8.500000000000027
 50
261.8840707591988
 51
278.115929240802
  0
ARC
  8
1
 62
7
 10
132.8491008189576
 20
217.7796746465586
 30
0
 40
5.499999999999979
 50
77.39773515853381
 51
102.602264841465
  0
ARC
  8
1
 62
7
 10
132.8491008189576
 20
217.7796746465586
 30
0
 40
8.500000000000044
 50
81.88407075919801
 51
98.11592924080124
  0
CIRCLE
  8
1
 62
7
 10
264.8491008189576
 20
217.7796746465586
 30
0
 40
10
  0
CIRCLE
  8
1
 62
7
 10
132.8491008189576
 20
217.7796746465586
 30
0
 40
10
  0
CIRCLE
  8
1
 62
7
 10
264.8491008189576
 20
217.7796746465586
 30
0
 40
5.5
  0
CIRCLE
  8
1
 62
7
 10
132.8491008189576
 20
217.7796746465586
 30
0
 40
5
  0
CIRCLE
  8
1
 62
7
 10
132.8491008189576
 20
217.7796746465586
 30
0
 40
4
  0
CIRCLE
  8
1
 62
7
 10
264.8491008189576
 20
217.7796746465586
 30
0
 40
4
  0
TEXT
  8
1
 62
7
 10
123.440094107699
 20
237.949889771381
 30
0
 40
2
  1
OPL 0.6R
 41
0.9
  7
SIMPLEX
 72
1
 11
130.640094107699
 21
237.949889771381
 31
0
  0
TEXT
  8
1
 62
7
 10
123.971116365584
 20
234.570990097706
 30
0
 40
2
  1
DC6502
 41
0.9
  7
SIMPLEX
 72
1
 11
129.371116365584
 21
234.570990097706
 31
0
  0
ENDSEC
  0
EOF
