  0
SECTION
  2
HEADER
  9
$ACADVER
  1
AC1009
  9
$INSBASE
 10
0
 20
0
  9
$EXTMIN
 10
29.8491008189576
 20
131.7796746465586
  9
$EXTMAX
 10
180.3393177161256
 20
165.077608975345
  9
$LIMMIN
 10
29.8491008189576
 20
131.7796746465586
  9
$LIMMAX
 10
180.3393177161256
 20
165.077608975345
  9
$VIEWCTR
 10
10
 20
10
  9
$VIEWSIZE
 40
10
  9
$SNAPMODE
 70
0
  9
$SNAPUNIT
 10
1
 20
1
  9
$SNAPBASE
 10
0
 20
0
  9
$SNAPANG
 50
0
  9
$SNAPSTYLE
 70
0
  9
$SNAPISOPAIR
 70
0
  9
$GRIDMODE
 70
0
  9
$GRIDUNIT
 10
0
 20
0
  9
$ORTHOMODE
 70
0
  9
$REGENMODE
 70
1
  9
$FILLMODE
 70
1
  9
$QTEXTMODE
 70
0
  9
$DRAGMODE
 70
2
  9
$LTSCALE
 40
1
  9
$OSMODE
 70
0
  9
$ATTMODE
 70
1
  9
$TEXTSIZE
 40
3.5
  9
$TRACEWID
 40
0.5
  9
$TEXTSTYLE
  7
STANDARD
  9
$CLAYER
  8
0
  9
$CELTYPE
  6
BYLAYER
  9
$CECOLOR
 62
256
  9
$DIMSCALE
 40
1
  9
$DIMASZ
 40
0.18
  9
$DIMEXO
 40
0.0625
  9
$DIMDLI
 40
0.38
  9
$DIMRND
 40
0
  9
$DIMDLE
 40
0
  9
$DIMEXE
 40
0.18
  9
$DIMTP
 40
0
  9
$DIMTM
 40
0
  9
$DIMTXT
 40
0.18
  9
$DIMCEN
 40
0.09
  9
$DIMTSZ
 40
0
  9
$DIMTOL
 70
0
  9
$DIMLIM
 70
0
  9
$DIMTIH
 70
1
  9
$DIMTOH
 70
1
  9
$DIMSE1
 70
0
  9
$DIMSE2
 70
0
  9
$DIMTAD
 70
0
  9
$DIMZIN
 70
0
  9
$DIMBLK
  1

  9
$DIMASO
 70
1
  9
$DIMSHO
 70
1
  9
$DIMPOST
  1

  9
$DIMAPOST
  1

  9
$DIMALT
 70
0
  9
$DIMALTD
 70
2
  9
$DIMALTF
 40
25.4
  9
$DIMLFAC
 40
1
  9
$DIMTOFL
 70
0
  9
$DIMTVP
 40
0
  9
$DIMTIX
 70
0
  9
$DIMSOXD
 70
0
  9
$DIMSAH
 70
0
  9
$DIMBLK1
  1

  9
$DIMBLK2
  1

  9
$DIMSTYLE
  2
*UNNAMED
  9
$DIMCLRD
 70
0
  9
$DIMCLRE
 70
0
  9
$DIMCLRT
 70
0
  9
$DIMTFAC
 40
1
  9
$DIMGAP
 40
0.09
  9
$LUNITS
 70
2
  9
$LUPREC
 70
4
  9
$AXISMODE
 70
0
  9
$AXISUNIT
 10
0
 20
0
  9
$SKETCHINC
 40
0.1
  9
$FILLETRAD
 40
2
  9
$AUNITS
 70
0
  9
$AUPREC
 70
0
  9
$MENU
  1
ACAD
  9
$ELEVATION
 40
0
  9
$THICKNESS
 40
0
  9
$VIEWDIR
 10
0
 20
0
 30
1
  9
$LIMCHECK
 70
0
  9
$BLIPMODE
 70
1
  9
$CHAMFERA
 40
0
  9
$CHAMFERB
 40
0
  9
$FASTZOOM
 70
1
  9
$SKPOLY
 70
0
  9
$ANGBASE
 50
0
  9
$ANGDIR
 70
0
  9
$PDMODE
 70
0
  9
$PDSIZE
 40
0
  9
$PLINEWID
 40
0
  9
$COORDS
 70
2
  0
ENDSEC
  0
SECTION
  2
TABLES
  0
TABLE
  2
DIMSTYLE
 70
0
  0
ENDTAB
  0
TABLE
  2
LTYPE
 70
9
  0
LTYPE
  2
CONTINUOUS
 70
64
  3
Solid line
 72
65
 73
0
 40
0
  0
LTYPE
  2
BORDER
 70
64
  3
__ __ . __ __ .
 72
65
 73
6
 40
6.930470515001159
 49
1.980134432857474
 49
-0.990067216428737
 49
1.980134432857474
 49
-0.990067216428737
 49
0
 49
-0.990067216428737
  0
LTYPE
  2
CENTER
 70
64
  3
____ _ ____ _
 72
65
 73
4
 40
7.920537731429896
 49
4.950336082143685
 49
-0.990067216428737
 49
0.990067216428737
 49
-0.990067216428737
  0
LTYPE
  2
DASHDOT
 70
64
  3
__ . __ . __ .
 72
65
 73
4
 40
3.960268865714948
 49
1.980134432857474
 49
-0.990067216428737
 49
0
 49
-0.990067216428737
  0
LTYPE
  2
DASHED
 70
64
  3
__ __ __ __ __
 72
65
 73
2
 40
2.970201649286211
 49
1.980134432857474
 49
-0.990067216428737
  0
LTYPE
  2
DIVIDE
 70
64
  3
__ . . __ . . 
 72
65
 73
6
 40
4.950336082143685
 49
1.980134432857474
 49
-0.990067216428737
 49
0
 49
-0.990067216428737
 49
0
 49
-0.990067216428737
  0
LTYPE
  2
DOT
 70
64
  3
..............
 72
65
 73
4
 40
1.980134432857474
 49
0
 49
-0.990067216428737
 49
0
 49
-0.990067216428737
  0
LTYPE
  2
HIDDEN
 70
64
  3
_ _ _ _ _ _ _
 72
65
 73
2
 40
1.485100824643105
 49
0.990067216428737
 49
-0.4950336082143685
  0
LTYPE
  2
PHANTOM
 70
64
  3
_____ _ _ _____ _ _ 
 72
65
 73
6
 40
9.90067216428737
 49
4.950336082143685
 49
-0.990067216428737
 49
0.990067216428737
 49
-0.990067216428737
 49
0.990067216428737
 49
-0.990067216428737
  0
ENDTAB
  0
TABLE
  2
LAYER
 70
3
  0
LAYER
  2
1
 70
0
 62
7
  6
CONTINUOUS
  0
LAYER
  2
0
 70
0
 62
7
  6
CONTINUOUS
  0
ENDTAB
  0
TABLE
  2
STYLE
 70
4
  0
STYLE
  2
STANDARD
 70
0
 40
0
 41
1
 50
0
 71
0
 42
3.5
  3
txt
  4

  0
STYLE
  2
SIMPLEX
 70
0
 40
0
 41
1
 50
0
 71
0
 42
3.5
  3
simplex
  4

  0
STYLE
  2
COMPLEX
 70
0
 40
0
 41
1
 50
0
 71
0
 42
3.5
  3
complex
  4

  0
STYLE
  2
ITALIC
 70
0
 40
0
 41
1
 50
0
 71
0
 42
3.5
  3
italic
  4

  0
ENDTAB
  0
TABLE
  2
VIEW
 70
0
  0
ENDTAB
  0
ENDSEC
  0
SECTION
  2
BLOCKS
  0
ENDSEC
  0
SECTION
  2
ENTITIES
  0
LINE
  8
1
 62
3
  6
DASHDOT
 10
170.3393177161256
 20
144.2796746465586
 30
0
 11
170.3393177161256
 21
139.2796746465586
 31
0
  0
LINE
  8
1
 62
3
  6
DASHDOT
 10
172.8393177161256
 20
141.7796746465586
 30
0
 11
167.8393177161256
 21
141.7796746465586
 31
0
  0
LINE
  8
1
 62
3
  6
DASHDOT
 10
39.8491008189576
 20
144.2796746465586
 30
0
 11
39.8491008189576
 21
139.2796746465586
 31
0
  0
LINE
  8
1
 62
3
  6
DASHDOT
 10
42.3491008189576
 20
141.7796746465586
 30
0
 11
37.34910081895759
 21
141.7796746465586
 31
0
  0
LINE
  8
1
 62
3
  6
DASHED
 10
122.7393177161259
 20
137.7796746465586
 30
0
 11
90.7393177161256
 21
137.7796746465586
 31
0
  0
LINE
  8
1
 62
3
  6
DASHED
 10
90.7393177161256
 20
145.7796746465586
 30
0
 11
122.7393177161259
 21
145.7796746465586
 31
0
  0
LINE
  8
1
 62
7
 10
117.7393177161257
 20
151.7796746465586
 30
0
 11
90.7393177161256
 21
151.7796746465586
 31
0
  0
LINE
  8
1
 62
7
 10
90.7393177161256
 20
150.2796746465586
 30
0
 11
88.2393177161256
 21
150.2796746465586
 31
0
  0
LINE
  8
1
 62
7
 10
88.2393177161256
 20
150.2796746465586
 30
0
 11
88.2393177161256
 21
147.2796746465586
 31
0
  0
LINE
  8
1
 62
7
 10
88.2393177161256
 20
147.2796746465586
 30
0
 11
90.7393177161256
 21
147.2796746465586
 31
0
  0
LINE
  8
1
 62
7
 10
90.7393177161256
 20
151.7796746465586
 30
0
 11
90.7393177161256
 21
131.7796746465586
 31
0
  0
LINE
  8
1
 62
7
 10
117.7393177161257
 20
151.7796746465586
 30
0
 11
117.7393177161257
 21
131.7796746465586
 31
0
  0
LINE
  8
1
 62
7
 10
93.1393177161256
 20
142.6796746465586
 30
0
 11
91.7393177161256
 21
142.6796746465586
 31
0
  0
LINE
  8
1
 62
7
 10
93.1393177161256
 20
142.6796746465586
 30
0
 11
93.1393177161256
 21
140.8796746465586
 31
0
  0
LINE
  8
1
 62
7
 10
91.7393177161256
 20
151.7796746465586
 30
0
 11
91.7393177161256
 21
142.6796746465586
 31
0
  0
LINE
  8
1
 62
7
 10
115.3393177161257
 20
142.6796746465586
 30
0
 11
115.3393177161257
 21
140.8796746465586
 31
0
  0
LINE
  8
1
 62
7
 10
116.7393177161257
 20
142.6796746465586
 30
0
 11
115.3393177161257
 21
142.6796746465586
 31
0
  0
LINE
  8
1
 62
7
 10
116.7393177161257
 20
142.6796746465586
 30
0
 11
116.7393177161257
 21
151.7796746465586
 31
0
  0
LINE
  8
1
 62
7
 10
119.7893177161259
 20
142.8296746465587
 30
0
 11
122.7393177161259
 21
142.8296746465587
 31
0
  0
LINE
  8
1
 62
7
 10
122.7393177161259
 20
147.2796746465586
 30
0
 11
122.7393177161259
 21
142.8296746465587
 31
0
  0
LINE
  8
1
 62
7
 10
122.7393177161259
 20
147.2796746465586
 30
0
 11
117.7393177161257
 21
147.2796746465586
 31
0
  0
LINE
  8
1
 62
7
 10
35.94203761788922
 20
147.824081742615
 30
0
 11
35.34469481268051
 21
148.7481986316371
 31
0
  0
LINE
  8
1
 62
7
 10
44.3535068252347
 20
148.7481986316371
 30
0
 11
43.75616402002601
 21
147.824081742615
 31
0
  0
LINE
  8
1
 62
7
 10
35.34469481268051
 20
134.8111506614802
 30
0
 11
35.94203761788922
 21
135.7352675505022
 31
0
  0
LINE
  8
1
 62
7
 10
43.75616402002601
 20
135.7352675505022
 30
0
 11
44.3535068252347
 21
134.8111506614802
 31
0
  0
LINE
  8
1
 62
7
 10
90.7393177161256
 20
131.7796746465586
 30
0
 11
117.7393177161257
 21
131.7796746465586
 31
0
  0
LINE
  8
1
 62
7
 10
88.2393177161256
 20
133.2796746465586
 30
0
 11
90.7393177161256
 21
133.2796746465586
 31
0
  0
LINE
  8
1
 62
7
 10
88.2393177161256
 20
136.2796746465586
 30
0
 11
88.2393177161256
 21
133.2796746465586
 31
0
  0
LINE
  8
1
 62
7
 10
90.7393177161256
 20
136.2796746465586
 30
0
 11
88.2393177161256
 21
136.2796746465586
 31
0
  0
LINE
  8
1
 62
7
 10
91.7393177161256
 20
140.8796746465586
 30
0
 11
93.1393177161256
 21
140.8796746465586
 31
0
  0
LINE
  8
1
 62
7
 10
91.7393177161256
 20
140.8796746465586
 30
0
 11
91.7393177161256
 21
131.7796746465586
 31
0
  0
LINE
  8
1
 62
7
 10
115.3393177161257
 20
140.8796746465586
 30
0
 11
116.7393177161257
 21
140.8796746465586
 31
0
  0
LINE
  8
1
 62
7
 10
116.7393177161257
 20
131.7796746465586
 30
0
 11
116.7393177161257
 21
140.8796746465586
 31
0
  0
LINE
  8
1
 62
7
 10
38.64910081895755
 20
136.4121798864307
 30
0
 11
38.64910081895755
 21
133.364806851994
 31
0
  0
LINE
  8
1
 62
7
 10
41.04910081895764
 20
136.4121798864307
 30
0
 11
41.04910081895764
 21
133.364806851994
 31
0
  0
LINE
  8
1
 62
7
 10
38.64910081895755
 20
150.1945424411232
 30
0
 11
38.64910081895755
 21
147.1471694066864
 31
0
  0
LINE
  8
1
 62
7
 10
41.04910081895764
 20
150.1945424411232
 30
0
 11
41.04910081895764
 21
147.1471694066864
 31
0
  0
LINE
  8
1
 62
7
 10
164.9404752475959
 20
140.7296746465586
 30
0
 11
166.4795897464365
 21
140.7296746465586
 31
0
  0
LINE
  8
1
 62
7
 10
164.9404752475959
 20
142.8296746465586
 30
0
 11
166.4795897464365
 21
142.8296746465586
 31
0
  0
LINE
  8
1
 62
7
 10
174.1990456858147
 20
140.7296746465586
 30
0
 11
175.7381601846554
 21
140.7296746465586
 31
0
  0
LINE
  8
1
 62
7
 10
174.1990456858147
 20
142.8296746465586
 30
0
 11
175.7381601846554
 21
142.8296746465586
 31
0
  0
LINE
  8
1
 62
7
 10
122.7393177161259
 20
140.7296746465585
 30
0
 11
119.7893177161259
 21
140.7296746465585
 31
0
  0
LINE
  8
1
 62
7
 10
122.7393177161259
 20
140.7296746465585
 30
0
 11
122.7393177161259
 21
136.2796746465586
 31
0
  0
LINE
  8
1
 62
7
 10
117.7393177161257
 20
136.2796746465586
 30
0
 11
122.7393177161259
 21
136.2796746465586
 31
0
  0
LINE
  8
1
 62
3
  6
DASHDOT
 10
122.7393177161259
 20
141.7796746465586
 30
0
 11
125.7393177161259
 21
141.7796746465586
 31
0
  0
LINE
  8
1
 62
3
  6
DASHDOT
 10
87.7393177161256
 20
141.7796746465586
 30
0
 11
90.7393177161256
 21
141.7796746465586
 31
0
  0
LINE
  8
1
 62
7
 10
90.7393177161256
 20
133.364806851994
 30
0
 11
88.2393177161256
 21
133.364806851994
 31
0
  0
LINE
  8
1
 62
7
 10
88.2393177161256
 20
150.1945424411232
 30
0
 11
90.7393177161256
 21
150.1945424411232
 31
0
  0
ARC
  8
1
 62
7
 10
39.8491008189576
 20
141.7796746465586
 30
0
 40
6.249999999999993
 50
101.0695249733737
 51
258.9304750266263
  0
ARC
  8
1
 62
7
 10
39.8491008189576
 20
141.7796746465586
 30
0
 40
6.25
 50
0
 51
78.93047502662645
  0
ARC
  8
1
 62
7
 10
39.8491008189576
 20
141.7796746465586
 30
0
 40
6.249999999999963
 50
281.0695249733736
 51
0
  0
ARC
  8
1
 62
7
 10
39.8491008189576
 20
141.7796746465586
 30
0
 40
7.000000000000034
 50
58.71340461220807
 51
80.12911039386029
  0
ARC
  8
1
 62
7
 10
39.8491008189576
 20
141.7796746465586
 30
0
 40
7.000000000000038
 50
238.713404612208
 51
260.1291103938601
  0
ARC
  8
1
 62
7
 10
39.8491008189576
 20
141.7796746465586
 30
0
 40
7.00000000000006
 50
99.8708896061399
 51
121.2865953877922
  0
ARC
  8
1
 62
7
 10
39.8491008189576
 20
141.7796746465586
 30
0
 40
8.500000000000043
 50
304.2591043987309
 51
55.74089560126907
  0
ARC
  8
1
 62
7
 10
39.8491008189576
 20
141.7796746465586
 30
0
 40
7.000000000000029
 50
279.8708896061398
 51
301.2865953877919
  0
ARC
  8
1
 62
7
 10
39.8491008189576
 20
141.7796746465586
 30
0
 40
8.500000000000021
 50
124.2591043987307
 51
235.7408956012692
  0
ARC
  8
1
 62
7
 10
39.8491008189576
 20
141.7796746465586
 30
0
 40
5.500000000000051
 50
257.3977351585345
 51
282.6022648414653
  0
ARC
  8
1
 62
7
 10
39.8491008189576
 20
141.7796746465586
 30
0
 40
8.500000000000036
 50
261.8840707591984
 51
278.1159292408016
  0
ARC
  8
1
 62
7
 10
39.8491008189576
 20
141.7796746465586
 30
0
 40
5.499999999999965
 50
77.39773515853446
 51
102.6022648414657
  0
ARC
  8
1
 62
7
 10
39.8491008189576
 20
141.7796746465586
 30
0
 40
8.500000000000034
 50
81.88407075919842
 51
98.11592924080166
  0
ARC
  8
1
 62
7
 10
119.7893177161259
 20
141.7796746465586
 30
0
 40
1.050000000000097
 50
90
 51
270
  0
ARC
  8
1
 62
7
 10
36.11000262882292
 20
147.9326531711864
 30
0
 40
0.1999999999999778
 50
212.8783495643701
 51
301.2865953877724
  0
ARC
  8
1
 62
7
 10
35.17672980174681
 20
148.6396272030657
 30
0
 40
0.1999999999999932
 50
32.87834956437693
 51
124.2591043987349
  0
ARC
  8
1
 62
7
 10
43.58819900909231
 20
147.9326531711864
 30
0
 40
0.1999999999999311
 50
238.7134046122119
 51
327.1216504356311
  0
ARC
  8
1
 62
7
 10
44.52147183616839
 20
148.6396272030657
 30
0
 40
0.2000000000000665
 50
55.74089560125499
 51
147.1216504356209
  0
ARC
  8
1
 62
7
 10
36.11000262882292
 20
135.6266961219308
 30
0
 40
0.1999999999999163
 50
58.71340461221885
 51
147.1216504356299
  0
ARC
  8
1
 62
7
 10
35.17672980174681
 20
134.9197220900515
 30
0
 40
0.2000000000000465
 50
235.7408956012634
 51
327.1216504356573
  0
ARC
  8
1
 62
7
 10
43.58819900909231
 20
135.6266961219308
 30
0
 40
0.1999999999999837
 50
32.87834956436898
 51
121.2865953877898
  0
ARC
  8
1
 62
7
 10
44.52147183616839
 20
134.9197220900515
 30
0
 40
0.1999999999999041
 50
212.878349564345
 51
304.259104398745
  0
CIRCLE
  8
1
 62
7
 10
170.3393177161256
 20
141.7796746465586
 30
0
 40
5.5
  0
CIRCLE
  8
1
 62
7
 10
39.8491008189576
 20
141.7796746465586
 30
0
 40
5
  0
CIRCLE
  8
1
 62
7
 10
39.8491008189576
 20
141.7796746465586
 30
0
 40
4
  0
CIRCLE
  8
1
 62
7
 10
170.3393177161256
 20
141.7796746465586
 30
0
 40
4
  0
CIRCLE
  8
1
 62
7
 10
39.8491008189576
 20
141.7796746465586
 30
0
 40
10
  0
CIRCLE
  8
1
 62
7
 10
170.3393177161256
 20
141.7796746465586
 30
0
 40
10
  0
TEXT
  8
1
 62
7
 10
29.3232128599571
 20
163.077608975345
 30
0
 40
2
  1
OPL 1.2R
 41
0.9
  7
SIMPLEX
 72
1
 11
36.5232128599571
 21
163.077608975345
 31
0
  0
TEXT
  8
1
 62
7
 10
30.4550423712109
 20
159.402671287241
 30
0
 40
2
  1
DC6503
 41
0.9
  7
SIMPLEX
 72
1
 11
35.8550423712109
 21
159.402671287241
 31
0
  0
ENDSEC
  0
EOF
