  0
SECTION
  2
HEADER
  9
$ACADVER
  1
AC1009
  9
$INSBASE
 10
0
 20
0
  9
$EXTMIN
 10
139.9317747450774
 20
339.3662685832494
  9
$EXTMAX
 10
988.2067368954373
 20
860.1459648263719
  9
$LIMMIN
 10
139.9317747450774
 20
339.3662685832494
  9
$LIMMAX
 10
988.2067368954373
 20
860.1459648263719
  9
$VIEWCTR
 10
10
 20
10
  9
$VIEWSIZE
 40
10
  9
$SNAPMODE
 70
0
  9
$SNAPUNIT
 10
1
 20
1
  9
$SNAPBASE
 10
0
 20
0
  9
$SNAPANG
 50
0
  9
$SNAPSTYLE
 70
0
  9
$SNAPISOPAIR
 70
0
  9
$GRIDMODE
 70
0
  9
$GRIDUNIT
 10
0
 20
0
  9
$ORTHOMODE
 70
0
  9
$REGENMODE
 70
1
  9
$FILLMODE
 70
1
  9
$QTEXTMODE
 70
0
  9
$DRAGMODE
 70
2
  9
$LTSCALE
 40
1
  9
$OSMODE
 70
0
  9
$ATTMODE
 70
1
  9
$TEXTSIZE
 40
3.5
  9
$TRACEWID
 40
0.5
  9
$TEXTSTYLE
  7
STANDARD
  9
$CLAYER
  8
0
  9
$CELTYPE
  6
BYLAYER
  9
$CECOLOR
 62
256
  9
$DIMSCALE
 40
1
  9
$DIMASZ
 40
0.18
  9
$DIMEXO
 40
0.0625
  9
$DIMDLI
 40
0.38
  9
$DIMRND
 40
0
  9
$DIMDLE
 40
0
  9
$DIMEXE
 40
0.18
  9
$DIMTP
 40
0
  9
$DIMTM
 40
0
  9
$DIMTXT
 40
0.18
  9
$DIMCEN
 40
0.09
  9
$DIMTSZ
 40
0
  9
$DIMTOL
 70
0
  9
$DIMLIM
 70
0
  9
$DIMTIH
 70
1
  9
$DIMTOH
 70
1
  9
$DIMSE1
 70
0
  9
$DIMSE2
 70
0
  9
$DIMTAD
 70
0
  9
$DIMZIN
 70
0
  9
$DIMBLK
  1

  9
$DIMASO
 70
1
  9
$DIMSHO
 70
1
  9
$DIMPOST
  1

  9
$DIMAPOST
  1

  9
$DIMALT
 70
0
  9
$DIMALTD
 70
2
  9
$DIMALTF
 40
25.4
  9
$DIMLFAC
 40
1
  9
$DIMTOFL
 70
0
  9
$DIMTVP
 40
0
  9
$DIMTIX
 70
0
  9
$DIMSOXD
 70
0
  9
$DIMSAH
 70
0
  9
$DIMBLK1
  1

  9
$DIMBLK2
  1

  9
$DIMSTYLE
  2
*UNNAMED
  9
$DIMCLRD
 70
0
  9
$DIMCLRE
 70
0
  9
$DIMCLRT
 70
0
  9
$DIMTFAC
 40
1
  9
$DIMGAP
 40
0.09
  9
$LUNITS
 70
2
  9
$LUPREC
 70
4
  9
$AXISMODE
 70
0
  9
$AXISUNIT
 10
0
 20
0
  9
$SKETCHINC
 40
0.1
  9
$FILLETRAD
 40
2
  9
$AUNITS
 70
0
  9
$AUPREC
 70
0
  9
$MENU
  1
ACAD
  9
$ELEVATION
 40
0
  9
$THICKNESS
 40
0
  9
$VIEWDIR
 10
0
 20
0
 30
1
  9
$LIMCHECK
 70
0
  9
$BLIPMODE
 70
1
  9
$CHAMFERA
 40
0
  9
$CHAMFERB
 40
0
  9
$FASTZOOM
 70
1
  9
$SKPOLY
 70
0
  9
$ANGBASE
 50
0
  9
$ANGDIR
 70
0
  9
$PDMODE
 70
0
  9
$PDSIZE
 40
0
  9
$PLINEWID
 40
0
  9
$COORDS
 70
2
  0
ENDSEC
  0
SECTION
  2
TABLES
  0
TABLE
  2
DIMSTYLE
 70
0
  0
ENDTAB
  0
TABLE
  2
LTYPE
 70
9
  0
LTYPE
  2
CONTINUOUS
 70
64
  3
Solid line
 72
65
 73
0
 40
0
  0
LTYPE
  2
BORDER
 70
64
  3
__ __ . __ __ .
 72
65
 73
6
 40
39.06529430955605
 49
11.16151265987316
 49
-5.580756329936579
 49
11.16151265987316
 49
-5.580756329936579
 49
0
 49
-5.580756329936579
  0
LTYPE
  2
CENTER
 70
64
  3
____ _ ____ _
 72
65
 73
4
 40
44.64605063949263
 49
27.90378164968289
 49
-5.580756329936579
 49
5.580756329936579
 49
-5.580756329936579
  0
LTYPE
  2
DASHDOT
 70
64
  3
__ . __ . __ .
 72
65
 73
4
 40
22.32302531974631
 49
11.16151265987316
 49
-5.580756329936579
 49
0
 49
-5.580756329936579
  0
LTYPE
  2
DASHED
 70
64
  3
__ __ __ __ __
 72
65
 73
2
 40
16.74226898980974
 49
11.16151265987316
 49
-5.580756329936579
  0
LTYPE
  2
DIVIDE
 70
64
  3
__ . . __ . . 
 72
65
 73
6
 40
27.90378164968289
 49
11.16151265987316
 49
-5.580756329936579
 49
0
 49
-5.580756329936579
 49
0
 49
-5.580756329936579
  0
LTYPE
  2
DOT
 70
64
  3
..............
 72
65
 73
4
 40
11.16151265987316
 49
0
 49
-5.580756329936579
 49
0
 49
-5.580756329936579
  0
LTYPE
  2
HIDDEN
 70
64
  3
_ _ _ _ _ _ _
 72
65
 73
2
 40
8.371134494904869
 49
5.580756329936579
 49
-2.790378164968289
  0
LTYPE
  2
PHANTOM
 70
64
  3
_____ _ _ _____ _ _ 
 72
65
 73
6
 40
55.80756329936578
 49
27.90378164968289
 49
-5.580756329936579
 49
5.580756329936579
 49
-5.580756329936579
 49
5.580756329936579
 49
-5.580756329936579
  0
ENDTAB
  0
TABLE
  2
LAYER
 70
3
  0
LAYER
  2
1
 70
0
 62
7
  6
CONTINUOUS
  0
LAYER
  2
0
 70
0
 62
7
  6
CONTINUOUS
  0
ENDTAB
  0
TABLE
  2
STYLE
 70
4
  0
STYLE
  2
STANDARD
 70
0
 40
0
 41
1
 50
0
 71
0
 42
3.5
  3
txt
  4

  0
STYLE
  2
SIMPLEX
 70
0
 40
0
 41
1
 50
0
 71
0
 42
3.5
  3
simplex
  4

  0
STYLE
  2
COMPLEX
 70
0
 40
0
 41
1
 50
0
 71
0
 42
3.5
  3
complex
  4

  0
STYLE
  2
ITALIC
 70
0
 40
0
 41
1
 50
0
 71
0
 42
3.5
  3
italic
  4

  0
ENDTAB
  0
TABLE
  2
VIEW
 70
0
  0
ENDTAB
  0
ENDSEC
  0
SECTION
  2
BLOCKS
  0
ENDSEC
  0
SECTION
  2
ENTITIES
  0
LINE
  8
1
 62
3
  6
DIVIDE
 10
945.7067368954373
 20
435.5340058088982
 30
0
 11
945.7067368954373
 21
379.5340058088982
 31
0
  0
LINE
  8
1
 62
3
  6
DIVIDE
 10
963.2067368954373
 20
402.8662685832496
 30
0
 11
964.0067368954373
 21
403.6662685832496
 31
0
  0
LINE
  8
1
 62
3
  6
DIVIDE
 10
960.5067368954373
 20
407.1662685832496
 30
0
 11
959.7067368954373
 21
406.3662685832496
 31
0
  0
LINE
  8
1
 62
3
  6
DIVIDE
 10
964.0067368954373
 20
407.1662685832496
 30
0
 11
960.5067368954373
 21
407.1662685832496
 31
0
  0
LINE
  8
1
 62
3
  6
DIVIDE
 10
980.7067368954373
 20
388.8662685832496
 30
0
 11
980.7067368954373
 21
428.8662685832496
 31
0
  0
LINE
  8
1
 62
3
  6
DIVIDE
 10
980.7067368954373
 20
388.8662685832496
 30
0
 11
975.7067368954373
 21
383.8662685832496
 31
0
  0
LINE
  8
1
 62
3
  6
DIVIDE
 10
965.2067368954373
 20
383.8662685832496
 30
0
 11
975.7067368954373
 21
383.8662685832496
 31
0
  0
LINE
  8
1
 62
3
  6
DIVIDE
 10
965.2067368954373
 20
383.8662685832496
 30
0
 11
963.2067368954373
 21
385.8662685832496
 31
0
  0
LINE
  8
1
 62
3
  6
DIVIDE
 10
963.2067368954373
 20
405.1847986993703
 30
0
 11
963.2067368954373
 21
385.8662685832496
 31
0
  0
LINE
  8
1
 62
3
  6
DIVIDE
 10
964.0067368954373
 20
403.6662685832496
 30
0
 11
964.0067368954373
 21
407.1662685832496
 31
0
  0
LINE
  8
1
 62
3
  6
DIVIDE
 10
931.7067368954373
 20
406.3662685832496
 30
0
 11
959.7067368954373
 21
406.3662685832496
 31
0
  0
LINE
  8
1
 62
3
  6
DIVIDE
 10
931.7067368954373
 20
406.3662685832496
 30
0
 11
930.9067368954374
 21
407.1662685832496
 31
0
  0
LINE
  8
1
 62
3
  6
DIVIDE
 10
930.9067368954374
 20
407.1662685832496
 30
0
 11
927.4067368954374
 21
407.1662685832496
 31
0
  0
LINE
  8
1
 62
3
  6
DIVIDE
 10
927.4067368954374
 20
407.1662685832496
 30
0
 11
927.4067368954374
 21
403.6662685832496
 31
0
  0
LINE
  8
1
 62
3
 10
927.4067368954374
 20
403.6662685832496
 30
0
 11
928.2067368954373
 21
402.8662685832496
 31
0
  0
LINE
  8
1
 62
3
  6
DIVIDE
 10
928.2067368954373
 20
405.1847986993703
 30
0
 11
928.2067368954373
 21
385.8662685832494
 31
0
  0
LINE
  8
1
 62
3
  6
DIVIDE
 10
928.2067368954373
 20
385.8662685832494
 30
0
 11
926.2067368954373
 21
383.8662685832496
 31
0
  0
LINE
  8
1
 62
3
  6
DIVIDE
 10
915.7067368954373
 20
383.8662685832496
 30
0
 11
926.2067368954373
 21
383.8662685832496
 31
0
  0
LINE
  8
1
 62
3
  6
DIVIDE
 10
910.7067368954373
 20
388.8662685832496
 30
0
 11
915.7067368954373
 21
383.8662685832496
 31
0
  0
LINE
  8
1
 62
3
  6
DIVIDE
 10
910.7067368954373
 20
435.5340058088982
 30
0
 11
910.7067368954373
 21
379.5340058088982
 31
0
  0
LINE
  8
1
 62
3
  6
DIVIDE
 10
910.7067368954373
 20
388.8662685832496
 30
0
 11
910.7067368954373
 21
428.8662685832496
 31
0
  0
LINE
  8
1
 62
3
  6
DIVIDE
 10
980.7067368954373
 20
673.8662685832496
 30
0
 11
980.7067368954373
 21
713.8662685832496
 31
0
  0
LINE
  8
1
 62
3
  6
DIVIDE
 10
975.7067368954373
 20
718.8662685832496
 30
0
 11
980.7067368954373
 21
713.8662685832496
 31
0
  0
LINE
  8
1
 62
3
  6
DIVIDE
 10
975.7067368954373
 20
718.8662685832496
 30
0
 11
965.2067368954373
 21
718.8662685832496
 31
0
  0
LINE
  8
1
 62
3
  6
DIVIDE
 10
963.2067368954373
 20
716.8662685832496
 30
0
 11
965.2067368954373
 21
718.8662685832496
 31
0
  0
LINE
  8
1
 62
3
  6
DIVIDE
 10
963.2067368954373
 20
716.8662685832496
 30
0
 11
963.2067368954373
 21
697.547738467129
 31
0
  0
LINE
  8
1
 62
3
  6
DIVIDE
 10
964.0067368954373
 20
699.0662685832497
 30
0
 11
963.2067368954373
 21
699.8662685832496
 31
0
  0
LINE
  8
1
 62
3
  6
DIVIDE
 10
964.0067368954373
 20
695.5662685832497
 30
0
 11
964.0067368954373
 21
699.0662685832497
 31
0
  0
LINE
  8
1
 62
3
  6
DIVIDE
 10
959.7067368954373
 20
696.3662685832496
 30
0
 11
960.5067368954373
 21
695.5662685832497
 31
0
  0
LINE
  8
1
 62
3
  6
DIVIDE
 10
960.5067368954373
 20
695.5662685832497
 30
0
 11
964.0067368954373
 21
695.5662685832497
 31
0
  0
LINE
  8
1
 62
3
  6
DIVIDE
 10
930.9067368954374
 20
695.5662685832497
 30
0
 11
931.7067368954373
 21
696.3662685832496
 31
0
  0
LINE
  8
1
 62
3
  6
DIVIDE
 10
959.7067368954373
 20
696.3662685832496
 30
0
 11
931.7067368954373
 21
696.3662685832496
 31
0
  0
LINE
  8
1
 62
3
  6
DIVIDE
 10
927.4067368954374
 20
695.5662685832497
 30
0
 11
930.9067368954374
 21
695.5662685832497
 31
0
  0
LINE
  8
1
 62
3
  6
DIVIDE
 10
927.4067368954374
 20
699.0662685832497
 30
0
 11
927.4067368954374
 21
695.5662685832497
 31
0
  0
LINE
  8
1
 62
3
 10
928.2067368954373
 20
699.8662685832496
 30
0
 11
927.4067368954374
 21
699.0662685832497
 31
0
  0
LINE
  8
1
 62
3
  6
DIVIDE
 10
926.2067368954373
 20
718.8662685832496
 30
0
 11
928.2067368954373
 21
716.8662685832496
 31
0
  0
LINE
  8
1
 62
3
  6
DIVIDE
 10
926.2067368954373
 20
718.8662685832496
 30
0
 11
915.7067368954373
 21
718.8662685832496
 31
0
  0
LINE
  8
1
 62
3
  6
DIVIDE
 10
915.7067368954373
 20
718.8662685832496
 30
0
 11
910.7067368954373
 21
713.8662685832496
 31
0
  0
LINE
  8
1
 62
3
  6
DIVIDE
 10
910.7067368954373
 20
673.8662685832496
 30
0
 11
910.7067368954373
 21
713.8662685832496
 31
0
  0
LINE
  8
1
 62
3
  6
DIVIDE
 10
930.7067368954373
 20
673.8662685832496
 30
0
 11
910.7067368954373
 21
693.8662685832496
 31
0
  0
LINE
  8
1
 62
3
  6
DASHDOT
 10
945.7067368954373
 20
723.198531357601
 30
0
 11
945.7067368954373
 21
667.198531357601
 31
0
  0
LINE
  8
1
 62
3
  6
DIVIDE
 10
910.7067368954373
 20
723.198531357601
 30
0
 11
910.7067368954373
 21
667.198531357601
 31
0
  0
LINE
  8
1
 62
7
 10
774.0248357723522
 20
671.4956455927177
 30
0
 11
872.6381806559411
 21
663.9100036785953
 31
0
  0
LINE
  8
1
 62
7
 10
893.2067368954373
 20
385.8662685832494
 30
0
 11
893.2067368954373
 21
405.1847986993703
 31
0
  0
LINE
  8
1
 62
7
 10
925.5067368954373
 20
407.1662685832496
 30
0
 11
924.7067368954373
 21
406.3662685832496
 31
0
  0
LINE
  8
1
 62
7
 10
929.0067368954373
 20
407.1662685832496
 30
0
 11
925.5067368954373
 21
407.1662685832496
 31
0
  0
LINE
  8
1
 62
7
 10
929.0067368954373
 20
403.6662685832496
 30
0
 11
929.0067368954373
 21
407.1662685832496
 31
0
  0
LINE
  8
1
 62
7
 10
928.2067368954373
 20
402.8662685832496
 30
0
 11
929.0067368954373
 21
403.6662685832496
 31
0
  0
LINE
  8
1
 62
7
 10
896.7067368954373
 20
406.3662685832496
 30
0
 11
895.9067368954374
 21
407.1662685832496
 31
0
  0
LINE
  8
1
 62
7
 10
895.9067368954374
 20
407.1662685832496
 30
0
 11
892.4067368954374
 21
407.1662685832496
 31
0
  0
LINE
  8
1
 62
7
 10
892.4067368954374
 20
407.1662685832496
 30
0
 11
892.4067368954374
 21
403.6662685832496
 31
0
  0
LINE
  8
1
 62
7
 10
892.4067368954374
 20
403.6662685832496
 30
0
 11
893.2067368954373
 21
402.8662685832496
 31
0
  0
LINE
  8
1
 62
7
 10
896.7067368954373
 20
406.3662685832496
 30
0
 11
924.7067368954373
 21
406.3662685832496
 31
0
  0
LINE
  8
1
 62
7
 10
924.7067368954373
 20
696.3662685832496
 30
0
 11
925.5067368954373
 21
695.5662685832497
 31
0
  0
LINE
  8
1
 62
7
 10
925.5067368954373
 20
695.5662685832497
 30
0
 11
929.0067368954373
 21
695.5662685832497
 31
0
  0
LINE
  8
1
 62
7
 10
929.0067368954373
 20
695.5662685832497
 30
0
 11
929.0067368954373
 21
699.0662685832497
 31
0
  0
LINE
  8
1
 62
7
 10
929.0067368954373
 20
699.0662685832497
 30
0
 11
928.2067368954373
 21
699.8662685832496
 31
0
  0
LINE
  8
1
 62
7
 10
893.2067368954373
 20
697.547738467129
 30
0
 11
893.2067368954373
 21
716.8662685832496
 31
0
  0
LINE
  8
1
 62
7
 10
895.9067368954374
 20
695.5662685832497
 30
0
 11
896.7067368954373
 21
696.3662685832496
 31
0
  0
LINE
  8
1
 62
7
 10
892.4067368954374
 20
695.5662685832497
 30
0
 11
895.9067368954374
 21
695.5662685832497
 31
0
  0
LINE
  8
1
 62
7
 10
892.4067368954374
 20
699.0662685832497
 30
0
 11
892.4067368954374
 21
695.5662685832497
 31
0
  0
LINE
  8
1
 62
7
 10
893.2067368954373
 20
699.8662685832496
 30
0
 11
892.4067368954374
 21
699.0662685832497
 31
0
  0
LINE
  8
1
 62
7
 10
945.7067368954373
 20
388.8662685832494
 30
0
 11
945.7067368954373
 21
428.8662685832494
 31
0
  0
LINE
  8
1
 62
7
 10
930.2067368954373
 20
383.8662685832494
 30
0
 11
928.2067368954373
 21
385.8662685832494
 31
0
  0
LINE
  8
1
 62
7
 10
945.7067368954373
 20
388.8662685832494
 30
0
 11
940.7067368954373
 21
383.8662685832494
 31
0
  0
LINE
  8
1
 62
7
 10
930.2067368954373
 20
383.8662685832494
 30
0
 11
940.7067368954373
 21
383.8662685832494
 31
0
  0
LINE
  8
1
 62
7
 10
893.2067368954373
 20
385.8662685832494
 30
0
 11
891.2067368954373
 21
383.8662685832494
 31
0
  0
LINE
  8
1
 62
7
 10
875.7067368954373
 20
388.8662685832494
 30
0
 11
880.7067368954373
 21
383.8662685832494
 31
0
  0
LINE
  8
1
 62
7
 10
880.7067368954373
 20
383.8662685832494
 30
0
 11
891.2067368954373
 21
383.8662685832494
 31
0
  0
LINE
  8
1
 62
7
 10
928.2067368954373
 20
716.8662685832496
 30
0
 11
930.2067368954373
 21
718.8662685832496
 31
0
  0
LINE
  8
1
 62
7
 10
891.2067368954373
 20
718.8662685832496
 30
0
 11
893.2067368954373
 21
716.8662685832496
 31
0
  0
LINE
  8
1
 62
7
 10
880.7067368954373
 20
718.8662685832496
 30
0
 11
875.7067368954373
 21
713.8662685832496
 31
0
  0
LINE
  8
1
 62
7
 10
940.7067368954373
 20
718.8662685832496
 30
0
 11
945.7067368954373
 21
713.8662685832496
 31
0
  0
LINE
  8
1
 62
7
 10
891.2067368954373
 20
718.8662685832496
 30
0
 11
880.7067368954373
 21
718.8662685832496
 31
0
  0
LINE
  8
1
 62
7
 10
924.7067368954373
 20
696.3662685832496
 30
0
 11
896.7067368954373
 21
696.3662685832496
 31
0
  0
LINE
  8
1
 62
3
  6
DIVIDE
 10
928.2067368954373
 20
716.8662685832496
 30
0
 11
928.2067368954373
 21
697.547738467129
 31
0
  0
LINE
  8
1
 62
7
 10
940.7067368954373
 20
718.8662685832496
 30
0
 11
930.2067368954373
 21
718.8662685832496
 31
0
  0
LINE
  8
1
 62
7
 10
945.7067368954373
 20
673.8662685832496
 30
0
 11
945.7067368954373
 21
713.8662685832496
 31
0
  0
LINE
  8
1
 62
7
 10
845.5239336490303
 20
719.3662685832495
 30
0
 11
845.5066287689284
 21
718.4548782312212
 31
0
  0
LINE
  8
1
 62
7
 10
845.6061395829761
 20
719.3662685832495
 30
0
 11
845.5106538576673
 21
718.5347157313479
 31
0
  0
LINE
  8
1
 62
7
 10
846.8140249854755
 20
719.3662685832495
 30
0
 11
846.7028199332075
 21
718.3978214351512
 31
0
  0
LINE
  8
1
 62
7
 10
849.2347110115475
 20
719.3662685832495
 30
0
 11
849.1392252862387
 21
718.534715731348
 31
0
  0
LINE
  8
1
 62
7
 10
850.4425964140469
 20
719.3662685832495
 30
0
 11
850.3313913617789
 21
718.3978214351513
 31
0
  0
LINE
  8
1
 62
7
 10
852.863282440119
 20
719.3662685832495
 30
0
 11
852.7677967148102
 21
718.534715731348
 31
0
  0
LINE
  8
1
 62
7
 10
854.0711678426184
 20
719.3662685832495
 30
0
 11
853.9599627903504
 21
718.3978214351512
 31
0
  0
LINE
  8
1
 62
7
 10
856.4918538686903
 20
719.3662685832495
 30
0
 11
856.3963681433816
 21
718.534715731348
 31
0
  0
LINE
  8
1
 62
7
 10
857.6997392711897
 20
719.3662685832495
 30
0
 11
857.5885342189217
 21
718.3978214351513
 31
0
  0
LINE
  8
1
 62
7
 10
859.1237173570343
 20
719.3662685832495
 30
0
 11
859.1068450219462
 21
718.4776589352779
 31
0
  0
LINE
  8
1
 62
7
 10
859.4068450219462
 20
734.2776589352778
 30
0
 11
859.3895401418444
 21
733.3662685832495
 31
0
  0
LINE
  8
1
 62
7
 10
859.4028199332074
 20
734.1978214351511
 30
0
 11
859.3073342078986
 21
733.3662685832495
 31
0
  0
LINE
  8
1
 62
7
 10
858.2106538576672
 20
734.3347157313478
 30
0
 11
858.0994488053992
 21
733.3662685832495
 31
0
  0
LINE
  8
1
 62
7
 10
855.774248504636
 20
734.197821435151
 30
0
 11
855.6787627793273
 21
733.3662685832495
 31
0
  0
LINE
  8
1
 62
7
 10
854.582082429096
 20
734.3347157313477
 30
0
 11
854.470877376828
 21
733.3662685832495
 31
0
  0
LINE
  8
1
 62
7
 10
852.1456770760645
 20
734.1978214351511
 30
0
 11
852.0501913507558
 21
733.3662685832495
 31
0
  0
LINE
  8
1
 62
7
 10
850.9535110005244
 20
734.3347157313478
 30
0
 11
850.8423059482564
 21
733.3662685832495
 31
0
  0
LINE
  8
1
 62
7
 10
848.5171056474932
 20
734.197821435151
 30
0
 11
848.4216199221844
 21
733.3662685832495
 31
0
  0
LINE
  8
1
 62
7
 10
847.3249395719531
 20
734.3347157313477
 30
0
 11
847.2137345196851
 21
733.3662685832495
 31
0
  0
LINE
  8
1
 62
7
 10
845.8066287689284
 20
734.2548782312211
 30
0
 11
845.7897564338404
 21
733.3662685832495
 31
0
  0
LINE
  8
1
 62
7
 10
866.3067368954373
 20
717.3662685832495
 30
0
 11
863.7067368954373
 21
717.3662685832495
 31
0
  0
LINE
  8
1
 62
7
 10
866.3067368954373
 20
765.3662685832495
 30
0
 11
863.7067368954373
 21
765.3662685832495
 31
0
  0
LINE
  8
1
 62
7
 10
863.7067368954373
 20
693.3662685832496
 30
0
 11
863.7067368954373
 21
765.3662685832495
 31
0
  0
LINE
  8
1
 62
7
 10
866.3067368954373
 20
717.3662685832495
 30
0
 11
866.3067368954373
 21
765.3662685832495
 31
0
  0
LINE
  8
1
 62
7
 10
863.7067368954373
 20
733.3662685832495
 30
0
 11
845.2067368954373
 21
733.3662685832495
 31
0
  0
LINE
  8
1
 62
7
 10
845.2067368954373
 20
736.3662685832496
 30
0
 11
845.2067368954373
 21
716.3662685832494
 31
0
  0
LINE
  8
1
 62
7
 10
840.7067368954373
 20
716.3662685832494
 30
0
 11
840.7067368954373
 21
679.8662685832496
 31
0
  0
LINE
  8
1
 62
7
 10
834.2067368954373
 20
736.3662685832496
 30
0
 11
834.2067368954373
 21
716.3662685832494
 31
0
  0
LINE
  8
1
 62
7
 10
845.2067368954373
 20
719.3662685832495
 30
0
 11
863.7067368954373
 21
719.3662685832495
 31
0
  0
LINE
  8
1
 62
7
 10
859.7067368954373
 20
719.3662685832495
 30
0
 11
859.7067368954373
 21
716.3662685832494
 31
0
  0
LINE
  8
1
 62
7
 10
834.2067368954373
 20
716.3662685832494
 30
0
 11
859.7067368954373
 21
716.3662685832494
 31
0
  0
LINE
  8
1
 62
7
 10
859.7067368954373
 20
736.3662685832496
 30
0
 11
859.7067368954373
 21
733.3662685832495
 31
0
  0
LINE
  8
1
 62
7
 10
859.7067368954373
 20
736.3662685832496
 30
0
 11
834.2067368954373
 21
736.3662685832496
 31
0
  0
LINE
  8
1
 62
7
 10
855.7067368954373
 20
373.8303701983872
 30
0
 11
861.7067368954373
 21
370.3662685832495
 31
0
  0
LINE
  8
1
 62
7
 10
849.7067368954373
 20
370.3662685832495
 30
0
 11
855.7067368954373
 21
373.8303701983872
 31
0
  0
LINE
  8
1
 62
7
 10
861.7067368954373
 20
370.3662685832495
 30
0
 11
861.7067368954373
 21
352.3662685832495
 31
0
  0
LINE
  8
1
 62
7
 10
849.7067368954373
 20
370.3662685832495
 30
0
 11
861.7067368954373
 21
370.3662685832495
 31
0
  0
LINE
  8
1
 62
7
 10
849.7067368954373
 20
352.3662685832495
 30
0
 11
849.7067368954373
 21
370.3662685832495
 31
0
  0
LINE
  8
1
 62
3
 10
842.7067368954373
 20
407.3662685832496
 30
0
 11
840.7067368954373
 21
407.3662685832496
 31
0
  0
LINE
  8
1
 62
3
 10
863.7067368954373
 20
409.3662685832496
 30
0
 11
875.7067368954373
 21
409.3662685832496
 31
0
  0
LINE
  8
1
 62
7
 10
863.7067368954373
 20
404.3662685832496
 30
0
 11
863.7067368954373
 21
409.3662685832496
 31
0
  0
LINE
  8
1
 62
7
 10
863.7067368954373
 20
404.3662685832496
 30
0
 11
870.7067368954373
 21
404.3662685832496
 31
0
  0
LINE
  8
1
 62
7
 10
870.7067368954373
 20
407.3662685832496
 30
0
 11
870.7067368954372
 21
357.3662685832496
 31
0
  0
LINE
  8
1
 62
7
 10
865.7067368954373
 20
352.3662685832496
 30
0
 11
870.7067368954372
 21
357.3662685832496
 31
0
  0
LINE
  8
1
 62
7
 10
865.7067368954373
 20
352.3662685832496
 30
0
 11
840.7067368954373
 21
352.3662685832494
 31
0
  0
LINE
  8
1
 62
7
 10
863.7067368954373
 20
693.3662685832496
 30
0
 11
840.7067368954373
 21
693.3662685832496
 31
0
  0
LINE
  8
1
 62
3
 10
842.7067368954373
 20
695.3662685832496
 30
0
 11
840.7067368954373
 21
695.3662685832496
 31
0
  0
LINE
  8
1
 62
7
 10
870.7067368954373
 20
745.3662685832496
 30
0
 11
866.3067368954373
 21
749.7662685832496
 31
0
  0
LINE
  8
1
 62
7
 10
870.7067368954373
 20
698.3662685832496
 30
0
 11
863.7067368954373
 21
698.3662685832496
 31
0
  0
LINE
  8
1
 62
7
 10
870.7067368954373
 20
745.3662685832496
 30
0
 11
870.7067368954373
 21
695.3662685832496
 31
0
  0
LINE
  8
1
 62
7
 10
840.7067368954373
 20
750.3662685832496
 30
0
 11
863.7067368954373
 21
750.3662685832496
 31
0
  0
LINE
  8
1
 62
3
  6
DIVIDE
 10
879.7067368954374
 20
683.8662685832496
 30
0
 11
979.7067368954374
 21
683.8662685832496
 31
0
  0
LINE
  8
1
 62
7
 10
766.7067368954373
 20
411.3662685832496
 30
0
 11
724.7067368954373
 21
411.3662685832496
 31
0
  0
LINE
  8
1
 62
7
 10
760.7067368954373
 20
626.3662685832497
 30
0
 11
720.7067368954373
 21
626.3662685832497
 31
0
  0
LINE
  8
1
 62
7
 10
760.7067368954373
 20
474.8662685832496
 30
0
 11
760.7067368954373
 21
627.8662685832497
 31
0
  0
LINE
  8
1
 62
7
 10
760.7067368954373
 20
627.8662685832497
 30
0
 11
870.7067368954373
 21
627.8662685832497
 31
0
  0
LINE
  8
1
 62
7
 10
870.7067368954373
 20
627.8662685832497
 30
0
 11
870.7067368954373
 21
474.8662685832496
 31
0
  0
LINE
  8
1
 62
7
 10
985.7067368954373
 20
626.3662685832497
 30
0
 11
870.7067368954373
 21
626.3662685832497
 31
0
  0
LINE
  8
1
 62
7
 10
766.7067368954373
 20
408.8662685832494
 30
0
 11
750.7067368954373
 21
392.8662685832494
 31
0
  0
LINE
  8
1
 62
7
 10
750.7067368954373
 20
411.3662685832496
 30
0
 11
750.7067368954373
 21
357.3662685832494
 31
0
  0
LINE
  8
1
 62
7
 10
755.7067368954373
 20
352.3662685832494
 30
0
 11
750.7067368954373
 21
357.3662685832494
 31
0
  0
LINE
  8
1
 62
7
 10
755.7067368954373
 20
352.3662685832494
 30
0
 11
770.7067368954373
 21
352.3662685832494
 31
0
  0
LINE
  8
1
 62
7
 10
833.7067368954373
 20
386.6162685832494
 30
0
 11
840.7067368954373
 21
386.6162685832494
 31
0
  0
LINE
  8
1
 62
7
 10
840.7067368954373
 20
366.1162685832494
 30
0
 11
833.7067368954373
 21
366.1162685832494
 31
0
  0
LINE
  8
1
 62
7
 10
840.7067368954373
 20
422.8662685832494
 30
0
 11
840.7067368954373
 21
352.3662685832494
 31
0
  0
LINE
  8
1
 62
7
 10
840.7067368954373
 20
352.3662685832494
 30
0
 11
833.7067368954373
 21
352.3662685832494
 31
0
  0
LINE
  8
1
 62
3
 10
833.7067368954373
 20
422.8662685832494
 30
0
 11
770.7067368954374
 21
339.3662685832494
 31
0
  0
LINE
  8
1
 62
3
 10
833.7067368954373
 20
339.3662685832494
 30
0
 11
770.7067368954373
 21
422.8662685832494
 31
0
  0
LINE
  8
1
 62
7
 10
766.7067368954373
 20
422.8662685832494
 30
0
 11
840.7067368954373
 21
422.8662685832494
 31
0
  0
LINE
  8
1
 62
7
 10
833.7067368954373
 20
422.8662685832494
 30
0
 11
833.7067368954373
 21
339.3662685832494
 31
0
  0
LINE
  8
1
 62
7
 10
833.7067368954373
 20
339.3662685832494
 30
0
 11
770.7067368954374
 21
339.3662685832494
 31
0
  0
LINE
  8
1
 62
7
 10
770.7067368954374
 20
339.3662685832494
 30
0
 11
770.7067368954373
 21
352.3662685832494
 31
0
  0
LINE
  8
1
 62
7
 10
766.7067368954373
 20
408.8662685832494
 30
0
 11
766.7067368954373
 21
422.8662685832494
 31
0
  0
LINE
  8
1
 62
7
 10
770.7067368954373
 20
422.8662685832494
 30
0
 11
770.7067368954373
 21
352.3662685832494
 31
0
  0
LINE
  8
1
 62
7
 10
840.7067368954373
 20
716.1162685832496
 30
0
 11
833.7067368954373
 21
716.1162685832496
 31
0
  0
LINE
  8
1
 62
7
 10
833.7067368954373
 20
736.6162685832496
 30
0
 11
840.7067368954373
 21
736.6162685832496
 31
0
  0
LINE
  8
1
 62
7
 10
840.7067368954373
 20
691.3662685832496
 30
0
 11
842.7067368954373
 21
691.3662685832496
 31
0
  0
LINE
  8
1
 62
7
 10
840.7067368954373
 20
750.3662685832496
 30
0
 11
840.7067368954373
 21
736.3662685832496
 31
0
  0
LINE
  8
1
 62
7
 10
833.7067368954373
 20
750.3662685832496
 30
0
 11
840.7067368954373
 21
750.3662685832496
 31
0
  0
LINE
  8
1
 62
3
 10
770.7067368954373
 20
763.3662685832496
 30
0
 11
833.7067368954372
 21
679.8662685832495
 31
0
  0
LINE
  8
1
 62
3
 10
770.7067368954373
 20
679.8662685832496
 30
0
 11
833.7067368954373
 21
763.3662685832496
 31
0
  0
LINE
  8
1
 62
7
 10
840.7067368954373
 20
679.8662685832496
 30
0
 11
766.7067368954373
 21
679.8662685832496
 31
0
  0
LINE
  8
1
 62
7
 10
833.7067368954373
 20
763.3662685832496
 30
0
 11
833.7067368954372
 21
679.8662685832495
 31
0
  0
LINE
  8
1
 62
7
 10
770.7067368954373
 20
763.3662685832496
 30
0
 11
833.7067368954373
 21
763.3662685832496
 31
0
  0
LINE
  8
1
 62
7
 10
770.7067368954373
 20
750.3662685832496
 30
0
 11
770.7067368954373
 21
763.3662685832496
 31
0
  0
LINE
  8
1
 62
7
 10
750.7067368954373
 20
745.3662685832496
 30
0
 11
755.7067368954373
 21
750.3662685832496
 31
0
  0
LINE
  8
1
 62
7
 10
750.7067368954373
 20
709.8662685832496
 30
0
 11
766.7067368954373
 21
693.8662685832496
 31
0
  0
LINE
  8
1
 62
7
 10
766.7067368954373
 20
679.8662685832496
 30
0
 11
766.7067368954373
 21
693.8662685832496
 31
0
  0
LINE
  8
1
 62
7
 10
750.7067368954373
 20
745.3662685832496
 30
0
 11
750.7067368954373
 21
691.3662685832496
 31
0
  0
LINE
  8
1
 62
7
 10
770.7067368954373
 20
750.3662685832496
 30
0
 11
755.7067368954373
 21
750.3662685832496
 31
0
  0
LINE
  8
1
 62
7
 10
770.7067368954373
 20
750.3662685832496
 30
0
 11
770.7067368954373
 21
679.8662685832496
 31
0
  0
LINE
  8
1
 62
7
 10
430.8246961802878
 20
454.8951254129499
 30
0
 11
429.9246961802878
 21
456.4539711397619
 31
0
  0
LINE
  8
1
 62
7
 10
429.9246961802878
 20
453.336279686138
 30
0
 11
430.8246961802878
 21
454.8951254129499
 31
0
  0
LINE
  8
1
 62
7
 10
428.1246961802879
 20
453.336279686138
 30
0
 11
429.9246961802878
 21
453.336279686138
 31
0
  0
LINE
  8
1
 62
7
 10
427.2246961802878
 20
454.8951254129499
 30
0
 11
428.1246961802879
 21
453.336279686138
 31
0
  0
LINE
  8
1
 62
7
 10
428.1246961802879
 20
456.4539711397619
 30
0
 11
427.2246961802878
 21
454.8951254129499
 31
0
  0
LINE
  8
1
 62
7
 10
429.9246961802878
 20
456.4539711397619
 30
0
 11
428.1246961802879
 21
456.4539711397619
 31
0
  0
LINE
  8
1
 62
7
 10
231.397699036679
 20
531.9374117535493
 30
0
 11
231.397699036679
 21
533.7374117535494
 31
0
  0
LINE
  8
1
 62
7
 10
229.838853309867
 20
531.0374117535495
 30
0
 11
231.397699036679
 21
531.9374117535493
 31
0
  0
LINE
  8
1
 62
7
 10
228.280007583055
 20
531.9374117535494
 30
0
 11
229.838853309867
 21
531.0374117535495
 31
0
  0
LINE
  8
1
 62
7
 10
228.280007583055
 20
533.7374117535495
 30
0
 11
228.280007583055
 21
531.9374117535494
 31
0
  0
LINE
  8
1
 62
7
 10
229.838853309867
 20
534.6374117535494
 30
0
 11
228.280007583055
 21
533.7374117535495
 31
0
  0
LINE
  8
1
 62
7
 10
231.397699036679
 20
533.7374117535494
 30
0
 11
229.838853309867
 21
534.6374117535494
 31
0
  0
LINE
  8
1
 62
7
 10
395.3729290182654
 20
665.4662685832496
 30
0
 11
396.9317747450774
 21
664.5662685832497
 31
0
  0
LINE
  8
1
 62
7
 10
395.3729290182654
 20
667.2662685832496
 30
0
 11
395.3729290182654
 21
665.4662685832496
 31
0
  0
LINE
  8
1
 62
7
 10
396.9317747450774
 20
668.1662685832496
 30
0
 11
395.3729290182654
 21
667.2662685832496
 31
0
  0
LINE
  8
1
 62
7
 10
398.4906204718894
 20
667.2662685832496
 30
0
 11
396.9317747450774
 21
668.1662685832496
 31
0
  0
LINE
  8
1
 62
7
 10
398.4906204718894
 20
665.4662685832496
 30
0
 11
398.4906204718894
 21
667.2662685832496
 31
0
  0
LINE
  8
1
 62
7
 10
396.9317747450774
 20
664.5662685832497
 30
0
 11
398.4906204718894
 21
665.4662685832496
 31
0
  0
LINE
  8
1
 62
7
 10
431.0343151235213
 20
488.3758875264831
 30
0
 11
446.0343151235213
 21
514.3566496400163
 31
0
  0
LINE
  8
1
 62
7
 10
257.8292343666335
 20
514.3566496400161
 30
0
 11
272.8292343666334
 21
488.375887526483
 31
0
  0
LINE
  8
1
 62
7
 10
427.5702135083835
 20
490.375887526483
 30
0
 11
497.718271214923
 21
449.8758875264831
 31
0
  0
LINE
  8
1
 62
7
 10
261.2933359817712
 20
516.3566496400161
 30
0
 11
191.1452782752318
 21
475.8566496400163
 31
0
  0
LINE
  8
1
 62
7
 10
497.718271214923
 20
449.8758875264831
 30
0
 11
512.718271214923
 21
475.8566496400164
 31
0
  0
LINE
  8
1
 62
7
 10
191.1452782752318
 20
475.8566496400163
 30
0
 11
206.1452782752318
 21
449.8758875264831
 31
0
  0
LINE
  8
1
 62
7
 10
442.5702135083835
 20
516.3566496400161
 30
0
 11
512.718271214923
 21
475.8566496400164
 31
0
  0
LINE
  8
1
 62
7
 10
276.2933359817712
 20
490.375887526483
 30
0
 11
206.1452782752318
 21
449.8758875264831
 31
0
  0
LINE
  8
1
 62
7
 10
366.9317747450774
 20
651.3662685832496
 30
0
 11
336.9317747450774
 21
651.3662685832496
 31
0
  0
LINE
  8
1
 62
7
 10
366.9317747450774
 20
728.3662685832495
 30
0
 11
336.9317747450774
 21
728.3662685832495
 31
0
  0
LINE
  8
1
 62
7
 10
336.9317747450774
 20
647.3662685832496
 30
0
 11
336.9317747450774
 21
728.3662685832495
 31
0
  0
LINE
  8
1
 62
7
 10
366.9317747450774
 20
647.3662685832496
 30
0
 11
366.9317747450774
 21
728.3662685832495
 31
0
  0
LINE
  8
1
 62
7
 10
748.055992739393
 20
691.3662685832496
 30
0
 11
766.7067368954373
 21
691.3662685832496
 31
0
  0
LINE
  8
1
 62
7
 10
905.7067368954373
 20
651.3662685832496
 30
0
 11
736.7067368954371
 21
651.3662685832496
 31
0
  0
LINE
  8
1
 62
7
 10
732.8262549542037
 20
720.8281305779071
 30
0
 11
723.8793740914332
 21
666.4778470199772
 31
0
  0
LINE
  8
1
 62
3
  6
DASHDOT
 10
351.9317747450774
 20
551.3662685832496
 30
0
 11
354.4317747450774
 21
551.3662685832496
 31
0
  0
LINE
  8
1
 62
3
  6
DASHDOT
 10
351.9317747450774
 20
551.3662685832496
 30
0
 11
351.9317747450774
 21
548.8662685832496
 31
0
  0
LINE
  8
1
 62
3
  6
DASHDOT
 10
351.9317747450774
 20
551.3662685832496
 30
0
 11
349.4317747450774
 21
551.3662685832496
 31
0
  0
LINE
  8
1
 62
7
 10
238.8861402326656
 20
633.9537041753915
 30
0
 11
249.0135357625615
 21
628.1066496400163
 31
0
  0
LINE
  8
1
 62
7
 10
479.9774092574892
 20
607.9729420618583
 30
0
 11
469.8500137275934
 21
602.125887526483
 31
0
  0
LINE
  8
1
 62
7
 10
238.3025780203358
 20
634.0019488411742
 30
0
 11
248.022510358777
 21
628.3901432890701
 31
0
  0
LINE
  8
1
 62
7
 10
223.5525780203358
 20
608.4541994295331
 30
0
 11
233.272510358777
 21
602.8423938774291
 31
0
  0
LINE
  8
1
 62
7
 10
233.272510358777
 20
602.8423938774291
 30
0
 11
248.022510358777
 21
628.3901432890701
 31
0
  0
LINE
  8
1
 62
7
 10
465.560971469819
 20
634.0019488411741
 30
0
 11
455.8410391313778
 21
628.3901432890701
 31
0
  0
LINE
  8
1
 62
7
 10
455.8410391313778
 20
628.3901432890701
 30
0
 11
470.5910391313778
 21
602.8423938774291
 31
0
  0
LINE
  8
1
 62
7
 10
480.3109714698192
 20
608.4541994295331
 30
0
 11
470.5910391313778
 21
602.8423938774291
 31
0
  0
LINE
  8
1
 62
7
 10
366.6817747450775
 20
422.8662685832496
 30
0
 11
337.1817747450774
 21
422.8662685832496
 31
0
  0
LINE
  8
1
 62
7
 10
366.6817747450775
 20
411.6426574790415
 30
0
 11
366.6817747450775
 21
422.8662685832496
 31
0
  0
LINE
  8
1
 62
7
 10
337.1817747450774
 20
411.6426574790415
 30
0
 11
337.1817747450774
 21
422.8662685832496
 31
0
  0
LINE
  8
1
 62
7
 10
336.9317747450774
 20
412.1721595124991
 30
0
 11
336.9317747450774
 21
423.8662685832496
 31
0
  0
LINE
  8
1
 62
7
 10
722.7067368954373
 20
689.3662685832496
 30
0
 11
722.7067368954373
 21
648.3662685832496
 31
0
  0
LINE
  8
1
 62
7
 10
875.7067368954373
 20
673.8662685832496
 30
0
 11
875.7067368954373
 21
713.8662685832496
 31
0
  0
LINE
  8
1
 62
7
 10
842.7067368954373
 20
695.3662685832496
 30
0
 11
842.7067368954373
 21
691.3662685832496
 31
0
  0
LINE
  8
1
 62
7
 10
983.7067368954373
 20
671.8662685832496
 30
0
 11
983.7067368954373
 21
648.3662685832496
 31
0
  0
LINE
  8
1
 62
3
  6
DIVIDE
 10
979.7067368954374
 20
663.8662685832496
 30
0
 11
979.7067368954374
 21
683.8662685832496
 31
0
  0
LINE
  8
1
 62
3
  6
DIVIDE
 10
879.7067368954374
 20
663.8662685832496
 30
0
 11
979.7067368954374
 21
663.8662685832496
 31
0
  0
LINE
  8
1
 62
3
  6
DIVIDE
 10
879.7067368954374
 20
683.8662685832496
 30
0
 11
879.7067368954374
 21
663.8662685832496
 31
0
  0
LINE
  8
1
 62
3
  6
DASHDOT
 10
718.2067368954373
 20
551.3662685832496
 30
0
 11
720.7067368954373
 21
551.3662685832496
 31
0
  0
LINE
  8
1
 62
7
 10
840.7067368954373
 20
409.3662685832496
 30
0
 11
863.7067368954373
 21
409.3662685832496
 31
0
  0
LINE
  8
1
 62
7
 10
427.5702135083835
 20
490.375887526483
 30
0
 11
442.5702135083835
 21
516.3566496400161
 31
0
  0
LINE
  8
1
 62
7
 10
261.2933359817712
 20
516.3566496400161
 30
0
 11
276.2933359817712
 21
490.375887526483
 31
0
  0
LINE
  8
1
 62
7
 10
366.9317747450774
 20
647.3662685832496
 30
0
 11
336.9317747450774
 21
647.3662685832496
 31
0
  0
LINE
  8
1
 62
3
  6
DASHDOT
 10
351.9317747450774
 20
551.3662685832496
 30
0
 11
351.9317747450774
 21
553.8662685832496
 31
0
  0
LINE
  8
1
 62
7
 10
724.7067368954373
 20
691.3662685832496
 30
0
 11
722.7067368954373
 21
689.3662685832496
 31
0
  0
LINE
  8
1
 62
7
 10
724.7067368954373
 20
691.3662685832496
 30
0
 11
727.9763856985883
 21
691.3662685832496
 31
0
  0
LINE
  8
1
 62
7
 10
720.7067368954373
 20
646.3662685832496
 30
0
 11
722.7067368954373
 21
648.3662685832496
 31
0
  0
LINE
  8
1
 62
7
 10
720.7067368954373
 20
456.3662685832496
 30
0
 11
720.7067368954373
 21
646.3662685832496
 31
0
  0
LINE
  8
1
 62
7
 10
873.7067368954373
 20
695.3662685832496
 30
0
 11
875.7067368954373
 21
693.3662685832496
 31
0
  0
LINE
  8
1
 62
3
 10
875.7067368954373
 20
693.3662685832496
 30
0
 11
863.7067368954373
 21
693.3662685832496
 31
0
  0
LINE
  8
1
 62
7
 10
873.7067368954373
 20
695.3662685832496
 30
0
 11
842.7067368954373
 21
695.3662685832496
 31
0
  0
LINE
  8
1
 62
7
 10
981.7067368954373
 20
673.8662685832496
 30
0
 11
875.7067368954373
 21
673.8662685832496
 31
0
  0
LINE
  8
1
 62
7
 10
983.7067368954373
 20
671.8662685832496
 30
0
 11
981.7067368954373
 21
673.8662685832496
 31
0
  0
LINE
  8
1
 62
7
 10
985.7067368954373
 20
646.3662685832496
 30
0
 11
983.7067368954373
 21
648.3662685832496
 31
0
  0
LINE
  8
1
 62
7
 10
985.7067368954373
 20
456.3662685832496
 30
0
 11
985.7067368954373
 21
646.3662685832496
 31
0
  0
LINE
  8
1
 62
7
 10
945.7067368954373
 20
673.8662685832496
 30
0
 11
945.7067368954373
 21
647.3662685832496
 31
0
  0
LINE
  8
1
 62
7
 10
945.7067368954373
 20
647.3662685832496
 30
0
 11
721.7067368954373
 21
647.3662685832496
 31
0
  0
LINE
  8
1
 62
7
 10
336.9317747450774
 20
423.8662685832496
 30
0
 11
366.9317747450774
 21
423.8662685832496
 31
0
  0
LINE
  8
1
 62
7
 10
366.9317747450774
 20
423.8662685832496
 30
0
 11
366.9317747450774
 21
412.1721595124991
 31
0
  0
LINE
  8
1
 62
7
 10
469.8500137275934
 20
602.125887526483
 30
0
 11
454.8500137275934
 21
628.1066496400161
 31
0
  0
LINE
  8
1
 62
7
 10
454.8500137275934
 20
628.1066496400161
 30
0
 11
464.9774092574893
 21
633.9537041753914
 31
0
  0
LINE
  8
1
 62
7
 10
249.0135357625615
 20
628.1066496400163
 30
0
 11
234.0135357625615
 21
602.1258875264831
 31
0
  0
LINE
  8
1
 62
7
 10
234.0135357625615
 20
602.1258875264831
 30
0
 11
223.8861402326655
 21
607.9729420618584
 31
0
  0
LINE
  8
1
 62
7
 10
370.9317747450774
 20
478.8128399943814
 30
0
 11
370.9317747450774
 21
464.3662685832496
 31
0
  0
LINE
  8
1
 62
7
 10
370.9317747450774
 20
464.3662685832496
 30
0
 11
332.9317747450774
 21
464.3662685832496
 31
0
  0
LINE
  8
1
 62
7
 10
332.9317747450774
 20
464.3662685832496
 30
0
 11
332.9317747450774
 21
478.8128399943814
 31
0
  0
LINE
  8
1
 62
7
 10
722.7067368954373
 20
413.3662685832496
 30
0
 11
724.7067368954373
 21
411.3662685832496
 31
0
  0
LINE
  8
1
 62
7
 10
842.7067368954373
 20
411.3662685832496
 30
0
 11
840.7067368954373
 21
411.3662685832496
 31
0
  0
LINE
  8
1
 62
7
 10
722.7067368954373
 20
413.3662685832496
 30
0
 11
722.7067368954373
 21
454.3662685832496
 31
0
  0
LINE
  8
1
 62
7
 10
722.7067368954373
 20
454.3662685832496
 30
0
 11
720.7067368954373
 21
456.3662685832496
 31
0
  0
LINE
  8
1
 62
7
 10
875.7067368954373
 20
409.3662685832496
 30
0
 11
873.7067368954373
 21
407.3662685832496
 31
0
  0
LINE
  8
1
 62
7
 10
842.7067368954373
 20
407.3662685832496
 30
0
 11
873.7067368954373
 21
407.3662685832496
 31
0
  0
LINE
  8
1
 62
7
 10
875.7067368954373
 20
428.8662685832496
 30
0
 11
981.7067368954373
 21
428.8662685832496
 31
0
  0
LINE
  8
1
 62
7
 10
981.7067368954373
 20
428.8662685832496
 30
0
 11
983.7067368954373
 21
430.8662685832496
 31
0
  0
LINE
  8
1
 62
7
 10
983.7067368954373
 20
430.8662685832496
 30
0
 11
983.7067368954373
 21
454.3662685832496
 31
0
  0
LINE
  8
1
 62
7
 10
983.7067368954373
 20
454.3662685832496
 30
0
 11
985.7067368954373
 21
456.3662685832496
 31
0
  0
LINE
  8
1
 62
7
 10
875.7067368954373
 20
388.8662685832494
 30
0
 11
875.7067368954373
 21
428.8662685832496
 31
0
  0
LINE
  8
1
 62
7
 10
842.7067368954373
 20
407.3662685832496
 30
0
 11
842.7067368954373
 21
411.3662685832496
 31
0
  0
LINE
  8
1
 62
7
 10
720.7067368954373
 20
464.3662685832496
 30
0
 11
985.7067368954372
 21
464.3662685832496
 31
0
  0
LINE
  8
1
 62
7
 10
720.7067368954373
 20
476.3662685832496
 30
0
 11
760.7067368954373
 21
476.3662685832496
 31
0
  0
LINE
  8
1
 62
7
 10
722.7067368954373
 20
423.8662685832496
 30
0
 11
875.7067368954373
 21
423.8662685832496
 31
0
  0
LINE
  8
1
 62
7
 10
870.7067368954373
 20
474.8662685832496
 30
0
 11
760.7067368954373
 21
474.8662685832496
 31
0
  0
LINE
  8
1
 62
7
 10
870.7067368954373
 20
476.3662685832496
 30
0
 11
985.7067368954373
 21
476.3662685832496
 31
0
  0
LINE
  8
1
 62
7
 10
895.7067368954373
 20
673.8662685832496
 30
0
 11
875.7067368954373
 21
693.8662685832496
 31
0
  0
LINE
  8
1
 62
3
  6
DASHDOT
 10
985.7067368954373
 20
551.3662685832496
 30
0
 11
988.2067368954373
 21
551.3662685832496
 31
0
  0
ARC
  8
1
 62
7
 10
741.7067368954372
 20
719.3662685832496
 30
0
 40
9.000000000000181
 50
332.581470383803
 51
170.6520812989438
  0
ARC
  8
1
 62
7
 10
776.3257307388943
 20
701.4072801577651
 30
0
 40
29.99999999999996
 50
152.5814703838027
 51
265.6012946450044
  0
ARC
  8
1
 62
7
 10
905.7067368954373
 20
661.3662685832496
 30
0
 40
10
 50
270
 51
119.1586044069254
  0
ARC
  8
1
 62
7
 10
905.7067368954373
 20
661.3662685832496
 30
0
 40
12.5
 50
233.130102354156
 51
152.2815446146688
  0
ARC
  8
1
 62
7
 10
859.7067368954373
 20
718.4662685832495
 30
0
 40
0.6000000000000227
 50
90
 51
270
  0
ARC
  8
1
 62
7
 10
860.0067368954373
 20
734.2662685832495
 30
0
 40
0.5999999999999871
 50
119.9999999999957
 51
240.0000000000043
  0
ARC
  8
1
 62
7
 10
844.9067368954374
 20
718.4662685832495
 30
0
 40
0.5999999999999871
 50
299.9999999999957
 51
60.00000000000431
  0
ARC
  8
1
 62
7
 10
845.2067368954373
 20
734.2662685832495
 30
0
 40
0.6000000000000227
 50
270
 51
90
  0
ARC
  8
1
 62
7
 10
736.7067368954373
 20
664.3662685832496
 30
0
 40
13.00000000000004
 50
170.6520812989439
 51
270
  0
ARC
  8
1
 62
7
 10
351.9317747450774
 20
551.3662685832496
 30
0
 40
140.4999999999998
 50
36.02614139636005
 51
83.87133258502267
  0
ARC
  8
1
 62
7
 10
351.9317747450774
 20
551.3662685832496
 30
0
 40
140.5
 50
276.0261413963601
 51
323.8713325850226
  0
ARC
  8
1
 62
7
 10
351.9317747450774
 20
551.3662685832496
 30
0
 40
142.5
 50
216.0423284190541
 51
323.9576715809458
  0
ARC
  8
1
 62
7
 10
351.9317747450774
 20
551.3662685832496
 30
0
 40
158.5
 50
215.4304402054527
 51
324.5695597945472
  0
ARC
  8
1
 62
7
 10
351.9317747450774
 20
551.3662685832496
 30
0
 40
140.4999999999998
 50
156.02614139636
 51
203.8713325850227
  0
ARC
  8
1
 62
7
 10
351.9317747450774
 20
551.3662685832496
 30
0
 40
142.5000000000001
 50
336.0423284190541
 51
83.9576715809459
  0
ARC
  8
1
 62
7
 10
351.9317747450774
 20
551.3662685832496
 30
0
 40
142.4999999999999
 50
96.0423284190541
 51
203.9576715809459
  0
ARC
  8
1
 62
7
 10
351.9317747450774
 20
551.3662685832496
 30
0
 40
158.5
 50
95.43044020545271
 51
204.5695597945473
  0
ARC
  8
1
 62
7
 10
351.9317747450774
 20
551.3662685832496
 30
0
 40
158.5
 50
335.4304402054527
 51
84.56955979454727
  0
ARC
  8
1
 62
7
 10
351.9317747450774
 20
551.3662685832496
 30
0
 40
140.4999999999999
 50
96.12866741497733
 51
143.9738586036399
  0
ARC
  8
1
 62
7
 10
351.9317747450774
 20
551.3662685832496
 30
0
 40
140.4999999999999
 50
336.1286674149773
 51
23.97385860363992
  0
ARC
  8
1
 62
7
 10
351.9317747450774
 20
551.3662685832496
 30
0
 40
140.4999999999999
 50
216.1286674149773
 51
263.97385860364
  0
ARC
  8
1
 62
7
 10
351.9317747450774
 20
551.3662685832496
 30
0
 40
97
 50
338.2342789530497
 51
55.54894053120727
  0
ARC
  8
1
 62
7
 10
351.9317747450774
 20
551.3662685832496
 30
0
 40
95.00000000000003
 50
244.8138762586414
 51
55.18612374135851
  0
ARC
  8
1
 62
7
 10
351.9317747450774
 20
551.3662685832496
 30
0
 40
138.0000000000002
 50
156.2401310982577
 51
203.7598689017423
  0
ARC
  8
1
 62
7
 10
351.9317747450774
 20
551.3662685832496
 30
0
 40
140
 50
156.150639827941
 51
203.849360172059
  0
ARC
  8
1
 62
7
 10
351.9317747450774
 20
551.3662685832496
 30
0
 40
140
 50
276.150639827941
 51
323.8493601720589
  0
ARC
  8
1
 62
7
 10
351.9317747450774
 20
551.3662685832496
 30
0
 40
138
 50
276.2401310982578
 51
323.7598689017422
  0
ARC
  8
1
 62
7
 10
351.9317747450774
 20
551.3662685832496
 30
0
 40
96.99999999999999
 50
244.4510594687882
 51
321.7657210469458
  0
ARC
  8
1
 62
7
 10
351.9317747450774
 20
551.3662685832496
 30
0
 40
97
 50
98.23427895305409
 51
201.765721046946
  0
ARC
  8
1
 62
7
 10
351.9317747450774
 20
551.3662685832496
 30
0
 40
96.99999999999987
 50
64.45105946878813
 51
81.76572104694597
  0
ARC
  8
1
 62
7
 10
351.9317747450774
 20
551.3662685832496
 30
0
 40
139.9999999999999
 50
36.15063982794104
 51
83.84936017205897
  0
ARC
  8
1
 62
7
 10
351.9317747450774
 20
551.3662685832496
 30
0
 40
138
 50
36.2401310982577
 51
83.75986890174224
  0
ARC
  8
1
 62
7
 10
351.9317747450774
 20
551.3662685832496
 30
0
 40
138.0000000000001
 50
216.2401310982577
 51
263.7598689017423
  0
ARC
  8
1
 62
7
 10
351.9317747450774
 20
551.3662685832496
 30
0
 40
140
 50
216.1506398279411
 51
263.8493601720589
  0
ARC
  8
1
 62
7
 10
351.9317747450774
 20
551.3662685832496
 30
0
 40
139.9999999999999
 50
336.150639827941
 51
23.84936017205896
  0
ARC
  8
1
 62
7
 10
351.9317747450774
 20
551.3662685832496
 30
0
 40
137.9999999999999
 50
336.2401310982578
 51
23.75986890174221
  0
ARC
  8
1
 62
7
 10
351.9317747450774
 20
551.3662685832496
 30
0
 40
74.99999999999999
 50
284.6748497428631
 51
255.325150257137
  0
ARC
  8
1
 62
7
 10
351.9317747450774
 20
551.3662685832496
 30
0
 40
95.00000000000003
 50
64.81387625864144
 51
235.1861237413585
  0
ARC
  8
1
 62
7
 10
351.9317747450774
 20
551.3662685832496
 30
0
 40
97.00000000000016
 50
218.2342789530539
 51
235.5489405312119
  0
ARC
  8
1
 62
7
 10
351.9317747450774
 20
551.3662685832496
 30
0
 40
139.9999999999999
 50
96.15063982794104
 51
143.8493601720589
  0
ARC
  8
1
 62
7
 10
351.9317747450774
 20
551.3662685832496
 30
0
 40
138
 50
96.24013109825775
 51
143.7598689017422
  0
CIRCLE
  8
1
 62
7
 10
856.9924511811516
 20
718.4662685832495
 30
0
 40
0.6000000000000227
  0
CIRCLE
  8
1
 62
7
 10
858.8067368954373
 20
734.2662685832495
 30
0
 40
0.6000000000000227
  0
CIRCLE
  8
1
 62
7
 10
853.3638797525802
 20
718.4662685832495
 30
0
 40
0.6000000000000227
  0
CIRCLE
  8
1
 62
7
 10
855.1781654668658
 20
734.2662685832495
 30
0
 40
0.6000000000000227
  0
CIRCLE
  8
1
 62
7
 10
849.7353083240088
 20
718.4662685832495
 30
0
 40
0.6000000000000227
  0
CIRCLE
  8
1
 62
7
 10
851.5495940382945
 20
734.2662685832495
 30
0
 40
0.6000000000000227
  0
CIRCLE
  8
1
 62
7
 10
846.1067368954373
 20
718.4662685832495
 30
0
 40
0.6000000000000227
  0
CIRCLE
  8
1
 62
7
 10
847.921022609723
 20
734.2662685832495
 30
0
 40
0.6000000000000227
  0
CIRCLE
  8
1
 62
3
 10
429.0246961802878
 20
454.8951254129499
 30
0
 40
2.400000000000034
  0
CIRCLE
  8
1
 62
7
 10
429.0246961802878
 20
454.8951254129499
 30
0
 40
3
  0
CIRCLE
  8
1
 62
3
 10
229.838853309867
 20
532.8374117535494
 30
0
 40
2.400000000000006
  0
CIRCLE
  8
1
 62
7
 10
229.838853309867
 20
532.8374117535494
 30
0
 40
3
  0
CIRCLE
  8
1
 62
3
 10
396.9317747450774
 20
666.3662685832496
 30
0
 40
2.399999999999977
  0
CIRCLE
  8
1
 62
7
 10
396.9317747450774
 20
666.3662685832496
 30
0
 40
3
  0
CIRCLE
  8
1
 62
7
 10
905.7067368954373
 20
661.3662685832496
 30
0
 40
5
  0
CIRCLE
  8
1
 62
3
 10
351.9317747450774
 20
551.3662685832496
 30
0
 40
202.5
  0
CIRCLE
  8
1
 62
7
 10
351.9317747450774
 20
551.3662685832496
 30
0
 40
212
  0
CIRCLE
  8
1
 62
7
 10
351.9317747450774
 20
551.3662685832496
 30
0
 40
194
  0
CIRCLE
  8
1
 62
7
 10
351.9317747450774
 20
551.3662685832496
 30
0
 40
199
  0
CIRCLE
  8
1
 62
7
 10
736.7067368954373
 20
664.3662685832496
 30
0
 40
6
  0
CIRCLE
  8
1
 62
7
 10
398.9317747450774
 20
632.7726565389868
 30
0
 40
6.399999999999977
  0
CIRCLE
  8
1
 62
3
 10
398.9317747450774
 20
632.7726565389868
 30
0
 40
8
  0
CIRCLE
  8
1
 62
7
 10
304.9317747450774
 20
469.9598806275124
 30
0
 40
6.39999999999992
  0
CIRCLE
  8
1
 62
3
 10
304.9317747450774
 20
469.9598806275124
 30
0
 40
8
  0
POLYLINE
  8
1
 62
7
 66
1
  0
VERTEX
  8
1
 10
866.3067368954373
 20
730.3662685832495
 30
0
 42
-0.03197573370383761
  0
VERTEX
  8
1
 10
867.3447991791742
 20
729.4250921126612
 30
0
 42
-0.0428419486001967
  0
VERTEX
  8
1
 10
868.1060448539149
 20
728.4839156420732
 30
0
 42
-0.05629168526466346
  0
VERTEX
  8
1
 10
868.5904739196589
 20
727.5427391714848
 30
0
 42
-0.06877688111856493
  0
VERTEX
  8
1
 10
868.7980863764062
 20
726.6015627008966
 30
0
 42
-0.07320041890141364
  0
VERTEX
  8
1
 10
868.728882224157
 20
725.6603862303084
 30
0
 42
-0.06611232422829765
  0
VERTEX
  8
1
 10
868.3828614629114
 20
724.7192097597201
 30
0
 42
-0.05280342124406259
  0
VERTEX
  8
1
 10
867.7600240926691
 20
723.7780332891318
 30
0
 42
-0.0398346009963252
  0
VERTEX
  8
1
 10
866.8603701134304
 20
722.8368568185435
 30
0
  0
VERTEX
  8
1
 10
866.3067368954373
 20
722.3662685832495
 30
0
  0
SEQEND
  8
1
  0
ARC
  8
1
 62
7
 10
876.473005600178
 20
713.7627279536745
 30
0
 40
50.00000000000006
 50
265.6012946450045
 51
299.1586044069254
  0
TEXT
  8
1
 62
7
 10
276.3624174105971
 20
845.1459648263719
 30
0
 40
15
  1
DS 1606MG
 41
0.9
  7
SIMPLEX
 72
1
 11
337.1124174105971
 21
845.1459648263719
 31
0
  0
ENDSEC
  0
EOF
