  0
SECTION
  2
HEADER
  9
$ACADVER
  1
AC1009
  9
$INSBASE
 10
0
 20
0
  9
$EXTMIN
 10
-133.192720540459
 20
14.61871858864976
  9
$EXTMAX
 10
77.78114216699572
 20
108.73896902397
  9
$LIMMIN
 10
-133.192720540459
 20
14.61871858864976
  9
$LIMMAX
 10
77.78114216699572
 20
108.73896902397
  9
$VIEWCTR
 10
10
 20
10
  9
$VIEWSIZE
 40
10
  9
$SNAPMODE
 70
0
  9
$SNAPUNIT
 10
1
 20
1
  9
$SNAPBASE
 10
0
 20
0
  9
$SNAPANG
 50
0
  9
$SNAPSTYLE
 70
0
  9
$SNAPISOPAIR
 70
0
  9
$GRIDMODE
 70
0
  9
$GRIDUNIT
 10
0
 20
0
  9
$ORTHOMODE
 70
0
  9
$REGENMODE
 70
1
  9
$FILLMODE
 70
1
  9
$QTEXTMODE
 70
0
  9
$DRAGMODE
 70
2
  9
$LTSCALE
 40
1
  9
$OSMODE
 70
0
  9
$ATTMODE
 70
1
  9
$TEXTSIZE
 40
3.5
  9
$TRACEWID
 40
0.5
  9
$TEXTSTYLE
  7
STANDARD
  9
$CLAYER
  8
0
  9
$CELTYPE
  6
BYLAYER
  9
$CECOLOR
 62
256
  9
$DIMSCALE
 40
1
  9
$DIMASZ
 40
0.18
  9
$DIMEXO
 40
0.0625
  9
$DIMDLI
 40
0.38
  9
$DIMRND
 40
0
  9
$DIMDLE
 40
0
  9
$DIMEXE
 40
0.18
  9
$DIMTP
 40
0
  9
$DIMTM
 40
0
  9
$DIMTXT
 40
0.18
  9
$DIMCEN
 40
0.09
  9
$DIMTSZ
 40
0
  9
$DIMTOL
 70
0
  9
$DIMLIM
 70
0
  9
$DIMTIH
 70
1
  9
$DIMTOH
 70
1
  9
$DIMSE1
 70
0
  9
$DIMSE2
 70
0
  9
$DIMTAD
 70
0
  9
$DIMZIN
 70
0
  9
$DIMBLK
  1

  9
$DIMASO
 70
1
  9
$DIMSHO
 70
1
  9
$DIMPOST
  1

  9
$DIMAPOST
  1

  9
$DIMALT
 70
0
  9
$DIMALTD
 70
2
  9
$DIMALTF
 40
25.4
  9
$DIMLFAC
 40
1
  9
$DIMTOFL
 70
0
  9
$DIMTVP
 40
0
  9
$DIMTIX
 70
0
  9
$DIMSOXD
 70
0
  9
$DIMSAH
 70
0
  9
$DIMBLK1
  1

  9
$DIMBLK2
  1

  9
$DIMSTYLE
  2
*UNNAMED
  9
$DIMCLRD
 70
0
  9
$DIMCLRE
 70
0
  9
$DIMCLRT
 70
0
  9
$DIMTFAC
 40
1
  9
$DIMGAP
 40
0.09
  9
$LUNITS
 70
2
  9
$LUPREC
 70
4
  9
$AXISMODE
 70
0
  9
$AXISUNIT
 10
0
 20
0
  9
$SKETCHINC
 40
0.1
  9
$FILLETRAD
 40
2
  9
$AUNITS
 70
0
  9
$AUPREC
 70
0
  9
$MENU
  1
ACAD
  9
$ELEVATION
 40
0
  9
$THICKNESS
 40
0
  9
$VIEWDIR
 10
0
 20
0
 30
1
  9
$LIMCHECK
 70
0
  9
$BLIPMODE
 70
1
  9
$CHAMFERA
 40
0
  9
$CHAMFERB
 40
0
  9
$FASTZOOM
 70
1
  9
$SKPOLY
 70
0
  9
$ANGBASE
 50
0
  9
$ANGDIR
 70
0
  9
$PDMODE
 70
0
  9
$PDSIZE
 40
0
  9
$PLINEWID
 40
0
  9
$COORDS
 70
2
  0
ENDSEC
  0
SECTION
  2
TABLES
  0
TABLE
  2
DIMSTYLE
 70
0
  0
ENDTAB
  0
TABLE
  2
LTYPE
 70
9
  0
LTYPE
  2
CONTINUOUS
 70
64
  3
Solid line
 72
65
 73
0
 40
0
  0
LTYPE
  2
BORDER
 70
64
  3
__ __ . __ __ .
 72
65
 73
6
 40
9.715901572053836
 49
2.775971877729667
 49
-1.387985938864834
 49
2.775971877729667
 49
-1.387985938864834
 49
0
 49
-1.387985938864834
  0
LTYPE
  2
CENTER
 70
64
  3
____ _ ____ _
 72
65
 73
4
 40
11.10388751091867
 49
6.939929694324168
 49
-1.387985938864834
 49
1.387985938864834
 49
-1.387985938864834
  0
LTYPE
  2
DASHDOT
 70
64
  3
__ . __ . __ .
 72
65
 73
4
 40
5.551943755459335
 49
2.775971877729667
 49
-1.387985938864834
 49
0
 49
-1.387985938864834
  0
LTYPE
  2
DASHED
 70
64
  3
__ __ __ __ __
 72
65
 73
2
 40
4.163957816594501
 49
2.775971877729667
 49
-1.387985938864834
  0
LTYPE
  2
DIVIDE
 70
64
  3
__ . . __ . . 
 72
65
 73
6
 40
6.939929694324168
 49
2.775971877729667
 49
-1.387985938864834
 49
0
 49
-1.387985938864834
 49
0
 49
-1.387985938864834
  0
LTYPE
  2
DOT
 70
64
  3
..............
 72
65
 73
4
 40
2.775971877729667
 49
0
 49
-1.387985938864834
 49
0
 49
-1.387985938864834
  0
LTYPE
  2
HIDDEN
 70
64
  3
_ _ _ _ _ _ _
 72
65
 73
2
 40
2.081978908297251
 49
1.387985938864834
 49
-0.6939929694324168
  0
LTYPE
  2
PHANTOM
 70
64
  3
_____ _ _ _____ _ _ 
 72
65
 73
6
 40
13.87985938864834
 49
6.939929694324168
 49
-1.387985938864834
 49
1.387985938864834
 49
-1.387985938864834
 49
1.387985938864834
 49
-1.387985938864834
  0
ENDTAB
  0
TABLE
  2
LAYER
 70
3
  0
LAYER
  2
1
 70
0
 62
7
  6
CONTINUOUS
  0
LAYER
  2
0
 70
0
 62
7
  6
CONTINUOUS
  0
ENDTAB
  0
TABLE
  2
STYLE
 70
4
  0
STYLE
  2
STANDARD
 70
0
 40
0
 41
1
 50
0
 71
0
 42
3.5
  3
txt
  4

  0
STYLE
  2
SIMPLEX
 70
0
 40
0
 41
1
 50
0
 71
0
 42
3.5
  3
simplex
  4

  0
STYLE
  2
COMPLEX
 70
0
 40
0
 41
1
 50
0
 71
0
 42
3.5
  3
complex
  4

  0
STYLE
  2
ITALIC
 70
0
 40
0
 41
1
 50
0
 71
0
 42
3.5
  3
italic
  4

  0
ENDTAB
  0
TABLE
  2
VIEW
 70
0
  0
ENDTAB
  0
ENDSEC
  0
SECTION
  2
BLOCKS
  0
ENDSEC
  0
SECTION
  2
ENTITIES
  0
LINE
  8
1
 62
3
  6
DIVIDE
 10
72.78114216699572
 20
26.1187185886498
 30
0
 11
72.28114216699572
 21
26.11871858864981
 31
0
  0
LINE
  8
1
 62
3
  6
DIVIDE
 10
72.78114216699572
 20
26.1187185886498
 30
0
 11
72.78114216699572
 21
16.11871858864976
 31
0
  0
LINE
  8
1
 62
3
  6
DIVIDE
 10
72.78114216699572
 20
26.1187185886498
 30
0
 11
72.78114216699572
 21
16.11871858864976
 31
0
  0
LINE
  8
1
 62
3
  6
DIVIDE
 10
71.28114216699572
 20
14.61871858864976
 30
0
 11
68.78114216699572
 21
14.61871858864976
 31
0
  0
LINE
  8
1
 62
3
  6
DIVIDE
 10
68.78114216699572
 20
14.61871858864976
 30
0
 11
68.78114216699572
 21
21.61871858864976
 31
0
  0
LINE
  8
1
 62
3
  6
DIVIDE
 10
56.78114216699572
 20
14.61871858864976
 30
0
 11
54.28114216699572
 21
14.61871858864976
 31
0
  0
LINE
  8
1
 62
3
  6
DIVIDE
 10
68.78114216699572
 20
21.61871858864976
 30
0
 11
56.78114216699572
 21
21.61871858864976
 31
0
  0
LINE
  8
1
 62
3
  6
DIVIDE
 10
56.78114216699572
 20
21.61871858864976
 30
0
 11
56.78114216699572
 21
14.61871858864976
 31
0
  0
LINE
  8
1
 62
3
  6
DIVIDE
 10
52.78114216699571
 20
16.11871858864976
 30
0
 11
54.28114216699572
 21
14.61871858864976
 31
0
  0
LINE
  8
1
 62
3
  6
DIVIDE
 10
52.78114216699571
 20
16.11871858864976
 30
0
 11
52.78114216699571
 21
26.1187185886498
 31
0
  0
LINE
  8
1
 62
3
  6
DASHDOT
 10
62.78114216699572
 20
29.1187185886498
 30
0
 11
62.78114216699572
 21
18.61871858864976
 31
0
  0
LINE
  8
1
 62
3
  6
DASHDOT
 10
52.28114216699573
 20
29.1187185886498
 30
0
 11
52.28114216699573
 21
18.61871858864976
 31
0
  0
LINE
  8
1
 62
3
  6
DIVIDE
 10
72.28114216699572
 20
81.1187185886498
 30
0
 11
72.78114216699572
 21
81.1187185886498
 31
0
  0
LINE
  8
1
 62
3
  6
DIVIDE
 10
52.78114216699571
 20
81.1187185886498
 30
0
 11
52.78114216699571
 21
91.11871858864984
 31
0
  0
LINE
  8
1
 62
3
  6
DIVIDE
 10
54.28114216699572
 20
92.61871858864984
 30
0
 11
52.78114216699571
 21
91.11871858864984
 31
0
  0
LINE
  8
1
 62
3
  6
DIVIDE
 10
54.28114216699572
 20
92.61871858864984
 30
0
 11
56.78114216699572
 21
92.61871858864984
 31
0
  0
LINE
  8
1
 62
3
  6
DIVIDE
 10
56.78114216699572
 20
92.61871858864984
 30
0
 11
56.78114216699572
 21
85.61871858864984
 31
0
  0
LINE
  8
1
 62
3
  6
DIVIDE
 10
56.78114216699572
 20
85.61871858864984
 30
0
 11
68.78114216699572
 21
85.61871858864984
 31
0
  0
LINE
  8
1
 62
3
  6
DIVIDE
 10
68.78114216699572
 20
85.61871858864984
 30
0
 11
68.78114216699572
 21
92.61871858864984
 31
0
  0
LINE
  8
1
 62
3
  6
DIVIDE
 10
68.78114216699572
 20
92.61871858864984
 30
0
 11
71.28114216699572
 21
92.61871858864984
 31
0
  0
LINE
  8
1
 62
3
  6
DIVIDE
 10
72.78114216699572
 20
91.11871858864984
 30
0
 11
72.78114216699572
 21
81.1187185886498
 31
0
  0
LINE
  8
1
 62
7
 10
-115.7581959361765
 20
61.91262967540423
 30
0
 11
-112.2581959361765
 21
67.97480750189531
 31
0
  0
LINE
  8
1
 62
7
 10
-76.5272451447415
 20
67.9748075018953
 30
0
 11
-73.0272451447415
 21
61.91262967540422
 31
0
  0
LINE
  8
1
 62
7
 10
35.22318028274501
 20
82.11871858864984
 30
0
 11
36.10481518628734
 21
87.11871858864984
 31
0
  0
LINE
  8
1
 62
7
 10
36.10481518628734
 20
87.11871858864984
 30
0
 11
36.28114216699581
 21
86.11871858864984
 31
0
  0
LINE
  8
1
 62
7
 10
33.45991047566036
 20
82.11871858864984
 30
0
 11
34.34154537920268
 21
87.11871858864984
 31
0
  0
LINE
  8
1
 62
7
 10
34.34154537920268
 20
87.11871858864984
 30
0
 11
35.22318028274501
 21
82.11871858864984
 31
0
  0
LINE
  8
1
 62
7
 10
32.57827557211802
 20
87.11871858864984
 30
0
 11
33.45991047566036
 21
82.11871858864984
 31
0
  0
LINE
  8
1
 62
7
 10
31.6966406685757
 20
82.11871858864984
 30
0
 11
32.57827557211802
 21
87.11871858864984
 31
0
  0
LINE
  8
1
 62
7
 10
-79.6523394836924
 20
49.14980750189531
 30
0
 11
-83.15233948369242
 21
43.08762967540424
 31
0
  0
LINE
  8
1
 62
7
 10
-105.6331015972256
 20
43.08762967540423
 30
0
 11
-109.1331015972256
 21
49.14980750189531
 31
0
  0
LINE
  8
1
 62
7
 10
-90.89272054045901
 20
30.96871858864981
 30
0
 11
-97.89272054045901
 21
30.96871858864981
 31
0
  0
LINE
  8
1
 62
3
  6
DASHDOT
 10
-2.218857833004193
 20
53.6187185886498
 30
0
 11
-7.218857833004203
 21
53.6187185886498
 31
0
  0
LINE
  8
1
 62
3
  6
DIVIDE
 10
42.28114216699572
 20
84.11871858864984
 30
0
 11
69.28114216699572
 21
84.11871858864984
 31
0
  0
LINE
  8
1
 62
3
  6
DASHDOT
 10
77.78114216699572
 20
53.6187185886498
 30
0
 11
72.78114216699572
 21
53.6187185886498
 31
0
  0
LINE
  8
1
 62
7
 10
41.78114216699569
 20
68.11871858864981
 30
0
 11
-2.218857833004193
 21
68.11871858864981
 31
0
  0
LINE
  8
1
 62
7
 10
29.78114216699569
 20
31.6187185886498
 30
0
 11
-1.718857833004193
 21
31.6187185886498
 31
0
  0
LINE
  8
1
 62
7
 10
28.78114216699569
 20
78.86871858864981
 30
0
 11
29.74925356059429
 21
80.54553670974892
 31
0
  0
LINE
  8
1
 62
7
 10
29.74925356059429
 20
80.54553670974892
 30
0
 11
39.78114216699569
 21
80.54553670974892
 31
0
  0
LINE
  8
1
 62
7
 10
39.78114216699569
 20
80.54553670974892
 30
0
 11
40.1120688790737
 21
81.1187185886498
 31
0
  0
LINE
  8
1
 62
7
 10
-2.218857833004193
 20
72.61871858864981
 30
0
 11
-1.718857833004193
 21
73.11871858864981
 31
0
  0
LINE
  8
1
 62
7
 10
-1.718857833004193
 20
73.11871858864981
 30
0
 11
-1.718857833004193
 21
78.86871858864981
 31
0
  0
LINE
  8
1
 62
7
 10
-1.718857833004193
 20
78.86871858864981
 30
0
 11
-1.002908715368498
 21
78.86871858864981
 31
0
  0
LINE
  8
1
 62
7
 10
40.1120688790737
 20
81.1187185886498
 30
0
 11
72.28114216699572
 21
81.1187185886498
 31
0
  0
LINE
  8
1
 62
7
 10
72.28114216699572
 20
81.1187185886498
 30
0
 11
72.28114216699572
 21
73.11871858864981
 31
0
  0
LINE
  8
1
 62
7
 10
72.28114216699572
 20
73.11871858864981
 30
0
 11
72.78114216699572
 21
72.61871858864981
 31
0
  0
LINE
  8
1
 62
3
 10
39.78114216699569
 20
26.6919004675507
 30
0
 11
39.20379189780609
 21
27.6919004675507
 31
0
  0
LINE
  8
1
 62
7
 10
-2.218857833004193
 20
34.6187185886498
 30
0
 11
-2.218857833004193
 21
72.61871858864981
 31
0
  0
LINE
  8
1
 62
7
 10
-1.718857833004193
 20
34.11871858864981
 30
0
 11
-2.218857833004193
 21
34.6187185886498
 31
0
  0
LINE
  8
1
 62
7
 10
-1.718857833004193
 20
28.36871858864981
 30
0
 11
-1.718857833004193
 21
34.11871858864981
 31
0
  0
LINE
  8
1
 62
7
 10
28.78114216699569
 20
28.3687185886498
 30
0
 11
27.7811421669958
 21
28.3687185886498
 31
0
  0
LINE
  8
1
 62
7
 10
72.28114216699572
 20
26.11871858864981
 30
0
 11
40.1120688790737
 21
26.11871858864981
 31
0
  0
LINE
  8
1
 62
7
 10
72.28114216699572
 20
34.1187185886498
 30
0
 11
72.28114216699572
 21
26.11871858864981
 31
0
  0
LINE
  8
1
 62
7
 10
72.78114216699572
 20
34.6187185886498
 30
0
 11
72.28114216699572
 21
34.1187185886498
 31
0
  0
LINE
  8
1
 62
7
 10
72.78114216699572
 20
34.6187185886498
 30
0
 11
72.78114216699572
 21
72.61871858864981
 31
0
  0
LINE
  8
1
 62
3
 10
29.1719032914047
 20
79.54553670974892
 30
0
 11
39.20379189780609
 21
79.54553670974893
 31
0
  0
LINE
  8
1
 62
3
 10
39.20379189780609
 20
79.54553670974893
 30
0
 11
39.78114216699569
 21
80.54553670974892
 31
0
  0
LINE
  8
1
 62
7
 10
9.781142166995807
 20
78.86871858864981
 30
0
 11
9.781142166995807
 21
92.41871858864984
 31
0
  0
LINE
  8
1
 62
7
 10
9.781142166995807
 20
92.41871858864984
 30
0
 11
24.7811421669958
 21
92.41871858864984
 31
0
  0
LINE
  8
1
 62
7
 10
24.7811421669958
 20
92.41871858864984
 30
0
 11
24.7811421669958
 21
78.86871858864981
 31
0
  0
LINE
  8
1
 62
3
 10
24.7811421669958
 20
78.86871858864981
 30
0
 11
9.781142166995807
 21
92.41871858864984
 31
0
  0
LINE
  8
1
 62
3
 10
9.781142166995807
 20
78.86871858864981
 30
0
 11
24.7811421669958
 21
92.41871858864984
 31
0
  0
LINE
  8
1
 62
7
 10
9.781142166995807
 20
88.11871858864984
 30
0
 11
7.281142166995807
 21
88.11871858864984
 31
0
  0
LINE
  8
1
 62
7
 10
5.781142166995807
 20
86.61871858864984
 30
0
 11
5.781142166995807
 21
78.86871858864981
 31
0
  0
LINE
  8
1
 62
7
 10
5.781142166995807
 20
82.11871858864984
 30
0
 11
7.781142166995807
 21
80.11871858864981
 31
0
  0
LINE
  8
1
 62
7
 10
7.781142166995807
 20
80.11871858864981
 30
0
 11
7.781142166995807
 21
78.86871858864981
 31
0
  0
LINE
  8
1
 62
7
 10
5.781142166995807
 20
86.61871858864984
 30
0
 11
7.281142166995807
 21
88.11871858864984
 31
0
  0
LINE
  8
1
 62
7
 10
27.7811421669958
 20
88.11871858864984
 30
0
 11
27.7811421669958
 21
78.86871858864981
 31
0
  0
LINE
  8
1
 62
7
 10
24.7811421669958
 20
88.11871858864984
 30
0
 11
38.28114216699581
 21
88.11871858864984
 31
0
  0
LINE
  8
1
 62
7
 10
40.78114216699581
 20
86.61871858864984
 30
0
 11
40.78114216699581
 21
81.1187185886498
 31
0
  0
LINE
  8
1
 62
7
 10
40.78114216699581
 20
86.61871858864984
 30
0
 11
39.4811421669958
 21
87.91871858864984
 31
0
  0
LINE
  8
1
 62
3
 10
29.74925356059429
 20
80.54553670974892
 30
0
 11
27.7811421669958
 21
80.54553670974892
 31
0
  0
LINE
  8
1
 62
7
 10
29.1719032914047
 20
79.54553670974892
 30
0
 11
27.7811421669958
 21
79.54553670974892
 31
0
  0
LINE
  8
1
 62
7
 10
27.7811421669958
 20
86.11871858864984
 30
0
 11
24.7811421669958
 21
86.11871858864984
 31
0
  0
LINE
  8
1
 62
7
 10
27.7811421669958
 20
83.11871858864984
 30
0
 11
24.7811421669958
 21
83.11871858864984
 31
0
  0
LINE
  8
1
 62
7
 10
31.2811421669958
 20
87.11871858864984
 30
0
 11
31.2811421669958
 21
82.11871858864984
 31
0
  0
LINE
  8
1
 62
7
 10
27.7811421669958
 20
87.11871858864984
 30
0
 11
36.28114216699581
 21
87.11871858864984
 31
0
  0
LINE
  8
1
 62
7
 10
31.2811421669958
 20
86.11871858864984
 30
0
 11
38.28114216699581
 21
86.11871858864984
 31
0
  0
LINE
  8
1
 62
7
 10
38.28114216699581
 20
83.11871858864984
 30
0
 11
31.2811421669958
 21
83.11871858864984
 31
0
  0
LINE
  8
1
 62
7
 10
36.28114216699581
 20
82.11871858864984
 30
0
 11
27.7811421669958
 21
82.11871858864984
 31
0
  0
LINE
  8
1
 62
7
 10
36.28114216699581
 20
87.11871858864984
 30
0
 11
36.28114216699581
 21
86.11871858864984
 31
0
  0
LINE
  8
1
 62
7
 10
36.28114216699581
 20
82.11871858864984
 30
0
 11
36.28114216699581
 21
83.11871858864984
 31
0
  0
LINE
  8
1
 62
7
 10
38.28114216699581
 20
79.54553670974893
 30
0
 11
38.28114216699581
 21
91.61871858864984
 31
0
  0
LINE
  8
1
 62
7
 10
39.4811421669958
 20
91.61871858864984
 30
0
 11
39.4811421669958
 21
82.11871858864984
 31
0
  0
LINE
  8
1
 62
7
 10
38.28114216699581
 20
91.61871858864984
 30
0
 11
39.4811421669958
 21
91.61871858864984
 31
0
  0
LINE
  8
1
 62
7
 10
39.4811421669958
 20
82.11871858864984
 30
0
 11
38.28114216699581
 21
82.11871858864984
 31
0
  0
LINE
  8
1
 62
7
 10
42.28114216699572
 20
81.1187185886498
 30
0
 11
42.28114216699572
 21
91.11871858864984
 31
0
  0
LINE
  8
1
 62
7
 10
43.78114216699573
 20
92.61871858864984
 30
0
 11
46.28114216699573
 21
92.61871858864984
 31
0
  0
LINE
  8
1
 62
7
 10
46.28114216699573
 20
92.61871858864984
 30
0
 11
46.28114216699573
 21
85.61871858864984
 31
0
  0
LINE
  8
1
 62
7
 10
46.28114216699573
 20
85.61871858864984
 30
0
 11
58.28114216699573
 21
85.61871858864984
 31
0
  0
LINE
  8
1
 62
7
 10
58.28114216699573
 20
85.61871858864984
 30
0
 11
58.28114216699573
 21
92.61871858864984
 31
0
  0
LINE
  8
1
 62
7
 10
58.28114216699573
 20
92.61871858864984
 30
0
 11
60.78114216699573
 21
92.61871858864984
 31
0
  0
LINE
  8
1
 62
7
 10
62.28114216699573
 20
91.11871858864984
 30
0
 11
62.28114216699573
 21
81.1187185886498
 31
0
  0
LINE
  8
1
 62
3
  6
DASHDOT
 10
52.28114216699573
 20
88.61871858864984
 30
0
 11
52.28114216699573
 21
78.1187185886498
 31
0
  0
LINE
  8
1
 62
3
  6
DASHDOT
 10
62.78114216699572
 20
88.61871858864984
 30
0
 11
62.78114216699572
 21
78.1187185886498
 31
0
  0
LINE
  8
1
 62
7
 10
43.78114216699573
 20
92.61871858864984
 30
0
 11
42.28114216699572
 21
91.11871858864984
 31
0
  0
LINE
  8
1
 62
7
 10
-0.2453702787001788
 20
84.03810964428985
 30
0
 11
-1.666020159278077
 21
74.34369094501685
 31
0
  0
LINE
  8
1
 62
7
 10
53.48228790106068
 20
71.4175900173981
 30
0
 11
3.560249691961623
 21
68.62651476773989
 31
0
  0
LINE
  8
1
 62
7
 10
41.29137479914169
 20
74.66478662882081
 30
0
 11
10.04394641593243
 21
75.8524690196534
 31
0
  0
LINE
  8
1
 62
7
 10
5.781142166995807
 20
28.3687185886498
 30
0
 11
5.781142166995807
 21
20.6187185886498
 31
0
  0
LINE
  8
1
 62
7
 10
7.781142166995807
 20
27.1187185886498
 30
0
 11
5.781142166995807
 21
25.1187185886498
 31
0
  0
LINE
  8
1
 62
7
 10
7.281142166995807
 20
19.1187185886498
 30
0
 11
9.781142166995807
 21
19.1187185886498
 31
0
  0
LINE
  8
1
 62
7
 10
7.281142166995807
 20
19.1187185886498
 30
0
 11
5.781142166995807
 21
20.6187185886498
 31
0
  0
LINE
  8
1
 62
7
 10
7.781142166995808
 20
30.96871858864981
 30
0
 11
7.781142166995807
 21
27.1187185886498
 31
0
  0
LINE
  8
1
 62
7
 10
24.7811421669958
 20
14.81871858864982
 30
0
 11
9.781142166995807
 21
14.81871858864982
 31
0
  0
LINE
  8
1
 62
7
 10
29.74925356059429
 20
26.6919004675507
 30
0
 11
28.78114216699569
 21
28.3687185886498
 31
0
  0
LINE
  8
1
 62
7
 10
39.78114216699569
 20
26.6919004675507
 30
0
 11
29.74925356059429
 21
26.6919004675507
 31
0
  0
LINE
  8
1
 62
7
 10
40.1120688790737
 20
26.11871858864981
 30
0
 11
39.78114216699569
 21
26.6919004675507
 31
0
  0
LINE
  8
1
 62
3
 10
39.20379189780609
 20
27.6919004675507
 30
0
 11
29.1719032914047
 21
27.6919004675507
 31
0
  0
LINE
  8
1
 62
7
 10
24.7811421669958
 20
30.96871858864981
 30
0
 11
24.7811421669958
 21
14.81871858864982
 31
0
  0
LINE
  8
1
 62
7
 10
39.28114216699581
 20
19.1187185886498
 30
0
 11
24.7811421669958
 21
19.1187185886498
 31
0
  0
LINE
  8
1
 62
7
 10
40.78114216699581
 20
26.11871858864981
 30
0
 11
40.78114216699581
 21
20.6187185886498
 31
0
  0
LINE
  8
1
 62
7
 10
39.28114216699581
 20
19.1187185886498
 30
0
 11
40.78114216699581
 21
20.6187185886498
 31
0
  0
LINE
  8
1
 62
3
 10
27.7811421669958
 20
26.6919004675507
 30
0
 11
29.74925356059429
 21
26.6919004675507
 31
0
  0
LINE
  8
1
 62
7
 10
27.7811421669958
 20
27.6919004675507
 30
0
 11
29.1719032914047
 21
27.6919004675507
 31
0
  0
LINE
  8
1
 62
7
 10
24.7811421669958
 20
21.1187185886498
 30
0
 11
27.7811421669958
 21
21.1187185886498
 31
0
  0
LINE
  8
1
 62
7
 10
24.7811421669958
 20
24.1187185886498
 30
0
 11
27.7811421669958
 21
24.1187185886498
 31
0
  0
LINE
  8
1
 62
7
 10
42.28114216699572
 20
16.1187185886498
 30
0
 11
42.28114216699572
 21
26.11871858864981
 31
0
  0
LINE
  8
1
 62
7
 10
46.28114216699573
 20
14.6187185886498
 30
0
 11
43.78114216699573
 21
14.6187185886498
 31
0
  0
LINE
  8
1
 62
7
 10
46.28114216699573
 20
21.6187185886498
 30
0
 11
46.28114216699573
 21
14.6187185886498
 31
0
  0
LINE
  8
1
 62
7
 10
58.28114216699573
 20
21.6187185886498
 30
0
 11
46.28114216699573
 21
21.6187185886498
 31
0
  0
LINE
  8
1
 62
7
 10
58.28114216699573
 20
14.6187185886498
 30
0
 11
58.28114216699573
 21
21.6187185886498
 31
0
  0
LINE
  8
1
 62
7
 10
60.78114216699573
 20
14.6187185886498
 30
0
 11
58.28114216699573
 21
14.6187185886498
 31
0
  0
LINE
  8
1
 62
7
 10
62.28114216699573
 20
26.11871858864981
 30
0
 11
62.28114216699573
 21
16.1187185886498
 31
0
  0
LINE
  8
1
 62
7
 10
42.28114216699572
 20
16.1187185886498
 30
0
 11
43.78114216699573
 21
14.6187185886498
 31
0
  0
LINE
  8
1
 62
7
 10
27.7811421669958
 20
19.1187185886498
 30
0
 11
27.7811421669958
 21
30.96871858864981
 31
0
  0
LINE
  8
1
 62
7
 10
9.781142166995807
 20
14.81871858864982
 30
0
 11
9.781142166995807
 21
30.96871858864981
 31
0
  0
LINE
  8
1
 62
7
 10
27.7811421669958
 20
30.96871858864981
 30
0
 11
7.781142166995808
 21
30.96871858864981
 31
0
  0
LINE
  8
1
 62
7
 10
7.781142166995807
 20
28.3687185886498
 30
0
 11
-1.718857833004193
 21
28.36871858864981
 31
0
  0
LINE
  8
1
 62
3
 10
24.7811421669958
 20
30.96871858864981
 30
0
 11
9.781142166995807
 21
14.81871858864982
 31
0
  0
LINE
  8
1
 62
3
 10
9.781142166995807
 20
30.96871858864981
 30
0
 11
24.7811421669958
 21
14.81871858864982
 31
0
  0
LINE
  8
1
 62
7
 10
31.7811421669958
 20
19.1187185886498
 30
0
 11
31.7811421669958
 21
24.1187185886498
 31
0
  0
LINE
  8
1
 62
7
 10
31.7811421669958
 20
24.1187185886498
 30
0
 11
36.78114216699581
 21
24.1187185886498
 31
0
  0
LINE
  8
1
 62
7
 10
36.78114216699581
 20
24.1187185886498
 30
0
 11
36.78114216699581
 21
19.1187185886498
 31
0
  0
LINE
  8
1
 62
7
 10
31.7811421669958
 20
24.1187185886498
 30
0
 11
34.28114216699581
 21
25.56209426162385
 31
0
  0
LINE
  8
1
 62
7
 10
34.28114216699581
 20
25.56209426162385
 30
0
 11
36.78114216699581
 21
24.1187185886498
 31
0
  0
LINE
  8
1
 62
7
 10
5.642663071812031
 20
78.86871858864981
 30
0
 11
28.78114216699569
 21
78.86871858864981
 31
0
  0
LINE
  8
1
 62
3
  6
DIVIDE
 10
69.28114216699572
 20
84.11871858864984
 30
0
 11
69.28114216699572
 21
78.1187185886498
 31
0
  0
LINE
  8
1
 62
3
  6
DIVIDE
 10
69.28114216699572
 20
78.1187185886498
 30
0
 11
42.28114216699572
 21
78.1187185886498
 31
0
  0
LINE
  8
1
 62
3
  6
DIVIDE
 10
42.28114216699572
 20
78.1187185886498
 30
0
 11
42.28114216699572
 21
84.11871858864984
 31
0
  0
LINE
  8
1
 62
3
  6
DASHDOT
 10
-94.39272054045901
 20
48.6187185886498
 30
0
 11
-94.39272054045901
 21
58.6187185886498
 31
0
  0
LINE
  8
1
 62
3
  6
DASHDOT
 10
-89.39272054045901
 20
53.61871858864979
 30
0
 11
-99.39272054045901
 21
53.61871858864978
 31
0
  0
LINE
  8
1
 62
7
 10
-97.89272054045901
 20
28.61246936970455
 30
0
 11
-97.89272054045901
 21
31.6187185886498
 31
0
  0
LINE
  8
1
 62
7
 10
-97.89272054045901
 20
31.6187185886498
 30
0
 11
-90.89272054045901
 21
31.6187185886498
 31
0
  0
LINE
  8
1
 62
7
 10
-90.89272054045901
 20
31.6187185886498
 30
0
 11
-90.89272054045901
 21
28.61246936970455
 31
0
  0
LINE
  8
1
 62
7
 10
-70.98667346348761
 20
63.09075428487694
 30
0
 11
-73.59016165720131
 21
61.58762967540429
 31
0
  0
LINE
  8
1
 62
7
 10
-73.59016165720131
 20
61.58762967540429
 30
0
 11
-77.09016165720131
 21
67.64980750189537
 31
0
  0
LINE
  8
1
 62
7
 10
-77.09016165720131
 20
67.64980750189537
 30
0
 11
-74.48667346348761
 21
69.15293211136799
 31
0
  0
LINE
  8
1
 62
7
 10
-114.2987676174304
 20
69.15293211136793
 30
0
 11
-111.6952794237167
 21
67.64980750189534
 31
0
  0
LINE
  8
1
 62
7
 10
-111.6952794237167
 20
67.64980750189534
 30
0
 11
-115.1952794237167
 21
61.58762967540429
 31
0
  0
LINE
  8
1
 62
7
 10
-115.1952794237167
 20
61.58762967540429
 30
0
 11
-117.7987676174304
 21
63.09075428487688
 31
0
  0
LINE
  8
1
 62
7
 10
-97.89272054045901
 20
78.62496780759506
 30
0
 11
-97.89272054045901
 21
68.1187185886498
 31
0
  0
LINE
  8
1
 62
7
 10
-97.89272054045901
 20
68.1187185886498
 30
0
 11
-90.89272054045901
 21
68.1187185886498
 31
0
  0
LINE
  8
1
 62
7
 10
-90.89272054045901
 20
68.1187185886498
 30
0
 11
-90.89272054045901
 21
78.62496780759506
 31
0
  0
LINE
  8
1
 62
7
 10
-105.2000888953334
 20
43.33762967540429
 30
0
 11
-108.7000888953334
 21
49.39980750189534
 31
0
  0
LINE
  8
1
 62
7
 10
-80.0853521855847
 20
49.39980750189534
 30
0
 11
-83.58535218558461
 21
43.33762967540429
 31
0
  0
LINE
  8
1
 62
7
 10
-83.58535218558461
 20
43.33762967540429
 30
0
 11
-67.57738559386149
 21
34.09542585449435
 31
0
  0
LINE
  8
1
 62
7
 10
-97.89272054045901
 20
68.6187185886498
 30
0
 11
-90.89272054045901
 21
68.6187185886498
 31
0
  0
LINE
  8
1
 62
7
 10
-97.89272054045901
 20
86.60312623046966
 30
0
 11
-90.89272054045901
 21
86.60312623046966
 31
0
  0
LINE
  8
1
 62
7
 10
-90.89272054045901
 20
86.60312623046966
 30
0
 11
-90.89272054045901
 21
78.62496780759506
 31
0
  0
LINE
  8
1
 62
7
 10
-97.89272054045901
 20
86.60312623046966
 30
0
 11
-97.89272054045901
 21
78.62496780759506
 31
0
  0
LINE
  8
1
 62
7
 10
-121.2080554870566
 20
34.09542585449435
 30
0
 11
-105.2000888953334
 21
43.33762967540429
 31
0
  0
LINE
  8
1
 62
7
 10
-124.7080554870566
 20
40.15760368098543
 30
0
 11
-108.7000888953334
 21
49.39980750189534
 31
0
  0
LINE
  8
1
 62
7
 10
-121.2080554870566
 20
34.09542585449435
 30
0
 11
-124.7080554870566
 21
40.15760368098543
 31
0
  0
LINE
  8
1
 62
7
 10
-64.07738559386149
 20
40.1576036809854
 30
0
 11
-80.0853521855847
 21
49.39980750189534
 31
0
  0
LINE
  8
1
 62
7
 10
-64.07738559386149
 20
40.1576036809854
 30
0
 11
-67.57738559386149
 21
34.09542585449435
 31
0
  0
LINE
  8
1
 62
7
 10
72.78114216699572
 20
66.1187185886498
 30
0
 11
-2.218857833004193
 21
66.1187185886498
 31
0
  0
LINE
  8
1
 62
7
 10
-2.218857833004193
 20
41.1187185886498
 30
0
 11
72.78114216699572
 21
41.1187185886498
 31
0
  0
LINE
  8
1
 62
7
 10
-2.218857833004193
 20
38.1187185886498
 30
0
 11
72.78114216699572
 21
38.1187185886498
 31
0
  0
LINE
  8
1
 62
7
 10
-90.89272054045901
 20
38.1187185886498
 30
0
 11
-97.89272054045901
 21
38.1187185886498
 31
0
  0
LINE
  8
1
 62
7
 10
-90.89272054045901
 20
38.1187185886498
 30
0
 11
-90.89272054045901
 21
41.6187185886498
 31
0
  0
LINE
  8
1
 62
7
 10
-97.89272054045901
 20
38.1187185886498
 30
0
 11
-97.89272054045901
 21
41.6187185886498
 31
0
  0
LINE
  8
1
 62
7
 10
31.2811421669958
 20
84.4751276867383
 30
0
 11
31.6966406685757
 21
82.11871858864984
 31
0
  0
ARC
  8
1
 62
3
  6
DIVIDE
 10
70.78114216699572
 20
24.11871858864976
 30
0
 40
2.000000000000043
 50
0
 51
90
  0
ARC
  8
1
 62
3
  6
DIVIDE
 10
54.78114216699572
 20
24.11871858864976
 30
0
 40
2
 50
90
 51
180
  0
ARC
  8
1
 62
3
  6
DIVIDE
 10
54.78114216699572
 20
83.11871858864984
 30
0
 40
2.000000000000014
 50
180
 51
270
  0
ARC
  8
1
 62
3
  6
DIVIDE
 10
70.78114216699572
 20
83.11871858864984
 30
0
 40
2.000000000000043
 50
270
 51
0
  0
ARC
  8
1
 62
7
 10
-94.39272054045901
 20
53.6187185886498
 30
0
 40
19.49999999999999
 50
340.3398908939275
 51
79.66010910607244
  0
ARC
  8
1
 62
7
 10
-94.39272054045901
 20
53.6187185886498
 30
0
 40
19.49999999999999
 50
100.3398908939276
 51
199.6601091060723
  0
ARC
  8
1
 62
7
 10
-94.39272054045901
 20
53.6187185886498
 30
0
 40
19.50000000000001
 50
220.3398908939274
 51
319.6601091060725
  0
ARC
  8
1
 62
7
 10
41.78114216699569
 20
108.1187185886498
 30
0
 40
39.99999999999999
 50
270
 51
317.5458497955991
  0
ARC
  8
1
 62
7
 10
29.78114216699569
 20
-8.38128141135023
 30
0
 40
40.00000000000006
 50
59.59845233675696
 51
90
  0
ARC
  8
1
 62
7
 10
38.28114216699581
 20
84.61871858864984
 30
0
 40
1.96844058930767
 50
307.5620039455066
 51
51.22909175651154
  0
ARC
  8
1
 62
7
 10
44.28114216699573
 20
83.11871858864984
 30
0
 40
2.000000000000007
 50
180
 51
270
  0
ARC
  8
1
 62
7
 10
60.28114216699573
 20
83.11871858864984
 30
0
 40
2.000000000000043
 50
270
 51
0
  0
ARC
  8
1
 62
7
 10
53.4264663960675
 20
72.41603078158008
 30
0
 40
0.9999999999999987
 50
273.2000000000011
 51
16.3169378159326
  0
ARC
  8
1
 62
7
 10
42.8695213253042
 20
69.32557599742836
 30
0
 40
12.00000000000001
 50
16.31693781593366
 51
75.38167424286328
  0
ARC
  8
1
 62
7
 10
45.51949937725392
 20
79.4856752254962
 30
0
 40
1.500000000000012
 50
75.38167424286326
 51
200.0782809489312
  0
ARC
  8
1
 62
7
 10
3.281142166995807
 20
73.61871858864981
 30
0
 40
4.999999999999999
 50
171.6630409671845
 51
273.2
  0
ARC
  8
1
 62
7
 10
41.40531941500623
 20
77.66262195193573
 30
0
 40
3.000000000000016
 50
267.8232945719493
 51
25.8048700783368
  0
ARC
  8
1
 62
7
 10
2.722927117064167
 20
83.60312623046964
 30
0
 40
3.000000000000018
 50
339.8619587550977
 51
171.6630409671848
  0
ARC
  8
1
 62
7
 10
10.23385410904
 20
80.84886122484494
 30
0
 40
4.999999999999981
 50
159.8619587550987
 51
267.8232945719493
  0
ARC
  8
1
 62
7
 10
44.28114216699573
 20
24.11871858864981
 30
0
 40
2
 50
90
 51
180
  0
ARC
  8
1
 62
7
 10
60.28114216699573
 20
24.11871858864981
 30
0
 40
2
 50
0
 51
90
  0
ARC
  8
1
 62
7
 10
-94.39272054045901
 20
53.6187185886498
 30
0
 40
25.25000000000003
 50
217.9676443191758
 51
262.0323556808242
  0
ARC
  8
1
 62
7
 10
-94.39272054045901
 20
53.6187185886498
 30
0
 40
25.25000000000004
 50
337.9676443191758
 51
22.03235568082428
  0
ARC
  8
1
 62
7
 10
-94.39272054045901
 20
53.6187185886498
 30
0
 40
25.25
 50
97.96764431917578
 51
142.0323556808243
  0
ARC
  8
1
 62
7
 10
-94.39272054045901
 20
53.6187185886498
 30
0
 40
25.25000000000005
 50
37.96764431917579
 51
82.03235568082421
  0
ARC
  8
1
 62
7
 10
-94.39272054045901
 20
53.6187185886498
 30
0
 40
19.00000000000004
 50
340.615107850708
 51
79.38489214929209
  0
ARC
  8
1
 62
7
 10
-94.39272054045901
 20
53.6187185886498
 30
0
 40
19.00000000000002
 50
220.6151078507079
 51
319.3848921492922
  0
ARC
  8
1
 62
7
 10
-94.39272054045901
 20
53.6187185886498
 30
0
 40
19
 50
100.6151078507079
 51
199.384892149292
  0
ARC
  8
1
 62
7
 10
-94.39272054045901
 20
53.6187185886498
 30
0
 40
25.25000000000002
 50
157.9676443191758
 51
202.0323556808242
  0
ARC
  8
1
 62
7
 10
-94.39272054045901
 20
53.6187185886498
 30
0
 40
25.25
 50
277.9676443191758
 51
322.0323556808243
  0
ARC
  8
1
 62
7
 10
-94.39272054045901
 20
53.6187185886498
 30
0
 40
26.50000000000001
 50
97.589542391858
 51
202.410457608142
  0
ARC
  8
1
 62
7
 10
-94.39272054045901
 20
53.6187185886498
 30
0
 40
33
 50
96.08827604411698
 51
203.911723955883
  0
ARC
  8
1
 62
7
 10
-94.39272054045901
 20
53.6187185886498
 30
0
 40
26.49999999999998
 50
337.5895423918581
 51
82.41045760814198
  0
ARC
  8
1
 62
7
 10
-94.39272054045901
 20
53.6187185886498
 30
0
 40
28.50000000000004
 50
337.054131382119
 51
82.945868617881
  0
ARC
  8
1
 62
7
 10
-94.39272054045901
 20
53.6187185886498
 30
0
 40
33.00000000000004
 50
336.0882760441169
 51
83.91172395588303
  0
ARC
  8
1
 62
7
 10
-94.39272054045901
 20
53.6187185886498
 30
0
 40
28.5
 50
97.05413138211897
 51
202.945868617881
  0
ARC
  8
1
 62
7
 10
-94.39272054045901
 20
53.6187185886498
 30
0
 40
33
 50
216.088276044117
 51
323.9117239558831
  0
ARC
  8
1
 62
7
 10
-94.39272054045901
 20
53.6187185886498
 30
0
 40
28.50000000000001
 50
217.054131382119
 51
322.9458686178811
  0
ARC
  8
1
 62
7
 10
-94.39272054045901
 20
53.6187185886498
 30
0
 40
26.50000000000004
 50
217.589542391858
 51
322.4104576081419
  0
ARC
  8
1
 62
7
 10
-94.39272054045901
 20
53.6187185886498
 30
0
 40
12.5
 50
286.260204708312
 51
253.739795291688
  0
CIRCLE
  8
1
 62
7
 10
3.281142166995807
 20
73.61871858864981
 30
0
 40
2.5
  0
CIRCLE
  8
1
 62
7
 10
-94.39272054045901
 20
53.6187185886498
 30
0
 40
38.79999999999998
  0
CIRCLE
  8
1
 62
3
 10
-94.39272054045901
 20
53.6187185886498
 30
0
 40
35
  0
CIRCLE
  8
1
 62
7
 10
-94.39272054045901
 20
53.6187185886498
 30
0
 40
34.5
  0
ARC
  8
1
 62
3
  6
DIVIDE
 10
71.28114216699572
 20
16.11871858864976
 30
0
 40
1.5
 50
270
 51
0
  0
ARC
  8
1
 62
3
  6
DIVIDE
 10
71.28114216699572
 20
91.11871858864984
 30
0
 40
1.5
 50
0
 51
90
  0
ARC
  8
1
 62
7
 10
60.78114216699573
 20
16.1187185886498
 30
0
 40
1.499999999999998
 50
270
 51
0
  0
ARC
  8
1
 62
7
 10
60.78114216699573
 20
91.11871858864984
 30
0
 40
1.5
 50
0
 51
90
  0
TEXT
  8
1
 62
7
 10
-109.6755687822805
 20
105.23896902397
 30
0
 40
3.5
  1
DS 253 MG
 41
0.9
  7
SIMPLEX
 72
1
 11
-95.5005687822805
 21
105.23896902397
 31
0
  0
ENDSEC
  0
EOF
