  0
SECTION
  2
HEADER
  9
$ACADVER
  1
AC1009
  9
$INSBASE
 10
0
 20
0
  9
$EXTMIN
 10
-122.5278726389348
 20
-172.2500000000003
  9
$EXTMAX
 10
176.6535874821394
 20
-30.0711538073672
  9
$LIMMIN
 10
-122.5278726389348
 20
-172.2500000000003
  9
$LIMMAX
 10
176.6535874821394
 20
-30.0711538073672
  9
$VIEWCTR
 10
10
 20
10
  9
$VIEWSIZE
 40
10
  9
$SNAPMODE
 70
0
  9
$SNAPUNIT
 10
1
 20
1
  9
$SNAPBASE
 10
0
 20
0
  9
$SNAPANG
 50
0
  9
$SNAPSTYLE
 70
0
  9
$SNAPISOPAIR
 70
0
  9
$GRIDMODE
 70
0
  9
$GRIDUNIT
 10
0
 20
0
  9
$ORTHOMODE
 70
0
  9
$REGENMODE
 70
1
  9
$FILLMODE
 70
1
  9
$QTEXTMODE
 70
0
  9
$DRAGMODE
 70
2
  9
$LTSCALE
 40
1
  9
$OSMODE
 70
0
  9
$ATTMODE
 70
1
  9
$TEXTSIZE
 40
3.5
  9
$TRACEWID
 40
0.5
  9
$TEXTSTYLE
  7
STANDARD
  9
$CLAYER
  8
0
  9
$CELTYPE
  6
BYLAYER
  9
$CECOLOR
 62
256
  9
$DIMSCALE
 40
1
  9
$DIMASZ
 40
0.18
  9
$DIMEXO
 40
0.0625
  9
$DIMDLI
 40
0.38
  9
$DIMRND
 40
0
  9
$DIMDLE
 40
0
  9
$DIMEXE
 40
0.18
  9
$DIMTP
 40
0
  9
$DIMTM
 40
0
  9
$DIMTXT
 40
0.18
  9
$DIMCEN
 40
0.09
  9
$DIMTSZ
 40
0
  9
$DIMTOL
 70
0
  9
$DIMLIM
 70
0
  9
$DIMTIH
 70
1
  9
$DIMTOH
 70
1
  9
$DIMSE1
 70
0
  9
$DIMSE2
 70
0
  9
$DIMTAD
 70
0
  9
$DIMZIN
 70
0
  9
$DIMBLK
  1

  9
$DIMASO
 70
1
  9
$DIMSHO
 70
1
  9
$DIMPOST
  1

  9
$DIMAPOST
  1

  9
$DIMALT
 70
0
  9
$DIMALTD
 70
2
  9
$DIMALTF
 40
25.4
  9
$DIMLFAC
 40
1
  9
$DIMTOFL
 70
0
  9
$DIMTVP
 40
0
  9
$DIMTIX
 70
0
  9
$DIMSOXD
 70
0
  9
$DIMSAH
 70
0
  9
$DIMBLK1
  1

  9
$DIMBLK2
  1

  9
$DIMSTYLE
  2
*UNNAMED
  9
$DIMCLRD
 70
0
  9
$DIMCLRE
 70
0
  9
$DIMCLRT
 70
0
  9
$DIMTFAC
 40
1
  9
$DIMGAP
 40
0.09
  9
$LUNITS
 70
2
  9
$LUPREC
 70
4
  9
$AXISMODE
 70
0
  9
$AXISUNIT
 10
0
 20
0
  9
$SKETCHINC
 40
0.1
  9
$FILLETRAD
 40
2
  9
$AUNITS
 70
0
  9
$AUPREC
 70
0
  9
$MENU
  1
ACAD
  9
$ELEVATION
 40
0
  9
$THICKNESS
 40
0
  9
$VIEWDIR
 10
0
 20
0
 30
1
  9
$LIMCHECK
 70
0
  9
$BLIPMODE
 70
1
  9
$CHAMFERA
 40
0
  9
$CHAMFERB
 40
0
  9
$FASTZOOM
 70
1
  9
$SKPOLY
 70
0
  9
$ANGBASE
 50
0
  9
$ANGDIR
 70
0
  9
$PDMODE
 70
0
  9
$PDSIZE
 40
0
  9
$PLINEWID
 40
0
  9
$COORDS
 70
2
  0
ENDSEC
  0
SECTION
  2
TABLES
  0
TABLE
  2
DIMSTYLE
 70
0
  0
ENDTAB
  0
TABLE
  2
LTYPE
 70
9
  0
LTYPE
  2
CONTINUOUS
 70
64
  3
Solid line
 72
65
 73
0
 40
0
  0
LTYPE
  2
BORDER
 70
64
  3
__ __ . __ __ .
 72
65
 73
6
 40
13.77809355820736
 49
3.936598159487818
 49
-1.968299079743909
 49
3.936598159487818
 49
-1.968299079743909
 49
0
 49
-1.968299079743909
  0
LTYPE
  2
CENTER
 70
64
  3
____ _ ____ _
 72
65
 73
4
 40
15.74639263795127
 49
9.841495398719545
 49
-1.968299079743909
 49
1.968299079743909
 49
-1.968299079743909
  0
LTYPE
  2
DASHDOT
 70
64
  3
__ . __ . __ .
 72
65
 73
4
 40
7.873196318975636
 49
3.936598159487818
 49
-1.968299079743909
 49
0
 49
-1.968299079743909
  0
LTYPE
  2
DASHED
 70
64
  3
__ __ __ __ __
 72
65
 73
2
 40
5.904897239231727
 49
3.936598159487818
 49
-1.968299079743909
  0
LTYPE
  2
DIVIDE
 70
64
  3
__ . . __ . . 
 72
65
 73
6
 40
9.841495398719545
 49
3.936598159487818
 49
-1.968299079743909
 49
0
 49
-1.968299079743909
 49
0
 49
-1.968299079743909
  0
LTYPE
  2
DOT
 70
64
  3
..............
 72
65
 73
4
 40
3.936598159487818
 49
0
 49
-1.968299079743909
 49
0
 49
-1.968299079743909
  0
LTYPE
  2
HIDDEN
 70
64
  3
_ _ _ _ _ _ _
 72
65
 73
2
 40
2.952448619615864
 49
1.968299079743909
 49
-0.9841495398719545
  0
LTYPE
  2
PHANTOM
 70
64
  3
_____ _ _ _____ _ _ 
 72
65
 73
6
 40
19.68299079743909
 49
9.841495398719545
 49
-1.968299079743909
 49
1.968299079743909
 49
-1.968299079743909
 49
1.968299079743909
 49
-1.968299079743909
  0
ENDTAB
  0
TABLE
  2
LAYER
 70
3
  0
LAYER
  2
1
 70
0
 62
7
  6
CONTINUOUS
  0
LAYER
  2
0
 70
0
 62
7
  6
CONTINUOUS
  0
ENDTAB
  0
TABLE
  2
STYLE
 70
4
  0
STYLE
  2
STANDARD
 70
0
 40
0
 41
1
 50
0
 71
0
 42
3.5
  3
txt
  4

  0
STYLE
  2
SIMPLEX
 70
0
 40
0
 41
1
 50
0
 71
0
 42
3.5
  3
simplex
  4

  0
STYLE
  2
COMPLEX
 70
0
 40
0
 41
1
 50
0
 71
0
 42
3.5
  3
complex
  4

  0
STYLE
  2
ITALIC
 70
0
 40
0
 41
1
 50
0
 71
0
 42
3.5
  3
italic
  4

  0
ENDTAB
  0
TABLE
  2
VIEW
 70
0
  0
ENDTAB
  0
ENDSEC
  0
SECTION
  2
BLOCKS
  0
ENDSEC
  0
SECTION
  2
ENTITIES
  0
LINE
  8
1
 62
3
  6
DIVIDE
 10
170.6535874821394
 20
-151.25
 30
0
 11
170.6535874821394
 21
-168.9999999999999
 31
0
  0
LINE
  8
1
 62
3
  6
DIVIDE
 10
168.6535874821394
 20
-170.9999999999999
 30
0
 11
165.6535874821394
 21
-170.9999999999999
 31
0
  0
LINE
  8
1
 62
3
  6
DIVIDE
 10
164.6535874821394
 20
-160.4999999999999
 30
0
 11
164.6535874821394
 21
-169.9999999999999
 31
0
  0
LINE
  8
1
 62
3
  6
DIVIDE
 10
164.6535874821394
 20
-169.9999999999999
 30
0
 11
165.6535874821394
 21
-170.9999999999999
 31
0
  0
LINE
  8
1
 62
3
  6
DASHDOT
 10
154.6535874821394
 20
-148.2499999999999
 30
0
 11
154.6535874821394
 21
-163.4999999999999
 31
0
  0
LINE
  8
1
 62
3
  6
DIVIDE
 10
164.6535874821394
 20
-160.4999999999999
 30
0
 11
144.6535874821394
 21
-160.4999999999999
 31
0
  0
LINE
  8
1
 62
3
  6
DIVIDE
 10
144.6535874821394
 20
-169.9999999999999
 30
0
 11
143.6535874821394
 21
-170.9999999999999
 31
0
  0
LINE
  8
1
 62
3
  6
DIVIDE
 10
140.6535874821394
 20
-170.9999999999999
 30
0
 11
143.6535874821394
 21
-170.9999999999999
 31
0
  0
LINE
  8
1
 62
3
  6
DIVIDE
 10
144.6535874821394
 20
-160.4999999999999
 30
0
 11
144.6535874821394
 21
-169.9999999999999
 31
0
  0
LINE
  8
1
 62
3
  6
DIVIDE
 10
144.6535874821394
 20
-169.9999999999999
 30
0
 11
143.6535874821394
 21
-170.9999999999999
 31
0
  0
LINE
  8
1
 62
3
  6
DIVIDE
 10
140.6535874821394
 20
-170.9999999999999
 30
0
 11
138.6535874821394
 21
-168.9999999999999
 31
0
  0
LINE
  8
1
 62
3
  6
DIVIDE
 10
138.6535874821394
 20
-151.2499999999999
 30
0
 11
138.6535874821394
 21
-168.9999999999999
 31
0
  0
LINE
  8
1
 62
3
  6
DASHDOT
 10
138.6535874821394
 20
-148.25
 30
0
 11
138.6535874821394
 21
-163.5
 31
0
  0
LINE
  8
1
 62
3
  6
DIVIDE
 10
170.6535874821394
 20
-51
 30
0
 11
170.6535874821394
 21
-68.75000000000001
 31
0
  0
LINE
  8
1
 62
3
  6
DIVIDE
 10
165.6535874821394
 20
-49
 30
0
 11
168.6535874821394
 21
-49
 31
0
  0
LINE
  8
1
 62
3
  6
DIVIDE
 10
164.6535874821394
 20
-50
 30
0
 11
164.6535874821394
 21
-59.5
 31
0
  0
LINE
  8
1
 62
3
  6
DIVIDE
 10
165.6535874821394
 20
-49
 30
0
 11
164.6535874821394
 21
-50
 31
0
  0
LINE
  8
1
 62
3
  6
DIVIDE
 10
144.6535874821394
 20
-59.5
 30
0
 11
164.6535874821394
 21
-59.5
 31
0
  0
LINE
  8
1
 62
3
  6
DIVIDE
 10
144.6535874821394
 20
-50
 30
0
 11
144.6535874821394
 21
-59.5
 31
0
  0
LINE
  8
1
 62
3
  6
DIVIDE
 10
143.6535874821394
 20
-49
 30
0
 11
144.6535874821394
 21
-50
 31
0
  0
LINE
  8
1
 62
3
  6
DIVIDE
 10
143.6535874821394
 20
-49
 30
0
 11
140.6535874821394
 21
-49
 31
0
  0
LINE
  8
1
 62
3
  6
DIVIDE
 10
138.6535874821394
 20
-51
 30
0
 11
140.6535874821394
 21
-49
 31
0
  0
LINE
  8
1
 62
3
  6
DIVIDE
 10
138.6535874821394
 20
-51
 30
0
 11
138.6535874821394
 21
-68.75
 31
0
  0
LINE
  8
1
 62
7
 10
-88.43517193246744
 20
-87.96987298032241
 30
0
 11
-93.43517193246748
 21
-96.63012701816685
 31
0
  0
LINE
  8
1
 62
7
 10
-27.12057334452919
 20
-96.63012701967759
 30
0
 11
-32.12057334452922
 21
-87.96987298183313
 31
0
  0
LINE
  8
1
 62
7
 10
106.3800995279152
 20
-64
 30
0
 11
105.8535874821394
 21
-61.01400180698188
 31
0
  0
LINE
  8
1
 62
7
 10
107.7907153735829
 20
-56
 30
0
 11
106.3800995279152
 21
-64
 31
0
  0
LINE
  8
1
 62
7
 10
109.2013312192507
 20
-64
 30
0
 11
107.7907153735829
 21
-56
 31
0
  0
LINE
  8
1
 62
7
 10
110.6119470649184
 20
-56
 30
0
 11
109.2013312192507
 21
-64
 31
0
  0
LINE
  8
1
 62
7
 10
112.0225629105861
 20
-64
 30
0
 11
110.6119470649184
 21
-56
 31
0
  0
LINE
  8
1
 62
7
 10
113.4331787562538
 20
-56
 30
0
 11
112.0225629105861
 21
-64
 31
0
  0
LINE
  8
1
 62
7
 10
113.6535874821394
 20
-57.25
 30
0
 11
113.4331787562538
 21
-56
 31
0
  0
LINE
  8
1
 62
7
 10
154.6535874821394
 20
-51
 30
0
 11
154.6535874821394
 21
-68.75000000000001
 31
0
  0
LINE
  8
1
 62
7
 10
148.6535874821394
 20
-50
 30
0
 11
148.6535874821394
 21
-59.5
 31
0
  0
LINE
  8
1
 62
7
 10
128.6535874821394
 20
-50
 30
0
 11
128.6535874821394
 21
-59.5
 31
0
  0
LINE
  8
1
 62
7
 10
149.6535874821394
 20
-49
 30
0
 11
152.6535874821394
 21
-49
 31
0
  0
LINE
  8
1
 62
7
 10
127.6535874821394
 20
-49
 30
0
 11
124.6535874821394
 21
-49
 31
0
  0
LINE
  8
1
 62
7
 10
122.6535874821394
 20
-51
 30
0
 11
122.6535874821394
 21
-68.75
 31
0
  0
LINE
  8
1
 62
7
 10
149.6535874821394
 20
-49
 30
0
 11
148.6535874821394
 21
-50
 31
0
  0
LINE
  8
1
 62
7
 10
127.6535874821394
 20
-49
 30
0
 11
128.6535874821394
 21
-50
 31
0
  0
LINE
  8
1
 62
7
 10
122.6535874821394
 20
-51
 30
0
 11
124.6535874821394
 21
-49
 31
0
  0
LINE
  8
1
 62
7
 10
128.6535874821394
 20
-59.5
 30
0
 11
148.6535874821394
 21
-59.5
 31
0
  0
LINE
  8
1
 62
7
 10
64.94454891716271
 20
-59.21090020578635
 30
0
 11
61.32104243751115
 21
-75.47805117920277
 31
0
  0
LINE
  8
1
 62
7
 10
123.3047893195007
 20
-76.9133552619396
 30
0
 11
79.24671064085258
 21
-73.80111176662597
 31
0
  0
LINE
  8
1
 62
7
 10
68.47957381580683
 20
-83.99240537370811
 30
0
 11
138.9030850795814
 21
-80.70925729891486
 31
0
  0
LINE
  8
1
 62
3
 10
78.15358748213943
 20
-47.75
 30
0
 11
98.15358748213943
 21
-70.50000000000001
 31
0
  0
LINE
  8
1
 62
3
 10
98.15358748213943
 20
-47.75
 30
0
 11
78.15358748213943
 21
-70.50000000000001
 31
0
  0
LINE
  8
1
 62
7
 10
98.15358748213943
 20
-47.75
 30
0
 11
98.15358748213943
 21
-70.50000000000001
 31
0
  0
LINE
  8
1
 62
7
 10
78.15358748213943
 20
-47.75
 30
0
 11
78.15358748213943
 21
-70.50000000000001
 31
0
  0
LINE
  8
1
 62
7
 10
98.15358748213943
 20
-47.75
 30
0
 11
78.15358748213943
 21
-47.75
 31
0
  0
LINE
  8
1
 62
3
 10
78.15358748213943
 20
-145.4
 30
0
 11
98.15358748213943
 21
-172.25
 31
0
  0
LINE
  8
1
 62
3
 10
98.15358748213943
 20
-145.4
 30
0
 11
78.15358748213943
 21
-172.25
 31
0
  0
LINE
  8
1
 62
7
 10
98.15358748213943
 20
-172.25
 30
0
 11
78.15358748213943
 21
-172.25
 31
0
  0
LINE
  8
1
 62
7
 10
98.15358748213943
 20
-145.4
 30
0
 11
98.15358748213943
 21
-172.25
 31
0
  0
LINE
  8
1
 62
3
  6
DASHDOT
 10
171.6535874821394
 20
-110
 30
0
 11
176.6535874821394
 21
-110
 31
0
  0
LINE
  8
1
 62
7
 10
62.42990290935134
 20
-70.50000000000001
 30
0
 11
61.65358748213943
 21
-70.50000000000001
 31
0
  0
LINE
  8
1
 62
3
  6
DASHDOT
 10
154.6535874821394
 20
-56.5
 30
0
 11
154.6535874821394
 21
-71.75
 31
0
  0
LINE
  8
1
 62
3
  6
DASHDOT
 10
-60.27787263893445
 20
-105
 30
0
 11
-60.27787263893445
 21
-115
 31
0
  0
LINE
  8
1
 62
7
 10
-35.25463500155638
 20
-118.6736702947726
 30
0
 11
-40.2546350015564
 21
-127.333924332617
 31
0
  0
LINE
  8
1
 62
7
 10
-11.45621635641796
 20
-132.4136937067048
 30
0
 11
-16.45621635641798
 21
-141.0739477445492
 31
0
  0
LINE
  8
1
 62
7
 10
-35.69422484263659
 20
-118.4198729816758
 30
0
 11
-11.45621635641796
 21
-132.4136937067048
 31
0
  0
LINE
  8
1
 62
7
 10
-40.69422484284793
 20
-127.0801270193982
 30
0
 11
-35.69422484263659
 21
-118.4198729816758
 31
0
  0
LINE
  8
1
 62
7
 10
-16.45621635641798
 20
-141.0739477445492
 30
0
 11
-40.69422484284793
 21
-127.0801270193982
 31
0
  0
LINE
  8
1
 62
7
 10
-80.30111027694782
 20
-127.3339243315167
 30
0
 11
-85.30111027694782
 21
-118.6736702936723
 31
0
  0
LINE
  8
1
 62
7
 10
-104.0995289228432
 20
-141.0739477421377
 30
0
 11
-109.0995289228432
 21
-132.4136937042934
 31
0
  0
LINE
  8
1
 62
7
 10
-79.86152043585359
 20
-127.0801270184441
 30
0
 11
-104.0995289228432
 21
-141.0739477421377
 31
0
  0
LINE
  8
1
 62
7
 10
-84.86152043564229
 20
-118.4198729804777
 30
0
 11
-79.86152043585359
 21
-127.0801270184441
 31
0
  0
LINE
  8
1
 62
7
 10
-109.0995289228432
 20
-132.4136937042934
 30
0
 11
-84.86152043564229
 21
-118.4198729804777
 31
0
  0
LINE
  8
1
 62
7
 10
-65.2778726382992
 20
-83.99240537370811
 30
0
 11
-55.27787263829918
 21
-83.99240537370811
 31
0
  0
LINE
  8
1
 62
7
 10
-65.27787263754225
 20
-56.51235855115493
 30
0
 11
-55.2778726375422
 21
-56.51235855115493
 31
0
  0
LINE
  8
1
 62
7
 10
-65.2778726398067
 20
-145.4
 30
0
 11
-55.27787263980663
 21
-145.4
 31
0
  0
LINE
  8
1
 62
3
  6
DASHDOT
 10
-55.27787263893444
 20
-110
 30
0
 11
-65.27787263893444
 21
-110
 31
0
  0
LINE
  8
1
 62
7
 10
-88.08876177085729
 20
-88.16987298039925
 30
0
 11
-91.71071071592019
 21
-86.07873978180858
 31
0
  0
LINE
  8
1
 62
7
 10
-93.08876177106862
 20
-96.83012701812163
 30
0
 11
-88.08876177085729
 21
-88.16987298039925
 31
0
  0
LINE
  8
1
 62
7
 10
-96.71071071613172
 20
-94.73899381953147
 30
0
 11
-93.08876177106862
 21
-96.83012701812163
 31
0
  0
LINE
  8
1
 62
7
 10
-27.46698350615873
 20
-96.83012701972322
 30
0
 11
-23.84503456095075
 21
-94.73899382138383
 31
0
  0
LINE
  8
1
 62
7
 10
-32.46698350594741
 20
-88.16987298175683
 30
0
 11
-27.46698350615873
 21
-96.83012701972322
 31
0
  0
LINE
  8
1
 62
7
 10
-28.84503456073978
 20
-86.07873978341701
 30
0
 11
-32.46698350594741
 21
-88.16987298175683
 31
0
  0
LINE
  8
1
 62
7
 10
60.65358748213942
 20
-87.50000000000026
 30
0
 11
171.6535874821394
 21
-87.50000000000026
 31
0
  0
LINE
  8
1
 62
7
 10
171.6535874821394
 20
-136.0000000001076
 30
0
 11
60.65358748213942
 21
-136.0000000001076
 31
0
  0
LINE
  8
1
 62
3
  6
DIVIDE
 10
168.6535874821394
 20
-65.75000000000001
 30
0
 11
124.6535874821394
 21
-65.75
 31
0
  0
LINE
  8
1
 62
3
  6
DIVIDE
 10
168.6535874821394
 20
-73.25000000000001
 30
0
 11
168.6535874821394
 21
-65.75000000000001
 31
0
  0
LINE
  8
1
 62
3
  6
DIVIDE
 10
124.6535874821394
 20
-73.25
 30
0
 11
168.6535874821394
 21
-73.25000000000001
 31
0
  0
LINE
  8
1
 62
3
  6
DIVIDE
 10
124.6535874821394
 20
-65.75
 30
0
 11
124.6535874821394
 21
-73.25
 31
0
  0
LINE
  8
1
 62
7
 10
124.6535874821394
 20
-171
 30
0
 11
122.6535874821394
 21
-169
 31
0
  0
LINE
  8
1
 62
7
 10
128.6535874821394
 20
-170
 30
0
 11
127.6535874821394
 21
-171
 31
0
  0
LINE
  8
1
 62
7
 10
148.6535874821394
 20
-170
 30
0
 11
149.6535874821394
 21
-171
 31
0
  0
LINE
  8
1
 62
7
 10
148.6535874821394
 20
-160.5
 30
0
 11
128.6535874821394
 21
-160.5
 31
0
  0
LINE
  8
1
 62
7
 10
122.6535874821394
 20
-151.25
 30
0
 11
122.6535874821394
 21
-169
 31
0
  0
LINE
  8
1
 62
7
 10
124.6535874821394
 20
-171
 30
0
 11
127.6535874821394
 21
-171
 31
0
  0
LINE
  8
1
 62
7
 10
152.6535874821394
 20
-171
 30
0
 11
149.6535874821394
 21
-171
 31
0
  0
LINE
  8
1
 62
7
 10
128.6535874821394
 20
-160.5
 30
0
 11
128.6535874821394
 21
-170
 31
0
  0
LINE
  8
1
 62
7
 10
148.6535874821394
 20
-160.5
 30
0
 11
148.6535874821394
 21
-170
 31
0
  0
LINE
  8
1
 62
7
 10
154.6535874821394
 20
-151.25
 30
0
 11
154.6535874821394
 21
-169
 31
0
  0
LINE
  8
1
 62
3
  6
DASHDOT
 10
138.6535874821394
 20
-56.5
 30
0
 11
138.6535874821394
 21
-71.75
 31
0
  0
LINE
  8
1
 62
7
 10
118.1535874821394
 20
-54.5
 30
0
 11
119.1535874821394
 21
-55.5
 31
0
  0
LINE
  8
1
 62
7
 10
116.1535874821394
 20
-53.5
 30
0
 11
98.15358748213943
 21
-53.5
 31
0
  0
LINE
  8
1
 62
7
 10
118.1535874821394
 20
-58.5
 30
0
 11
118.1535874821394
 21
-47
 31
0
  0
LINE
  8
1
 62
7
 10
118.1535874821394
 20
-65
 30
0
 11
118.1535874821394
 21
-61.5
 31
0
  0
LINE
  8
1
 62
7
 10
116.1535874821394
 20
-65
 30
0
 11
118.1535874821394
 21
-65
 31
0
  0
LINE
  8
1
 62
7
 10
118.1535874821394
 20
-47
 30
0
 11
116.1535874821394
 21
-47
 31
0
  0
LINE
  8
1
 62
7
 10
119.1535874821394
 20
-61.5
 30
0
 11
116.1535874821394
 21
-61.5
 31
0
  0
LINE
  8
1
 62
7
 10
116.1535874821394
 20
-58.5
 30
0
 11
119.1535874821394
 21
-58.5
 31
0
  0
LINE
  8
1
 62
7
 10
113.6535874821394
 20
-62.75
 30
0
 11
113.6535874821394
 21
-64
 31
0
  0
LINE
  8
1
 62
7
 10
101.1535874821394
 20
-53.5
 30
0
 11
101.1535874821394
 21
-70.5
 31
0
  0
LINE
  8
1
 62
7
 10
105.8535874821394
 20
-64
 30
0
 11
105.8535874821394
 21
-56
 31
0
  0
LINE
  8
1
 62
7
 10
110.1535874821394
 20
-153.9019237886467
 30
0
 11
114.6535874821394
 21
-156.5
 31
0
  0
LINE
  8
1
 62
7
 10
105.6535874821394
 20
-156.5
 30
0
 11
110.1535874821394
 21
-153.9019237886467
 31
0
  0
LINE
  8
1
 62
7
 10
114.6535874821394
 20
-156.5
 30
0
 11
114.6535874821394
 21
-166.5
 31
0
  0
LINE
  8
1
 62
7
 10
105.6535874821394
 20
-156.5
 30
0
 11
114.6535874821394
 21
-156.5
 31
0
  0
LINE
  8
1
 62
7
 10
105.6535874821394
 20
-166.5
 30
0
 11
105.6535874821394
 21
-156.5
 31
0
  0
LINE
  8
1
 62
7
 10
105.8535874821394
 20
-62.75
 30
0
 11
116.1535874821394
 21
-62.75
 31
0
  0
LINE
  8
1
 62
7
 10
105.8535874821394
 20
-57.25
 30
0
 11
116.1535874821394
 21
-57.25
 31
0
  0
LINE
  8
1
 62
7
 10
113.6535874821394
 20
-64
 30
0
 11
101.1535874821394
 21
-64
 31
0
  0
LINE
  8
1
 62
7
 10
113.6535874821394
 20
-56
 30
0
 11
113.6535874821394
 21
-57.25
 31
0
  0
LINE
  8
1
 62
7
 10
101.1535874821394
 20
-56
 30
0
 11
113.6535874821394
 21
-56
 31
0
  0
LINE
  8
1
 62
7
 10
116.1535874821394
 20
-69.3329771104589
 30
0
 11
121.6535874821394
 21
-69.3329771104589
 31
0
  0
LINE
  8
1
 62
7
 10
116.1535874821394
 20
-70.04785059870659
 30
0
 11
104.9146360606901
 21
-70.04785059870659
 31
0
  0
LINE
  8
1
 62
7
 10
104.9146360606901
 20
-70.04785059870659
 30
0
 11
101.1535874821394
 21
-70.04785059870659
 31
0
  0
LINE
  8
1
 62
3
 10
105.3273684615664
 20
-69.3329771104589
 30
0
 11
101.1535874821394
 21
-69.3329771104589
 31
0
  0
LINE
  8
1
 62
7
 10
119.1535874821394
 20
-68
 30
0
 11
116.1535874821394
 21
-68
 31
0
  0
LINE
  8
1
 62
7
 10
119.1535874821394
 20
-164.5
 30
0
 11
119.1535874821394
 21
-150.6670228895411
 31
0
  0
LINE
  8
1
 62
7
 10
119.1535874821394
 20
-164.5
 30
0
 11
117.1535874821394
 21
-166.5
 31
0
  0
LINE
  8
1
 62
7
 10
98.15358748213943
 20
-166.5
 30
0
 11
117.1535874821394
 21
-166.5
 31
0
  0
LINE
  8
1
 62
7
 10
116.1535874821394
 20
-70.04785059870659
 30
0
 11
116.1535874821394
 21
-47
 31
0
  0
LINE
  8
1
 62
7
 10
119.1535874821394
 20
-69.3329771104589
 30
0
 11
119.1535874821394
 21
-55.5
 31
0
  0
LINE
  8
1
 62
7
 10
98.15358748213943
 20
-156.5
 30
0
 11
101.1535874821394
 21
-156.5
 31
0
  0
LINE
  8
1
 62
7
 10
101.1535874821394
 20
-163.5
 30
0
 11
98.15358748213943
 21
-163.5
 31
0
  0
LINE
  8
1
 62
7
 10
101.1535874821394
 20
-63.5
 30
0
 11
98.15358748213943
 21
-63.5
 31
0
  0
LINE
  8
1
 62
7
 10
98.15358748213943
 20
-56.5
 30
0
 11
101.1535874821394
 21
-56.5
 31
0
  0
LINE
  8
1
 62
7
 10
101.1535874821394
 20
-145.4
 30
0
 11
101.1535874821394
 21
-166.5
 31
0
  0
LINE
  8
1
 62
7
 10
73.65358748213943
 20
-166.5
 30
0
 11
71.65358748213943
 21
-164.5
 31
0
  0
LINE
  8
1
 62
7
 10
73.65358748213943
 20
-53.50000000000003
 30
0
 11
71.65358748213943
 21
-55.50000000000003
 31
0
  0
LINE
  8
1
 62
7
 10
76.15358748213943
 20
-70.50000000000001
 30
0
 11
76.15358748213943
 21
-69.50000000000003
 31
0
  0
LINE
  8
1
 62
7
 10
76.15358748213943
 20
-149.5
 30
0
 11
61.65358748213943
 21
-149.5
 31
0
  0
LINE
  8
1
 62
7
 10
76.15358748213943
 20
-145.4
 30
0
 11
101.1535874821394
 21
-145.4
 31
0
  0
LINE
  8
1
 62
7
 10
71.65358748213943
 20
-63.07333396966052
 30
0
 11
76.15358748213943
 21
-69.50000000000003
 31
0
  0
LINE
  8
1
 62
7
 10
78.15358748213943
 20
-53.50000000000003
 30
0
 11
73.65358748213943
 21
-53.50000000000003
 31
0
  0
LINE
  8
1
 62
7
 10
71.65358748213943
 20
-55.50000000000003
 30
0
 11
71.65358748213943
 21
-68.47198279317595
 31
0
  0
LINE
  8
1
 62
7
 10
76.15358748213943
 20
-150.5
 30
0
 11
76.15358748213943
 21
-145.4
 31
0
  0
LINE
  8
1
 62
7
 10
76.15358748213943
 20
-150.5
 30
0
 11
71.65358748213943
 21
-156.9266660303395
 31
0
  0
LINE
  8
1
 62
7
 10
73.65358748213943
 20
-166.5
 30
0
 11
78.15358748213943
 21
-166.5
 31
0
  0
LINE
  8
1
 62
7
 10
78.15358748213943
 20
-172.25
 30
0
 11
78.15358748213943
 21
-145.4
 31
0
  0
LINE
  8
1
 62
7
 10
71.65358748213943
 20
-149.5
 30
0
 11
71.65358748213943
 21
-164.5
 31
0
  0
LINE
  8
1
 62
7
 10
61.65358748213943
 20
-73.98514355593559
 30
0
 11
61.65358748213943
 21
-70.50000000000001
 31
0
  0
LINE
  8
1
 62
7
 10
72.89682222207999
 20
-70.50000000000001
 30
0
 11
104.6535874821394
 21
-70.5
 31
0
  0
LINE
  8
1
 62
7
 10
171.6535874821394
 20
-132.5000000000003
 30
0
 11
60.65358748213942
 21
-132.5000000000003
 31
0
  0
LINE
  8
1
 62
7
 10
124.6535874821394
 20
-84.5
 30
0
 11
60.65358748213943
 21
-84.5
 31
0
  0
LINE
  8
1
 62
7
 10
105.6535874821394
 20
-145
 30
0
 11
61.65358748213943
 21
-145
 31
0
  0
LINE
  8
1
 62
7
 10
-65.27787263831318
 20
-84.49999999987756
 30
0
 11
-65.27787263754225
 21
-56.51235855115493
 31
0
  0
LINE
  8
1
 62
7
 10
-55.27787263831316
 20
-84.50000000012156
 30
0
 11
-65.27787263831318
 21
-84.49999999987756
 31
0
  0
LINE
  8
1
 62
7
 10
-55.2778726375422
 20
-56.51235855115493
 30
0
 11
-55.27787263831316
 21
-84.50000000012156
 31
0
  0
LINE
  8
1
 62
7
 10
-65.27787263978937
 20
-144.9999999998775
 30
0
 11
-65.27787263993443
 21
-149.1822663968076
 31
0
  0
LINE
  8
1
 62
7
 10
-55.27787263978935
 20
-145.0000000001215
 30
0
 11
-65.27787263978937
 21
-144.9999999998775
 31
0
  0
LINE
  8
1
 62
7
 10
-55.27787263993389
 20
-149.1822663970515
 30
0
 11
-55.27787263978935
 21
-145.0000000001215
 31
0
  0
LINE
  8
1
 62
7
 10
-54.27787263956974
 20
-136.0000000001459
 30
0
 11
-54.27787263946451
 21
-131.6852484423474
 31
0
  0
LINE
  8
1
 62
7
 10
-66.27787263956977
 20
-135.9999999998531
 30
0
 11
-54.27787263956974
 21
-136.0000000001459
 31
0
  0
LINE
  8
1
 62
7
 10
-66.27787263946445
 20
-131.6852484420545
 30
0
 11
-66.27787263956977
 21
-135.9999999998531
 31
0
  0
LINE
  8
1
 62
3
 10
121.2408550812631
 20
-70.04785059870659
 30
0
 11
121.6535874821394
 21
-69.3329771104589
 31
0
  0
LINE
  8
1
 62
3
 10
121.2408550812631
 20
-70.04785059870659
 30
0
 11
116.1535874821394
 21
-70.04785059870659
 31
0
  0
LINE
  8
1
 62
7
 10
60.65358748213943
 20
-80
 30
0
 11
61.49478946000233
 21
-79.15879802213709
 31
0
  0
LINE
  8
1
 62
7
 10
104.6535874821394
 20
-70.5
 30
0
 11
105.3273684615664
 21
-69.3329771104589
 31
0
  0
LINE
  8
1
 62
3
 10
105.3273684615664
 20
-69.3329771104589
 30
0
 11
116.1535874821394
 21
-69.3329771104589
 31
0
  0
LINE
  8
1
 62
7
 10
121.6535874821394
 20
-69.3329771104589
 30
0
 11
121.9901694737943
 21
-68.75
 31
0
  0
LINE
  8
1
 62
7
 10
121.9901694737943
 20
-68.75
 30
0
 11
170.6535874821394
 21
-68.75000000000001
 31
0
  0
LINE
  8
1
 62
7
 10
170.6535874821394
 20
-68.75000000000001
 30
0
 11
170.6535874821394
 21
-79
 31
0
  0
LINE
  8
1
 62
7
 10
170.6535874821394
 20
-79
 30
0
 11
171.6535874821394
 21
-80
 31
0
  0
LINE
  8
1
 62
3
 10
121.6535874821394
 20
-150.6670228895411
 30
0
 11
121.2408550812631
 21
-149.9521494012934
 31
0
  0
LINE
  8
1
 62
3
 10
104.9146360606901
 20
-149.9521494012934
 30
0
 11
121.2408550812631
 21
-149.9521494012934
 31
0
  0
LINE
  8
1
 62
3
  6
DASHDOT
 10
55.65358748213943
 20
-110
 30
0
 11
60.65358748213943
 21
-110
 31
0
  0
LINE
  8
1
 62
7
 10
60.65358748213943
 20
-140
 30
0
 11
60.65358748213943
 21
-80
 31
0
  0
LINE
  8
1
 62
7
 10
61.65358748213943
 20
-141
 30
0
 11
60.65358748213943
 21
-140
 31
0
  0
LINE
  8
1
 62
7
 10
61.65358748213943
 20
-149.5
 30
0
 11
61.65358748213943
 21
-141
 31
0
  0
LINE
  8
1
 62
7
 10
104.6535874821394
 20
-149.5
 30
0
 11
101.1535874821394
 21
-149.5
 31
0
  0
LINE
  8
1
 62
7
 10
105.3273684615664
 20
-150.6670228895411
 30
0
 11
104.6535874821394
 21
-149.5
 31
0
  0
LINE
  8
1
 62
7
 10
121.6535874821394
 20
-150.6670228895411
 30
0
 11
105.3273684615664
 21
-150.6670228895411
 31
0
  0
LINE
  8
1
 62
7
 10
121.9901694737943
 20
-151.25
 30
0
 11
121.6535874821394
 21
-150.6670228895411
 31
0
  0
LINE
  8
1
 62
7
 10
170.6535874821394
 20
-151.25
 30
0
 11
121.9901694737943
 21
-151.25
 31
0
  0
LINE
  8
1
 62
7
 10
170.6535874821394
 20
-141
 30
0
 11
170.6535874821394
 21
-151.25
 31
0
  0
LINE
  8
1
 62
7
 10
171.6535874821394
 20
-140
 30
0
 11
170.6535874821394
 21
-141
 31
0
  0
LINE
  8
1
 62
7
 10
171.6535874821394
 20
-80
 30
0
 11
171.6535874821394
 21
-140
 31
0
  0
ARC
  8
1
 62
3
  6
DIVIDE
 10
168.6535874821394
 20
-153.2499999999999
 30
0
 40
2.000000000000114
 50
0
 51
90
  0
ARC
  8
1
 62
3
  6
DIVIDE
 10
140.6535874821394
 20
-153.25
 30
0
 40
2
 50
90
 51
180
  0
ARC
  8
1
 62
3
  6
DIVIDE
 10
168.6535874821394
 20
-66.75
 30
0
 40
2.000000000000014
 50
270
 51
0
  0
ARC
  8
1
 62
3
  6
DIVIDE
 10
140.6535874821394
 20
-66.75
 30
0
 40
2
 50
180
 51
270
  0
ARC
  8
1
 62
7
 10
152.6535874821394
 20
-66.75
 30
0
 40
2.000000000000014
 50
270
 51
0
  0
ARC
  8
1
 62
7
 10
124.6535874821394
 20
-66.75
 30
0
 40
2
 50
180
 51
270
  0
ARC
  8
1
 62
7
 10
68.15358748213943
 20
-77
 30
0
 40
7.000000000000035
 50
167.4423838036823
 51
272.6691998255261
  0
ARC
  8
1
 62
7
 10
68.36082143947687
 20
-59.97187461618495
 30
0
 40
3.500000000000033
 50
19.81529704179684
 51
167.4423838036827
  0
ARC
  8
1
 62
7
 10
79.88088643909607
 20
-64.82348284486048
 30
0
 40
8.999999999999881
 50
156.0845011471324
 51
265.9593630177689
  0
ARC
  8
1
 62
7
 10
138.8565156033432
 20
-79.710342245528
 30
0
 40
0.9999999999999925
 50
272.6691998255247
 51
16.06512575223226
  0
ARC
  8
1
 62
7
 10
125.4032468316484
 20
-83.58455950279991
 30
0
 40
15
 50
16.06512575223183
 51
81.48248534069155
  0
ARC
  8
1
 62
7
 10
127.4027552537056
 20
-70.23345595027948
 30
0
 40
1.499999999999946
 50
81.48248534069488
 51
219.6220027139117
  0
ARC
  8
1
 62
7
 10
123.5514132410399
 20
-73.4220551256975
 30
0
 40
3.499999999999928
 50
265.9593630177678
 51
39.62200271391082
  0
ARC
  8
1
 62
7
 10
-60.27787263893445
 20
-110
 30
0
 40
22.49999999999931
 50
285.4660099520205
 51
254.5339900451789
  0
ARC
  8
1
 62
7
 10
-60.27787263893445
 20
-110
 30
0
 40
40.49999999999965
 50
217.0916460829698
 51
322.9083539142441
  0
ARC
  8
1
 62
7
 10
-60.27787263893445
 20
-110
 30
0
 40
46.92666603033912
 50
216.116431512277
 51
323.8835684853237
  0
ARC
  8
1
 62
7
 10
-60.27787263893445
 20
-110
 30
0
 40
46.92666603033912
 50
96.11643151227797
 51
203.8835684853228
  0
ARC
  8
1
 62
7
 10
-60.27787263893445
 20
-110
 30
0
 40
40.49999999999962
 50
97.09164608297084
 51
202.908353914244
  0
ARC
  8
1
 62
7
 10
-60.27787263893445
 20
-110
 30
0
 40
46.92666603033909
 50
336.1164315122788
 51
83.88356848532354
  0
ARC
  8
1
 62
7
 10
-60.27787263893445
 20
-110
 30
0
 40
40.4999999999996
 50
337.0916460829719
 51
82.90835391424459
  0
ARC
  8
1
 62
7
 10
-60.27787263893445
 20
-110
 30
0
 40
39.5000000000005
 50
217.2721395535408
 51
262.7278604436629
  0
ARC
  8
1
 62
7
 10
-60.27787263893445
 20
-110
 30
0
 40
39.50000000000104
 50
157.2721395535419
 51
202.7278604436636
  0
ARC
  8
1
 62
7
 10
-60.27787263893579
 20
-110
 30
0
 40
39.49999999999934
 50
97.27213955354091
 51
142.7278604436633
  0
ARC
  8
1
 62
7
 10
-60.27787263893445
 20
-110
 30
0
 40
39.49999999999955
 50
37.27213955354269
 51
82.72786044366416
  0
ARC
  8
1
 62
7
 10
-60.27787263893445
 20
-110
 30
0
 40
39.49999999999892
 50
337.2721395535423
 51
22.72786044366471
  0
ARC
  8
1
 62
7
 10
-60.27787263893445
 20
-110
 30
0
 40
38.5000000000005
 50
157.4620876842211
 51
202.5379123129835
  0
ARC
  8
1
 62
7
 10
-60.27787263893579
 20
-110
 30
0
 40
38.49999999999979
 50
97.4620876842197
 51
142.5379123129833
  0
ARC
  8
1
 62
7
 10
-60.27787263893445
 20
-110
 30
0
 40
38.49999999999935
 50
37.4620876842213
 51
82.53791231298487
  0
ARC
  8
1
 62
7
 10
-60.27787263893445
 20
-110
 30
0
 40
38.49999999999925
 50
337.4620876842204
 51
22.53791231298425
  0
ARC
  8
1
 62
7
 10
-60.27787263893445
 20
-110
 30
0
 40
39.49999999999935
 50
277.2721395535409
 51
322.7278604436634
  0
ARC
  8
1
 62
7
 10
124.6535874821394
 20
-153.25
 30
0
 40
2
 50
90
 51
180
  0
ARC
  8
1
 62
7
 10
152.6535874821394
 20
-153.25
 30
0
 40
2.000000000000114
 50
0
 51
90
  0
ARC
  8
1
 62
7
 10
124.6535874821394
 20
-44.5
 30
0
 40
40
 50
270
 51
322.6811553253517
  0
ARC
  8
1
 62
7
 10
105.6535874821394
 20
-185
 30
0
 40
40.00000000000001
 50
57.53825503275762
 51
90
  0
ARC
  8
1
 62
7
 10
-60.27787263893445
 20
-110
 30
0
 40
30.00000000000046
 50
219.5940682254606
 51
320.405931771741
  0
ARC
  8
1
 62
7
 10
-60.27787263893445
 20
-110
 30
0
 40
29.99999999999898
 50
339.5940682254627
 51
80.40593177174353
  0
ARC
  8
1
 62
7
 10
-60.27787263893445
 20
-110
 30
0
 40
30.00000000000064
 50
99.59406822546394
 51
200.40593177174
  0
ARC
  8
1
 62
7
 10
-60.27787263893445
 20
-110
 30
0
 40
30.9999999999989
 50
339.2817990852798
 51
80.71820091192625
  0
ARC
  8
1
 62
7
 10
-60.27787263893445
 20
-110
 30
0
 40
31.0000000000005
 50
219.2817990852776
 51
320.7182009119241
  0
ARC
  8
1
 62
7
 10
-60.27787263893445
 20
-110
 30
0
 40
31.00000000000067
 50
99.28179908528105
 51
200.718200911923
  0
CIRCLE
  8
1
 62
7
 10
68.15358748213943
 20
-77
 30
0
 40
3.000000000000009
  0
CIRCLE
  8
1
 62
3
 10
-60.27787263893445
 20
-110
 30
0
 40
57.50000000000035
  0
CIRCLE
  8
1
 62
7
 10
-60.27787263893445
 20
-110
 30
0
 40
56.49999999999961
  0
CIRCLE
  8
1
 62
7
 10
-60.27787263893445
 20
-110
 30
0
 40
54.49999999999961
  0
CIRCLE
  8
1
 62
7
 10
-60.27787263893445
 20
-110
 30
0
 40
62.25000000000035
  0
ARC
  8
1
 62
7
  6
DIVIDE
 10
168.6535874821394
 20
-168.9999999999999
 30
0
 40
2
 50
270
 51
0
  0
ARC
  8
1
 62
3
  6
DIVIDE
 10
168.6535874821394
 20
-168.9999999999999
 30
0
 40
2
 50
270
 51
0
  0
ARC
  8
1
 62
7
  6
DIVIDE
 10
168.6535874821394
 20
-51
 30
0
 40
2
 50
0
 51
90
  0
ARC
  8
1
 62
3
  6
DIVIDE
 10
168.6535874821394
 20
-51
 30
0
 40
2
 50
0
 51
90
  0
ARC
  8
1
 62
7
 10
152.6535874821394
 20
-51
 30
0
 40
2
 50
0
 51
90
  0
ARC
  8
1
 62
7
 10
152.6535874821394
 20
-169
 30
0
 40
2
 50
270
 51
0
  0
TEXT
  8
1
 62
7
 10
-81.0245248409876
 20
-35.0711538073672
 30
0
 40
5
  1
DS 454 MG
 41
0.9
  7
SIMPLEX
 72
1
 11
-60.7745248409876
 21
-35.0711538073672
 31
0
  0
ENDSEC
  0
EOF
