  0
SECTION
  2
HEADER
  9
$ACADVER
  1
AC1009
  9
$INSBASE
 10
0
 20
0
  9
$EXTMIN
 10
-4.411428438199508
 20
-23.97816286857651
  9
$EXTMAX
 10
241.1188388593077
 20
93.3670156291038
  9
$LIMMIN
 10
-4.411428438199508
 20
-23.97816286857651
  9
$LIMMAX
 10
241.1188388593077
 20
93.3670156291038
  9
$VIEWCTR
 10
10
 20
10
  9
$VIEWSIZE
 40
10
  9
$SNAPMODE
 70
0
  9
$SNAPUNIT
 10
1
 20
1
  9
$SNAPBASE
 10
0
 20
0
  9
$SNAPANG
 50
0
  9
$SNAPSTYLE
 70
0
  9
$SNAPISOPAIR
 70
0
  9
$GRIDMODE
 70
0
  9
$GRIDUNIT
 10
0
 20
0
  9
$ORTHOMODE
 70
0
  9
$REGENMODE
 70
1
  9
$FILLMODE
 70
1
  9
$QTEXTMODE
 70
0
  9
$DRAGMODE
 70
2
  9
$LTSCALE
 40
1
  9
$OSMODE
 70
0
  9
$ATTMODE
 70
1
  9
$TEXTSIZE
 40
3.5
  9
$TRACEWID
 40
0.5
  9
$TEXTSTYLE
  7
STANDARD
  9
$CLAYER
  8
0
  9
$CELTYPE
  6
BYLAYER
  9
$CECOLOR
 62
256
  9
$DIMSCALE
 40
1
  9
$DIMASZ
 40
0.18
  9
$DIMEXO
 40
0.0625
  9
$DIMDLI
 40
0.38
  9
$DIMRND
 40
0
  9
$DIMDLE
 40
0
  9
$DIMEXE
 40
0.18
  9
$DIMTP
 40
0
  9
$DIMTM
 40
0
  9
$DIMTXT
 40
0.18
  9
$DIMCEN
 40
0.09
  9
$DIMTSZ
 40
0
  9
$DIMTOL
 70
0
  9
$DIMLIM
 70
0
  9
$DIMTIH
 70
1
  9
$DIMTOH
 70
1
  9
$DIMSE1
 70
0
  9
$DIMSE2
 70
0
  9
$DIMTAD
 70
0
  9
$DIMZIN
 70
0
  9
$DIMBLK
  1

  9
$DIMASO
 70
1
  9
$DIMSHO
 70
1
  9
$DIMPOST
  1

  9
$DIMAPOST
  1

  9
$DIMALT
 70
0
  9
$DIMALTD
 70
2
  9
$DIMALTF
 40
25.4
  9
$DIMLFAC
 40
1
  9
$DIMTOFL
 70
0
  9
$DIMTVP
 40
0
  9
$DIMTIX
 70
0
  9
$DIMSOXD
 70
0
  9
$DIMSAH
 70
0
  9
$DIMBLK1
  1

  9
$DIMBLK2
  1

  9
$DIMSTYLE
  2
*UNNAMED
  9
$DIMCLRD
 70
0
  9
$DIMCLRE
 70
0
  9
$DIMCLRT
 70
0
  9
$DIMTFAC
 40
1
  9
$DIMGAP
 40
0.09
  9
$LUNITS
 70
2
  9
$LUPREC
 70
4
  9
$AXISMODE
 70
0
  9
$AXISUNIT
 10
0
 20
0
  9
$SKETCHINC
 40
0.1
  9
$FILLETRAD
 40
2
  9
$AUNITS
 70
0
  9
$AUPREC
 70
0
  9
$MENU
  1
ACAD
  9
$ELEVATION
 40
0
  9
$THICKNESS
 40
0
  9
$VIEWDIR
 10
0
 20
0
 30
1
  9
$LIMCHECK
 70
0
  9
$BLIPMODE
 70
1
  9
$CHAMFERA
 40
0
  9
$CHAMFERB
 40
0
  9
$FASTZOOM
 70
1
  9
$SKPOLY
 70
0
  9
$ANGBASE
 50
0
  9
$ANGDIR
 70
0
  9
$PDMODE
 70
0
  9
$PDSIZE
 40
0
  9
$PLINEWID
 40
0
  9
$COORDS
 70
2
  0
ENDSEC
  0
SECTION
  2
TABLES
  0
TABLE
  2
DIMSTYLE
 70
0
  0
ENDTAB
  0
TABLE
  2
LTYPE
 70
9
  0
LTYPE
  2
CONTINUOUS
 70
64
  3
Solid line
 72
65
 73
0
 40
0
  0
LTYPE
  2
BORDER
 70
64
  3
__ __ . __ __ .
 72
65
 73
6
 40
11.30731494133257
 49
3.230661411809305
 49
-1.615330705904652
 49
3.230661411809305
 49
-1.615330705904652
 49
0
 49
-1.615330705904652
  0
LTYPE
  2
CENTER
 70
64
  3
____ _ ____ _
 72
65
 73
4
 40
12.92264564723722
 49
8.076653529523263
 49
-1.615330705904652
 49
1.615330705904652
 49
-1.615330705904652
  0
LTYPE
  2
DASHDOT
 70
64
  3
__ . __ . __ .
 72
65
 73
4
 40
6.46132282361861
 49
3.230661411809305
 49
-1.615330705904652
 49
0
 49
-1.615330705904652
  0
LTYPE
  2
DASHED
 70
64
  3
__ __ __ __ __
 72
65
 73
2
 40
4.845992117713958
 49
3.230661411809305
 49
-1.615330705904652
  0
LTYPE
  2
DIVIDE
 70
64
  3
__ . . __ . . 
 72
65
 73
6
 40
8.076653529523263
 49
3.230661411809305
 49
-1.615330705904652
 49
0
 49
-1.615330705904652
 49
0
 49
-1.615330705904652
  0
LTYPE
  2
DOT
 70
64
  3
..............
 72
65
 73
4
 40
3.230661411809305
 49
0
 49
-1.615330705904652
 49
0
 49
-1.615330705904652
  0
LTYPE
  2
HIDDEN
 70
64
  3
_ _ _ _ _ _ _
 72
65
 73
2
 40
2.422996058856979
 49
1.615330705904652
 49
-0.8076653529523262
  0
LTYPE
  2
PHANTOM
 70
64
  3
_____ _ _ _____ _ _ 
 72
65
 73
6
 40
16.15330705904653
 49
8.076653529523263
 49
-1.615330705904652
 49
1.615330705904652
 49
-1.615330705904652
 49
1.615330705904652
 49
-1.615330705904652
  0
ENDTAB
  0
TABLE
  2
LAYER
 70
3
  0
LAYER
  2
1
 70
0
 62
7
  6
CONTINUOUS
  0
LAYER
  2
0
 70
0
 62
7
  6
CONTINUOUS
  0
ENDTAB
  0
TABLE
  2
STYLE
 70
4
  0
STYLE
  2
STANDARD
 70
0
 40
0
 41
1
 50
0
 71
0
 42
3.5
  3
txt
  4

  0
STYLE
  2
SIMPLEX
 70
0
 40
0
 41
1
 50
0
 71
0
 42
3.5
  3
simplex
  4

  0
STYLE
  2
COMPLEX
 70
0
 40
0
 41
1
 50
0
 71
0
 42
3.5
  3
complex
  4

  0
STYLE
  2
ITALIC
 70
0
 40
0
 41
1
 50
0
 71
0
 42
3.5
  3
italic
  4

  0
ENDTAB
  0
TABLE
  2
VIEW
 70
0
  0
ENDTAB
  0
ENDSEC
  0
SECTION
  2
BLOCKS
  0
ENDSEC
  0
SECTION
  2
ENTITIES
  0
LINE
  8
1
 62
3
  6
DIVIDE
 10
235.8843332155682
 20
-20.2781628685765
 30
0
 11
235.8843332155682
 21
-7.403162868576501
 31
0
  0
LINE
  8
1
 62
3
  6
DIVIDE
 10
235.8843332155682
 20
-20.2781628685765
 30
0
 11
234.6343332155682
 21
-21.5281628685765
 31
0
  0
LINE
  8
1
 62
3
  6
DIVIDE
 10
234.6343332155682
 20
-21.5281628685765
 30
0
 11
232.3843332155682
 21
-21.5281628685765
 31
0
  0
LINE
  8
1
 62
3
  6
DIVIDE
 10
231.6343332155682
 20
-20.7781628685765
 30
0
 11
232.3843332155682
 21
-21.5281628685765
 31
0
  0
LINE
  8
1
 62
3
  6
DIVIDE
 10
231.6343332155682
 20
-20.7781628685765
 30
0
 11
231.6343332155682
 21
-13.2781628685765
 31
0
  0
LINE
  8
1
 62
3
  6
DIVIDE
 10
231.6343332155682
 20
-13.2781628685765
 30
0
 11
219.1343332155682
 21
-13.2781628685765
 31
0
  0
LINE
  8
1
 62
3
  6
DIVIDE
 10
219.1343332155682
 20
-20.7781628685765
 30
0
 11
219.1343332155682
 21
-13.2781628685765
 31
0
  0
LINE
  8
1
 62
3
  6
DIVIDE
 10
219.1343332155682
 20
-20.7781628685765
 30
0
 11
218.3843332155682
 21
-21.5281628685765
 31
0
  0
LINE
  8
1
 62
3
  6
DIVIDE
 10
218.3843332155682
 20
-21.5281628685765
 30
0
 11
216.1343332155682
 21
-21.5281628685765
 31
0
  0
LINE
  8
1
 62
3
  6
DIVIDE
 10
214.8843332155682
 20
-20.2781628685765
 30
0
 11
216.1343332155682
 21
-21.5281628685765
 31
0
  0
LINE
  8
1
 62
3
  6
DIVIDE
 10
214.8843332155682
 20
-20.2781628685765
 30
0
 11
214.8843332155682
 21
-7.403162868576558
 31
0
  0
LINE
  8
1
 62
3
  6
DASHDOT
 10
225.3843332155682
 20
-5.909421915289755
 30
0
 11
225.3843332155682
 21
-15.90942191528976
 31
0
  0
LINE
  8
1
 62
3
  6
DASHDOT
 10
213.3843332155682
 20
-5.909421915289755
 30
0
 11
213.3843332155682
 21
-15.90942191528976
 31
0
  0
LINE
  8
1
 62
3
  6
DASHDOT
 10
156.3843332155682
 20
23.9718371314235
 30
0
 11
151.8440709797657
 21
23.9718371314235
 31
0
  0
LINE
  8
1
 62
3
  6
DIVIDE
 10
235.8843332155682
 20
55.3468371314235
 30
0
 11
235.8843332155682
 21
68.2218371314235
 31
0
  0
LINE
  8
1
 62
3
  6
DIVIDE
 10
234.6343332155682
 20
69.4718371314235
 30
0
 11
235.8843332155682
 21
68.2218371314235
 31
0
  0
LINE
  8
1
 62
3
  6
DIVIDE
 10
232.3843332155682
 20
69.4718371314235
 30
0
 11
234.6343332155682
 21
69.4718371314235
 31
0
  0
LINE
  8
1
 62
3
  6
DIVIDE
 10
232.3843332155682
 20
69.4718371314235
 30
0
 11
231.6343332155682
 21
68.7218371314235
 31
0
  0
LINE
  8
1
 62
3
  6
DIVIDE
 10
231.6343332155682
 20
61.2218371314235
 30
0
 11
231.6343332155682
 21
68.7218371314235
 31
0
  0
LINE
  8
1
 62
3
  6
DIVIDE
 10
219.1343332155682
 20
61.2218371314235
 30
0
 11
231.6343332155682
 21
61.2218371314235
 31
0
  0
LINE
  8
1
 62
3
  6
DIVIDE
 10
219.1343332155682
 20
61.2218371314235
 30
0
 11
219.1343332155682
 21
68.7218371314235
 31
0
  0
LINE
  8
1
 62
3
  6
DIVIDE
 10
218.3843332155682
 20
69.4718371314235
 30
0
 11
219.1343332155682
 21
68.7218371314235
 31
0
  0
LINE
  8
1
 62
3
  6
DIVIDE
 10
216.1343332155682
 20
69.4718371314235
 30
0
 11
218.3843332155682
 21
69.4718371314235
 31
0
  0
LINE
  8
1
 62
3
  6
DIVIDE
 10
216.1343332155682
 20
69.4718371314235
 30
0
 11
214.8843332155682
 21
68.2218371314235
 31
0
  0
LINE
  8
1
 62
3
  6
DIVIDE
 10
214.8843332155682
 20
55.34683713142352
 30
0
 11
214.8843332155682
 21
68.2218371314235
 31
0
  0
LINE
  8
1
 62
7
 10
159.528881092216
 20
63.47017652925096
 30
0
 11
156.9708425606851
 21
49.89790925840769
 31
0
  0
LINE
  8
1
 62
7
 10
162.2045666794536
 20
43.98210261658127
 30
0
 11
214.347292359555
 21
47.32854231418349
 31
0
  0
LINE
  8
1
 62
7
 10
169.996834176513
 20
51.53302161114625
 30
0
 11
203.7431637913078
 21
49.77490110348816
 31
0
  0
LINE
  8
1
 62
3
 10
170.3843332155682
 20
-23.9781628685765
 30
0
 11
187.1343332155682
 21
-3.028162868576501
 31
0
  0
LINE
  8
1
 62
3
 10
170.3843332155682
 20
-3.028162868576501
 30
0
 11
187.1343332155682
 21
-23.9781628685765
 31
0
  0
LINE
  8
1
 62
3
 10
187.1343332155682
 20
71.9218371314235
 30
0
 11
170.3843332155682
 21
53.97183713142351
 31
0
  0
LINE
  8
1
 62
3
 10
170.3843332155682
 20
71.9218371314235
 30
0
 11
187.1343332155682
 21
53.97183713142351
 31
0
  0
LINE
  8
1
 62
3
  6
DASHDOT
 10
43.5385715618005
 20
28.9718371314235
 30
0
 11
43.5385715618005
 21
18.9718371314235
 31
0
  0
LINE
  8
1
 62
7
 10
81.0456131169625
 20
6.935938746561249
 30
0
 11
77.0456131169625
 21
0.007735516285748645
 31
0
  0
LINE
  8
1
 62
7
 10
24.65107618800393
 20
17.6859387465613
 30
0
 11
6.031530006638555
 21
6.935938746561249
 31
0
  0
LINE
  8
1
 62
7
 10
10.03153000663853
 20
0.007735516285748645
 30
0
 11
6.031530006638555
 21
6.935938746561249
 31
0
  0
LINE
  8
1
 62
7
 10
28.65107618800393
 20
10.7577355162858
 30
0
 11
10.03153000663853
 21
0.007735516285748645
 31
0
  0
LINE
  8
1
 62
7
 10
39.53857156180047
 20
64.9718371314235
 30
0
 11
47.53857156180046
 21
64.9718371314235
 31
0
  0
LINE
  8
1
 62
7
 10
47.5385715618005
 20
43.47183713142351
 30
0
 11
47.53857156180046
 21
64.9718371314235
 31
0
  0
LINE
  8
1
 62
2
 10
202.3843332155682
 20
-7.340805123407051
 30
0
 11
202.3843332155682
 21
-7.278162868576501
 31
0
  0
LINE
  8
1
 62
3
  6
DASHDOT
 10
241.1188388593077
 20
23.9718371314235
 30
0
 11
236.3843332155682
 21
23.9718371314235
 31
0
  0
LINE
  8
1
 62
7
 10
235.8843332155682
 20
-7.403162868576501
 30
0
 11
202.4565019992168
 21
-7.403162868576501
 31
0
  0
LINE
  8
1
 62
7
 10
202.4565019992168
 20
-7.403162868576501
 30
0
 11
202.3843332155682
 21
-7.278162868576501
 31
0
  0
LINE
  8
1
 62
7
 10
202.3843332155682
 20
-7.278162868576501
 30
0
 11
199.4843332155682
 21
-7.278162868576501
 31
0
  0
LINE
  8
1
 62
7
 10
190.8843332155682
 20
-6.028162868576501
 30
0
 11
189.1343332155682
 21
-6.028162868576501
 31
0
  0
LINE
  8
1
 62
7
 10
156.3843332155682
 20
1.471837131423499
 30
0
 11
156.3843332155682
 21
46.4718371314235
 31
0
  0
LINE
  8
1
 62
7
 10
156.8843332155682
 20
0.9718371314234986
 30
0
 11
156.8843332155682
 21
-6.028162868576501
 31
0
  0
LINE
  8
1
 62
7
 10
191.3843332155682
 20
-2.528162868576501
 30
0
 11
156.8843332155682
 21
-2.528162868576501
 31
0
  0
LINE
  8
1
 62
7
 10
202.4565019992168
 20
55.34683713142352
 30
0
 11
235.8843332155682
 21
55.3468371314235
 31
0
  0
LINE
  8
1
 62
7
 10
202.3843332155682
 20
55.2218371314235
 30
0
 11
202.4565019992168
 21
55.34683713142352
 31
0
  0
LINE
  8
1
 62
3
 10
191.6060210520552
 20
55.2218371314235
 30
0
 11
199.4843332155682
 21
55.2218371314235
 31
0
  0
LINE
  8
1
 62
7
 10
156.8843332155682
 20
53.97183713142352
 30
0
 11
157.7386777547532
 21
53.97183713142352
 31
0
  0
LINE
  8
1
 62
7
 10
156.8843332155682
 20
53.97183713142352
 30
0
 11
156.8843332155682
 21
46.9718371314235
 31
0
  0
LINE
  8
1
 62
7
 10
15.78978518263305
 20
35.3738042636043
 30
0
 11
18.5888983615128
 21
33.75773551628573
 31
0
  0
LINE
  8
1
 62
7
 10
19.78978518263305
 20
42.30200749387976
 30
0
 11
22.58889836151278
 21
40.68593874656126
 31
0
  0
LINE
  8
1
 62
7
 10
22.58889836151278
 20
40.68593874656126
 30
0
 11
18.5888983615128
 21
33.75773551628573
 31
0
  0
LINE
  8
1
 62
7
 10
77.0456131169625
 20
0.007735516285748645
 30
0
 11
58.42606693559703
 21
10.75773551628577
 31
0
  0
LINE
  8
1
 62
7
 10
81.0456131169625
 20
6.935938746561249
 30
0
 11
62.42606693559701
 21
17.68593874656128
 31
0
  0
LINE
  8
1
 62
7
 10
62.42606693559701
 20
17.68593874656128
 30
0
 11
58.42606693559703
 21
10.75773551628577
 31
0
  0
LINE
  8
1
 62
7
 10
71.28735794096795
 20
35.37380426360423
 30
0
 11
68.48824476208814
 21
33.75773551628583
 31
0
  0
LINE
  8
1
 62
7
 10
68.48824476208814
 20
33.75773551628583
 30
0
 11
64.48824476208813
 21
40.68593874656133
 31
0
  0
LINE
  8
1
 62
7
 10
39.5385715618005
 20
-5.760300363213503
 30
0
 11
39.53857156180053
 21
-2.528162868576551
 31
0
  0
LINE
  8
1
 62
7
 10
39.53857156180053
 20
-2.528162868576551
 30
0
 11
47.53857156180053
 21
-2.528162868576551
 31
0
  0
LINE
  8
1
 62
7
 10
67.28735794096801
 20
42.30200749387974
 30
0
 11
64.48824476208813
 21
40.68593874656133
 31
0
  0
LINE
  8
1
 62
7
 10
47.53857156180056
 20
-5.760300363213503
 30
0
 11
47.53857156180053
 21
-2.528162868576551
 31
0
  0
LINE
  8
1
 62
7
 10
28.65107618800393
 20
10.7577355162858
 30
0
 11
24.65107618800393
 21
17.6859387465613
 31
0
  0
LINE
  8
1
 62
7
 10
39.53857156180047
 20
64.9718371314235
 30
0
 11
39.5385715618005
 21
43.47183713142351
 31
0
  0
LINE
  8
1
 62
7
 10
39.5385715618005
 20
43.47183713142351
 30
0
 11
47.5385715618005
 21
43.47183713142351
 31
0
  0
LINE
  8
1
 62
7
 10
48.0385715618005
 20
7.06030260613575
 30
0
 11
48.03857156180046
 21
3.471837131423499
 31
0
  0
LINE
  8
1
 62
7
 10
39.0385715618005
 20
7.06030260613575
 30
0
 11
39.03857156180052
 21
3.471837131423499
 31
0
  0
LINE
  8
1
 62
7
 10
48.03857156180046
 20
3.471837131423499
 30
0
 11
39.03857156180052
 21
3.471837131423499
 31
0
  0
LINE
  8
1
 62
3
 10
202.3843332155682
 20
-6.778162868576501
 30
0
 11
199.4843332155682
 21
-6.778162868576501
 31
0
  0
LINE
  8
1
 62
3
 10
202.3843332155682
 20
-7.278162868576501
 30
0
 11
202.3843332155682
 21
-6.778162868576501
 31
0
  0
LINE
  8
1
 62
7
 10
189.1343332155682
 20
54.72183713142352
 30
0
 11
199.4843332155682
 21
54.72183713142352
 31
0
  0
LINE
  8
1
 62
3
 10
202.3843332155682
 20
54.72183713142352
 30
0
 11
202.3843332155682
 21
55.2218371314235
 31
0
  0
LINE
  8
1
 62
7
 10
73.38776381492644
 20
21.17215467872904
 30
0
 11
73.41146886059124
 21
21.2132130222162
 31
0
  0
LINE
  8
1
 62
7
 10
235.8843332155682
 20
-7.403162868576501
 30
0
 11
235.8843332155682
 21
0.9718371314234986
 31
0
  0
LINE
  8
1
 62
7
 10
235.8843332155682
 20
55.3468371314235
 30
0
 11
235.8843332155682
 21
46.9718371314235
 31
0
  0
LINE
  8
1
 62
7
 10
236.3843332155682
 20
46.4718371314235
 30
0
 11
236.3843332155682
 21
1.471837131423499
 31
0
  0
LINE
  8
1
 62
7
 10
236.3843332155682
 20
1.471837131423499
 30
0
 11
235.8843332155682
 21
0.9718371314234986
 31
0
  0
LINE
  8
1
 62
7
 10
236.3843332155682
 20
46.4718371314235
 30
0
 11
235.8843332155682
 21
46.9718371314235
 31
0
  0
LINE
  8
1
 62
7
 10
204.3843332155682
 20
43.47183713142351
 30
0
 11
156.3843332155682
 21
43.47183713142351
 31
0
  0
LINE
  8
1
 62
7
 10
156.3843332155682
 20
1.471837131423499
 30
0
 11
156.8843332155682
 21
0.9718371314234986
 31
0
  0
LINE
  8
1
 62
7
 10
156.3843332155682
 20
46.4718371314235
 30
0
 11
156.8843332155682
 21
46.9718371314235
 31
0
  0
LINE
  8
1
 62
7
 10
191.6060210520552
 20
-7.278162868576501
 30
0
 11
190.8843332155682
 21
-6.028162868576501
 31
0
  0
LINE
  8
1
 62
7
 10
190.8843332155682
 20
53.9718371314235
 30
0
 11
191.6060210520552
 21
55.2218371314235
 31
0
  0
LINE
  8
1
 62
7
 10
165.8843332155682
 20
68.2218371314235
 30
0
 11
170.3843332155682
 21
68.2218371314235
 31
0
  0
LINE
  8
1
 62
7
 10
169.3843332155682
 20
54.4718371314235
 30
0
 11
164.3843332155682
 21
59.4718371314235
 31
0
  0
LINE
  8
1
 62
7
 10
169.3843332155682
 20
54.4718371314235
 30
0
 11
169.3843332155682
 21
53.97183713142351
 31
0
  0
LINE
  8
1
 62
7
 10
164.3843332155682
 20
-18.7781628685765
 30
0
 11
164.3843332155682
 21
-6.028162868576558
 31
0
  0
LINE
  8
1
 62
7
 10
170.3843332155682
 20
-20.2781628685765
 30
0
 11
165.8843332155682
 21
-20.2781628685765
 31
0
  0
LINE
  8
1
 62
7
 10
164.3843332155682
 20
-11.5281628685765
 30
0
 11
169.3843332155682
 21
-6.528162868576501
 31
0
  0
LINE
  8
1
 62
7
 10
169.3843332155682
 20
-3.028162868576501
 30
0
 11
169.3843332155682
 21
-6.528162868576501
 31
0
  0
LINE
  8
1
 62
7
 10
169.3843332155682
 20
-6.028162868576501
 30
0
 11
156.8843332155682
 21
-6.028162868576501
 31
0
  0
LINE
  8
1
 62
7
 10
165.8843332155682
 20
-20.2781628685765
 30
0
 11
164.3843332155682
 21
-18.7781628685765
 31
0
  0
LINE
  8
1
 62
7
 10
165.8843332155682
 20
68.2218371314235
 30
0
 11
164.3843332155682
 21
66.7218371314235
 31
0
  0
LINE
  8
1
 62
7
 10
165.0429456726818
 20
53.97183713142351
 30
0
 11
187.1343332155682
 21
53.97183713142351
 31
0
  0
LINE
  8
1
 62
7
 10
164.3843332155682
 20
54.87948712894397
 30
0
 11
164.3843332155682
 21
66.7218371314235
 31
0
  0
LINE
  8
1
 62
7
 10
170.3843332155682
 20
71.9218371314235
 30
0
 11
187.1343332155682
 21
71.9218371314235
 31
0
  0
LINE
  8
1
 62
7
 10
170.3843332155682
 20
53.97183713142351
 30
0
 11
170.3843332155682
 21
71.9218371314235
 31
0
  0
LINE
  8
1
 62
7
 10
187.1343332155682
 20
71.9218371314235
 30
0
 11
187.1343332155682
 21
53.4718371314235
 31
0
  0
LINE
  8
1
 62
7
 10
187.1343332155682
 20
53.4718371314235
 30
0
 11
189.1343332155682
 21
53.4718371314235
 31
0
  0
LINE
  8
1
 62
7
 10
189.1343332155682
 20
53.9718371314235
 30
0
 11
190.8843332155682
 21
53.9718371314235
 31
0
  0
LINE
  8
1
 62
7
 10
170.3843332155682
 20
-23.9781628685765
 30
0
 11
170.3843332155682
 21
-3.028162868576501
 31
0
  0
LINE
  8
1
 62
7
 10
187.1343332155682
 20
-23.9781628685765
 30
0
 11
187.1343332155682
 21
-3.028162868576501
 31
0
  0
LINE
  8
1
 62
7
 10
187.1343332155682
 20
-23.9781628685765
 30
0
 11
170.3843332155682
 21
-23.9781628685765
 31
0
  0
LINE
  8
1
 62
7
 10
189.1343332155682
 20
-3.028162868576501
 30
0
 11
169.3843332155682
 21
-3.028162868576501
 31
0
  0
LINE
  8
1
 62
7
 10
187.1343332155682
 20
68.2218371314235
 30
0
 11
199.6343332155682
 21
68.2218371314235
 31
0
  0
LINE
  8
1
 62
7
 10
200.1343332155682
 20
-20.2781628685765
 30
0
 11
187.1343332155682
 21
-20.2781628685765
 31
0
  0
LINE
  8
1
 62
7
 10
200.1343332155682
 20
-20.2781628685765
 30
0
 11
201.6343332155682
 21
-18.7781628685765
 31
0
  0
LINE
  8
1
 62
7
 10
198.2343332155681
 20
59.9718371314235
 30
0
 11
198.2343332155681
 21
60.9718371314235
 31
0
  0
LINE
  8
1
 62
7
 10
189.1343332155682
 20
65.9718371314235
 30
0
 11
198.2343332155681
 21
65.9718371314235
 31
0
  0
LINE
  8
1
 62
7
 10
192.7343332155681
 20
64.9718371314235
 30
0
 11
199.6343332155682
 21
64.9718371314235
 31
0
  0
LINE
  8
1
 62
7
 10
192.7343332155681
 20
60.9718371314235
 30
0
 11
199.6343332155682
 21
60.9718371314235
 31
0
  0
LINE
  8
1
 62
7
 10
189.1343332155682
 20
59.9718371314235
 30
0
 11
198.2343332155681
 21
59.9718371314235
 31
0
  0
LINE
  8
1
 62
7
 10
199.6343332155682
 20
55.7218371314235
 30
0
 11
201.6343332155682
 21
55.7218371314235
 31
0
  0
LINE
  8
1
 62
3
 10
189.1343332155682
 20
-7.278162868576501
 30
0
 11
199.4843332155682
 21
-7.278162868576501
 31
0
  0
LINE
  8
1
 62
7
 10
199.4843332155682
 20
-7.778162868576501
 30
0
 11
201.6343332155682
 21
-7.778162868576501
 31
0
  0
LINE
  8
1
 62
7
 10
187.1343332155682
 20
65.0968371314235
 30
0
 11
189.2343332155682
 21
65.0968371314235
 31
0
  0
LINE
  8
1
 62
7
 10
187.1343332155682
 20
60.8468371314235
 30
0
 11
189.2343332155682
 21
60.8468371314235
 31
0
  0
LINE
  8
1
 62
7
 10
189.1343332155682
 20
-20.2781628685765
 30
0
 11
189.1343332155682
 21
-3.028162868576501
 31
0
  0
LINE
  8
1
 62
7
 10
199.6343332155682
 20
63.9718371314235
 30
0
 11
201.6343332155682
 21
63.9718371314235
 31
0
  0
LINE
  8
1
 62
7
 10
199.6343332155682
 20
61.9718371314235
 30
0
 11
201.6343332155682
 21
61.9718371314235
 31
0
  0
LINE
  8
1
 62
7
 10
199.6343332155682
 20
54.72183713142352
 30
0
 11
199.6343332155682
 21
72.9718371314235
 31
0
  0
LINE
  8
1
 62
7
 10
192.7343332155681
 20
65.9718371314235
 30
0
 11
192.7343332155681
 21
59.9718371314235
 31
0
  0
LINE
  8
1
 62
7
 10
198.2343332155681
 20
64.9718371314235
 30
0
 11
198.2343332155681
 21
65.9718371314235
 31
0
  0
LINE
  8
1
 62
7
 10
199.6343332155682
 20
57.9718371314235
 30
0
 11
200.9343332155682
 21
57.9718371314235
 31
0
  0
LINE
  8
1
 62
7
 10
199.6343332155682
 20
72.9718371314235
 30
0
 11
200.9343332155682
 21
72.9718371314235
 31
0
  0
LINE
  8
1
 62
7
 10
200.9343332155682
 20
72.9718371314235
 30
0
 11
200.9343332155682
 21
63.9718371314235
 31
0
  0
LINE
  8
1
 62
7
 10
200.9343332155682
 20
61.9718371314235
 30
0
 11
200.9343332155682
 21
57.9718371314235
 31
0
  0
LINE
  8
1
 62
7
 10
201.6343332155682
 20
-7.278162868576501
 30
0
 11
201.6343332155682
 21
-18.7781628685765
 31
0
  0
LINE
  8
1
 62
7
 10
199.4843332155682
 20
-7.778162868576501
 30
0
 11
199.4843332155682
 21
-6.778162868576501
 31
0
  0
LINE
  8
1
 62
7
 10
199.4843332155682
 20
-7.278162868576501
 30
0
 11
191.6060210520552
 21
-7.278162868576501
 31
0
  0
LINE
  8
1
 62
7
 10
199.4843332155682
 20
-6.778162868576501
 30
0
 11
189.1343332155682
 21
-6.778162868576501
 31
0
  0
LINE
  8
1
 62
7
 10
192.8843332155682
 20
-20.2781628685765
 30
0
 11
192.8843332155682
 21
-12.7781628685765
 31
0
  0
LINE
  8
1
 62
7
 10
192.8843332155682
 20
-12.7781628685765
 30
0
 11
197.8843332155682
 21
-12.7781628685765
 31
0
  0
LINE
  8
1
 62
7
 10
197.8843332155682
 20
-12.7781628685765
 30
0
 11
197.8843332155682
 21
-20.2781628685765
 31
0
  0
LINE
  8
1
 62
7
 10
192.8843332155682
 20
-12.7781628685765
 30
0
 11
195.3843332155682
 21
-11.33478719560245
 31
0
  0
LINE
  8
1
 62
7
 10
195.3843332155682
 20
-11.33478719560245
 30
0
 11
197.8843332155682
 21
-12.7781628685765
 31
0
  0
LINE
  8
1
 62
7
 10
201.6343332155682
 20
66.7218371314235
 30
0
 11
201.6343332155682
 21
55.2218371314235
 31
0
  0
LINE
  8
1
 62
7
 10
187.2343332155682
 20
60.8468371314235
 30
0
 11
187.2343332155682
 21
65.0968371314235
 31
0
  0
LINE
  8
1
 62
7
 10
189.2343332155682
 20
59.9718371314235
 30
0
 11
189.2343332155682
 21
65.9718371314235
 31
0
  0
LINE
  8
1
 62
7
 10
189.1343332155682
 20
60.8468371314235
 30
0
 11
189.1343332155682
 21
53.4718371314235
 31
0
  0
LINE
  8
1
 62
7
 10
189.1343332155682
 20
65.0968371314235
 30
0
 11
189.1343332155682
 21
68.2218371314235
 31
0
  0
LINE
  8
1
 62
7
 10
200.9343332155682
 20
67.42183713142349
 30
0
 11
201.6343332155682
 21
66.7218371314235
 31
0
  0
LINE
  8
1
 62
3
 10
199.4843332155682
 20
54.72183713142352
 30
0
 11
202.3843332155682
 21
54.72183713142352
 31
0
  0
LINE
  8
1
 62
3
 10
191.6060210520552
 20
55.2218371314235
 30
0
 11
189.1343332155682
 21
55.2218371314235
 31
0
  0
LINE
  8
1
 62
7
 10
199.4843332155682
 20
55.2218371314235
 30
0
 11
202.3843332155682
 21
55.2218371314235
 31
0
  0
LINE
  8
1
 62
7
 10
189.1343332155682
 20
-17.2781628685765
 30
0
 11
187.1343332155682
 21
-17.2781628685765
 31
0
  0
LINE
  8
1
 62
7
 10
187.1343332155682
 20
-12.7781628685765
 30
0
 11
189.1343332155682
 21
-12.7781628685765
 31
0
  0
LINE
  8
1
 62
3
  6
DASHDOT
 10
48.5385715618005
 20
23.9718371314235
 30
0
 11
38.5385715618005
 21
23.9718371314235
 31
0
  0
LINE
  8
1
 62
7
 10
156.3843332155682
 20
1.471837131423499
 30
0
 11
236.3843332155682
 21
1.471837131423499
 31
0
  0
LINE
  8
1
 62
7
 10
39.5385715618005
 20
43.97183713142351
 30
0
 11
47.5385715618005
 21
43.97183713142351
 31
0
  0
LINE
  8
1
 62
7
 10
64.92125746398037
 20
40.93593874656132
 30
0
 11
68.92125746398037
 21
34.00773551628583
 31
0
  0
LINE
  8
1
 62
7
 10
58.85907963748925
 20
10.50773551628577
 30
0
 11
62.85907963748923
 21
17.43593874656128
 31
0
  0
LINE
  8
1
 62
7
 10
39.53857156180053
 20
-3.028162868576551
 30
0
 11
47.53857156180054
 21
-3.028162868576551
 31
0
  0
LINE
  8
1
 62
7
 10
24.21806348611172
 20
17.4359387465613
 30
0
 11
28.21806348611171
 21
10.5077355162858
 31
0
  0
LINE
  8
1
 62
7
 10
18.15588565962059
 20
34.00773551628575
 30
0
 11
22.15588565962056
 21
40.93593874656126
 31
0
  0
LINE
  8
1
 62
3
  6
DASHDOT
 10
213.3843332155682
 20
63.85309617813674
 30
0
 11
213.3843332155682
 21
53.85309617813674
 31
0
  0
LINE
  8
1
 62
7
 10
220.3843332155682
 20
69.4718371314235
 30
0
 11
219.6343332155682
 21
68.7218371314235
 31
0
  0
LINE
  8
1
 62
7
 10
206.3843332155682
 20
69.4718371314235
 30
0
 11
207.1343332155682
 21
68.7218371314235
 31
0
  0
LINE
  8
1
 62
7
 10
222.6343332155682
 20
69.4718371314235
 30
0
 11
223.8843332155682
 21
68.2218371314235
 31
0
  0
LINE
  8
1
 62
7
 10
204.1343332155682
 20
69.4718371314235
 30
0
 11
202.8843332155682
 21
68.2218371314235
 31
0
  0
LINE
  8
1
 62
7
 10
220.3843332155682
 20
69.4718371314235
 30
0
 11
222.6343332155682
 21
69.4718371314235
 31
0
  0
LINE
  8
1
 62
7
 10
207.1343332155682
 20
61.2218371314235
 30
0
 11
219.6343332155682
 21
61.2218371314235
 31
0
  0
LINE
  8
1
 62
7
 10
204.1343332155682
 20
69.4718371314235
 30
0
 11
206.3843332155682
 21
69.4718371314235
 31
0
  0
LINE
  8
1
 62
7
 10
207.1343332155682
 20
61.2218371314235
 30
0
 11
207.1343332155682
 21
68.7218371314235
 31
0
  0
LINE
  8
1
 62
7
 10
219.6343332155682
 20
61.2218371314235
 30
0
 11
219.6343332155682
 21
68.7218371314235
 31
0
  0
LINE
  8
1
 62
7
 10
223.8843332155682
 20
55.34683713142351
 30
0
 11
223.8843332155682
 21
68.2218371314235
 31
0
  0
LINE
  8
1
 62
7
 10
202.8843332155682
 20
55.34683713142352
 30
0
 11
202.8843332155682
 21
68.2218371314235
 31
0
  0
LINE
  8
1
 62
7
 10
202.8843332155682
 20
-20.2781628685765
 30
0
 11
202.8843332155682
 21
-7.403162868576558
 31
0
  0
LINE
  8
1
 62
7
 10
223.8843332155682
 20
-20.2781628685765
 30
0
 11
223.8843332155682
 21
-7.403162868576501
 31
0
  0
LINE
  8
1
 62
7
 10
219.6343332155682
 20
-20.7781628685765
 30
0
 11
219.6343332155682
 21
-13.2781628685765
 31
0
  0
LINE
  8
1
 62
7
 10
207.1343332155682
 20
-20.7781628685765
 30
0
 11
207.1343332155682
 21
-13.2781628685765
 31
0
  0
LINE
  8
1
 62
7
 10
206.3843332155682
 20
-21.5281628685765
 30
0
 11
204.1343332155682
 21
-21.5281628685765
 31
0
  0
LINE
  8
1
 62
7
 10
219.6343332155682
 20
-13.2781628685765
 30
0
 11
207.1343332155682
 21
-13.2781628685765
 31
0
  0
LINE
  8
1
 62
7
 10
222.6343332155682
 20
-21.5281628685765
 30
0
 11
220.3843332155682
 21
-21.5281628685765
 31
0
  0
LINE
  8
1
 62
7
 10
202.8843332155682
 20
-20.2781628685765
 30
0
 11
204.1343332155682
 21
-21.5281628685765
 31
0
  0
LINE
  8
1
 62
7
 10
223.8843332155682
 20
-20.2781628685765
 30
0
 11
222.6343332155682
 21
-21.5281628685765
 31
0
  0
LINE
  8
1
 62
7
 10
207.1343332155682
 20
-20.7781628685765
 30
0
 11
206.3843332155682
 21
-21.5281628685765
 31
0
  0
LINE
  8
1
 62
7
 10
219.6343332155682
 20
-20.7781628685765
 30
0
 11
220.3843332155682
 21
-21.5281628685765
 31
0
  0
LINE
  8
1
 62
3
  6
DASHDOT
 10
225.3843332155682
 20
63.85309617813674
 30
0
 11
225.3843332155682
 21
53.85309617813674
 31
0
  0
LINE
  8
1
 62
7
 10
156.3843332155682
 20
41.4718371314235
 30
0
 11
236.3843332155682
 21
41.4718371314235
 31
0
  0
LINE
  8
1
 62
7
 10
156.3843332155682
 20
6.471837131423499
 30
0
 11
236.3843332155682
 21
6.471837131423499
 31
0
  0
LINE
  8
1
 62
7
 10
156.3843332155682
 20
3.471837131423499
 30
0
 11
236.3843332155682
 21
3.471837131423499
 31
0
  0
LINE
  8
1
 62
3
  6
DIVIDE
 10
203.4204176073925
 20
57.59683713142352
 30
0
 11
234.9204176073925
 21
57.59683713142352
 31
0
  0
LINE
  8
1
 62
3
  6
DIVIDE
 10
234.9204176073925
 20
57.59683713142352
 30
0
 11
234.9204176073925
 21
53.0968371314235
 31
0
  0
LINE
  8
1
 62
3
  6
DIVIDE
 10
234.9204176073925
 20
53.0968371314235
 30
0
 11
203.4204176073925
 21
53.0968371314235
 31
0
  0
LINE
  8
1
 62
3
  6
DIVIDE
 10
203.4204176073925
 20
53.0968371314235
 30
0
 11
203.4204176073925
 21
57.59683713142352
 31
0
  0
ARC
  8
1
 62
7
 10
161.9856264196576
 20
63.00714046575887
 30
0
 40
2.499999999999981
 50
331.8385417609677
 51
343.6342781615875
  0
ARC
  8
1
 62
7
 10
161.8843332155682
 20
48.97183713142351
 30
0
 40
5.00000000000006
 50
169.3263658814217
 51
273.6721186039729
  0
ARC
  8
1
 62
7
 10
214.2672339935837
 20
48.57597594289405
 30
0
 40
1.249999999999998
 50
273.672118603972
 51
21.51609308045905
  0
ARC
  8
1
 62
7
 10
206.1269813360815
 20
45.36680367079194
 30
0
 40
9.99999999999992
 50
21.51609308045704
 51
86.37872657606549
  0
ARC
  8
1
 62
7
 10
206.6638504635942
 20
53.84983211232883
 30
0
 40
1.500000000000045
 50
86.37872657606708
 51
216.4137012848524
  0
ARC
  8
1
 62
7
 10
203.8472189235557
 20
51.7721924015849
 30
0
 40
2.000000000000022
 50
267.0176935579688
 51
36.4137012848547
  0
ARC
  8
1
 62
7
 10
170.3610271393809
 20
58.52354115448475
 30
0
 40
6.999999999999989
 50
151.8385417609684
 51
267.0176935579661
  0
ARC
  8
1
 62
7
 10
161.9856264196576
 20
63.00714046575887
 30
0
 40
2.500000000000003
 50
16.36572183841261
 51
169.3263658814218
  0
ARC
  8
1
 62
7
 10
43.5385715618005
 20
23.9718371314235
 30
0
 40
17.49999999999994
 50
0
 51
90
  0
ARC
  8
1
 62
7
 10
43.5385715618005
 20
23.9718371314235
 30
0
 40
35.50000000000002
 50
216.4696016103426
 51
323.5303983896574
  0
ARC
  8
1
 62
7
 10
43.5385715618005
 20
23.9718371314235
 30
0
 40
35.50000000000003
 50
96.46960161034264
 51
203.5303983896574
  0
ARC
  8
1
 62
7
 10
43.5385715618005
 20
23.9718371314235
 30
0
 40
35.50000000000002
 50
0
 51
83.53039838965744
  0
ARC
  8
1
 62
7
 10
43.5385715618005
 20
23.9718371314235
 30
0
 40
35.50000000000001
 50
336.4696016103426
 51
0
  0
ARC
  8
1
 62
7
 10
43.5385715618005
 20
23.9718371314235
 30
0
 40
30.50000000000001
 50
217.53590934228
 51
322.46409065772
  0
ARC
  8
1
 62
7
 10
43.5385715618005
 20
23.9718371314235
 30
0
 40
30.50000000000002
 50
97.53590934228005
 51
202.4640906577199
  0
ARC
  8
1
 62
7
 10
43.5385715618005
 20
23.9718371314235
 30
0
 40
30.50000000000002
 50
0
 51
82.46409065772001
  0
ARC
  8
1
 62
7
 10
43.5385715618005
 20
23.9718371314235
 30
0
 40
30.50000000000001
 50
337.5359093422801
 51
0
  0
ARC
  8
1
 62
7
 10
191.3843332155682
 20
-33.7781628685765
 30
0
 40
31.25
 50
57.56495192511867
 51
90
  0
ARC
  8
1
 62
7
 10
43.5385715618005
 20
23.9718371314235
 30
0
 40
30.00000000000001
 50
157.662255660766
 51
202.337744339234
  0
ARC
  8
1
 62
7
 10
43.5385715618005
 20
23.9718371314235
 30
0
 40
22.49999999999998
 50
240
 51
319.7596516788138
  0
ARC
  8
1
 62
7
 10
43.5385715618005
 20
23.9718371314235
 30
0
 40
22.5
 50
340.2403483211862
 51
79.75965167881387
  0
ARC
  8
1
 62
7
 10
43.5385715618005
 20
23.9718371314235
 30
0
 40
30
 50
240
 51
262.337744339234
  0
ARC
  8
1
 62
7
 10
43.5385715618005
 20
23.9718371314235
 30
0
 40
29.99999999999998
 50
337.6622556607662
 51
22.33774433923391
  0
ARC
  8
1
 62
7
 10
43.5385715618005
 20
23.9718371314235
 30
0
 40
30
 50
277.6622556607662
 51
322.3377443392341
  0
ARC
  8
1
 62
7
 10
43.5385715618005
 20
23.9718371314235
 30
0
 40
30.00000000000004
 50
217.6622556607662
 51
240
  0
ARC
  8
1
 62
7
 10
43.5385715618005
 20
23.9718371314235
 30
0
 40
22.5
 50
220.2403483211861
 51
240
  0
ARC
  8
1
 62
7
 10
43.5385715618005
 20
23.9718371314235
 30
0
 40
22.50000000000004
 50
100.2403483211862
 51
199.7596516788138
  0
ARC
  8
1
 62
7
 10
43.5385715618005
 20
23.9718371314235
 30
0
 40
30
 50
97.66225566076606
 51
142.3377443392339
  0
ARC
  8
1
 62
7
 10
43.5385715618005
 20
23.9718371314235
 30
0
 40
30.00000000000002
 50
37.66225566076599
 51
82.33774433923394
  0
ARC
  8
1
 62
7
 10
43.5385715618005
 20
23.9718371314235
 30
0
 40
17.49999999999999
 50
284.9005966878299
 51
0
  0
ARC
  8
1
 62
7
 10
43.5385715618005
 20
23.9718371314235
 30
0
 40
17.49999999999994
 50
90
 51
255.0994033121701
  0
ARC
  8
1
 62
7
 10
204.3843332155682
 20
74.72183713142351
 30
0
 40
31.25
 50
270
 51
321.6838655263343
  0
CIRCLE
  8
1
 62
7
 10
43.5385715618005
 20
23.9718371314235
 30
0
 40
47.95000000000001
  0
CIRCLE
  8
1
 62
3
 10
43.5385715618005
 20
23.9718371314235
 30
0
 40
44.62499999999999
  0
CIRCLE
  8
1
 62
7
 10
161.8843332155682
 20
48.97183713142351
 30
0
 40
2
  0
CIRCLE
  8
1
 62
7
 10
43.5385715618005
 20
23.9718371314235
 30
0
 40
42.75000000000002
  0
CIRCLE
  8
1
 62
7
 10
43.5385715618005
 20
23.9718371314235
 30
0
 40
44.25000000000002
  0
TEXT
  8
1
 62
7
 10
16.9034874267087
 20
89.3670156291038
 30
0
 40
4
  1
DS 704MG
 41
0.891
  7
SIMPLEX
 72
1
 11
31.1594874267087
 21
89.3670156291038
 31
0
  0
ENDSEC
  0
EOF
