  0
SECTION
  2
HEADER
  9
$ACADVER
  1
AC1009
  9
$INSBASE
 10
0
 20
0
  9
$EXTMIN
 10
-171.3564195793986
 20
-853.9653524941409
  9
$EXTMAX
 10
363.7041150156159
 20
-612.172046715169
  9
$LIMMIN
 10
-171.3564195793986
 20
-853.9653524941409
  9
$LIMMAX
 10
363.7041150156159
 20
-612.172046715169
  9
$VIEWCTR
 10
10
 20
10
  9
$VIEWSIZE
 40
10
  9
$SNAPMODE
 70
0
  9
$SNAPUNIT
 10
1
 20
1
  9
$SNAPBASE
 10
0
 20
0
  9
$SNAPANG
 50
0
  9
$SNAPSTYLE
 70
0
  9
$SNAPISOPAIR
 70
0
  9
$GRIDMODE
 70
0
  9
$GRIDUNIT
 10
0
 20
0
  9
$ORTHOMODE
 70
0
  9
$REGENMODE
 70
1
  9
$FILLMODE
 70
1
  9
$QTEXTMODE
 70
0
  9
$DRAGMODE
 70
2
  9
$LTSCALE
 40
1
  9
$OSMODE
 70
0
  9
$ATTMODE
 70
1
  9
$TEXTSIZE
 40
3.5
  9
$TRACEWID
 40
0.5
  9
$TEXTSTYLE
  7
STANDARD
  9
$CLAYER
  8
0
  9
$CELTYPE
  6
BYLAYER
  9
$CECOLOR
 62
256
  9
$DIMSCALE
 40
1
  9
$DIMASZ
 40
0.18
  9
$DIMEXO
 40
0.0625
  9
$DIMDLI
 40
0.38
  9
$DIMRND
 40
0
  9
$DIMDLE
 40
0
  9
$DIMEXE
 40
0.18
  9
$DIMTP
 40
0
  9
$DIMTM
 40
0
  9
$DIMTXT
 40
0.18
  9
$DIMCEN
 40
0.09
  9
$DIMTSZ
 40
0
  9
$DIMTOL
 70
0
  9
$DIMLIM
 70
0
  9
$DIMTIH
 70
1
  9
$DIMTOH
 70
1
  9
$DIMSE1
 70
0
  9
$DIMSE2
 70
0
  9
$DIMTAD
 70
0
  9
$DIMZIN
 70
0
  9
$DIMBLK
  1

  9
$DIMASO
 70
1
  9
$DIMSHO
 70
1
  9
$DIMPOST
  1

  9
$DIMAPOST
  1

  9
$DIMALT
 70
0
  9
$DIMALTD
 70
2
  9
$DIMALTF
 40
25.4
  9
$DIMLFAC
 40
1
  9
$DIMTOFL
 70
0
  9
$DIMTVP
 40
0
  9
$DIMTIX
 70
0
  9
$DIMSOXD
 70
0
  9
$DIMSAH
 70
0
  9
$DIMBLK1
  1

  9
$DIMBLK2
  1

  9
$DIMSTYLE
  2
*UNNAMED
  9
$DIMCLRD
 70
0
  9
$DIMCLRE
 70
0
  9
$DIMCLRT
 70
0
  9
$DIMTFAC
 40
1
  9
$DIMGAP
 40
0.09
  9
$LUNITS
 70
2
  9
$LUPREC
 70
4
  9
$AXISMODE
 70
0
  9
$AXISUNIT
 10
0
 20
0
  9
$SKETCHINC
 40
0.1
  9
$FILLETRAD
 40
2
  9
$AUNITS
 70
0
  9
$AUPREC
 70
0
  9
$MENU
  1
ACAD
  9
$ELEVATION
 40
0
  9
$THICKNESS
 40
0
  9
$VIEWDIR
 10
0
 20
0
 30
1
  9
$LIMCHECK
 70
0
  9
$BLIPMODE
 70
1
  9
$CHAMFERA
 40
0
  9
$CHAMFERB
 40
0
  9
$FASTZOOM
 70
1
  9
$SKPOLY
 70
0
  9
$ANGBASE
 50
0
  9
$ANGDIR
 70
0
  9
$PDMODE
 70
0
  9
$PDSIZE
 40
0
  9
$PLINEWID
 40
0
  9
$COORDS
 70
2
  0
ENDSEC
  0
SECTION
  2
TABLES
  0
TABLE
  2
DIMSTYLE
 70
0
  0
ENDTAB
  0
TABLE
  2
LTYPE
 70
9
  0
LTYPE
  2
CONTINUOUS
 70
64
  3
Solid line
 72
65
 73
0
 40
0
  0
LTYPE
  2
BORDER
 70
64
  3
__ __ . __ __ .
 72
65
 73
6
 40
24.64094567213882
 49
7.040270192039664
 49
-3.520135096019832
 49
7.040270192039664
 49
-3.520135096019832
 49
0
 49
-3.520135096019832
  0
LTYPE
  2
CENTER
 70
64
  3
____ _ ____ _
 72
65
 73
4
 40
28.16108076815866
 49
17.60067548009916
 49
-3.520135096019832
 49
3.520135096019832
 49
-3.520135096019832
  0
LTYPE
  2
DASHDOT
 70
64
  3
__ . __ . __ .
 72
65
 73
4
 40
14.08054038407933
 49
7.040270192039664
 49
-3.520135096019832
 49
0
 49
-3.520135096019832
  0
LTYPE
  2
DASHED
 70
64
  3
__ __ __ __ __
 72
65
 73
2
 40
10.5604052880595
 49
7.040270192039664
 49
-3.520135096019832
  0
LTYPE
  2
DIVIDE
 70
64
  3
__ . . __ . . 
 72
65
 73
6
 40
17.60067548009916
 49
7.040270192039664
 49
-3.520135096019832
 49
0
 49
-3.520135096019832
 49
0
 49
-3.520135096019832
  0
LTYPE
  2
DOT
 70
64
  3
..............
 72
65
 73
4
 40
7.040270192039664
 49
0
 49
-3.520135096019832
 49
0
 49
-3.520135096019832
  0
LTYPE
  2
HIDDEN
 70
64
  3
_ _ _ _ _ _ _
 72
65
 73
2
 40
5.280202644029748
 49
3.520135096019832
 49
-1.760067548009916
  0
LTYPE
  2
PHANTOM
 70
64
  3
_____ _ _ _____ _ _ 
 72
65
 73
6
 40
35.20135096019832
 49
17.60067548009916
 49
-3.520135096019832
 49
3.520135096019832
 49
-3.520135096019832
 49
3.520135096019832
 49
-3.520135096019832
  0
ENDTAB
  0
TABLE
  2
LAYER
 70
3
  0
LAYER
  2
1
 70
0
 62
7
  6
CONTINUOUS
  0
LAYER
  2
0
 70
0
 62
7
  6
CONTINUOUS
  0
ENDTAB
  0
TABLE
  2
STYLE
 70
4
  0
STYLE
  2
STANDARD
 70
0
 40
0
 41
1
 50
0
 71
0
 42
3.5
  3
txt
  4

  0
STYLE
  2
SIMPLEX
 70
0
 40
0
 41
1
 50
0
 71
0
 42
3.5
  3
simplex
  4

  0
STYLE
  2
COMPLEX
 70
0
 40
0
 41
1
 50
0
 71
0
 42
3.5
  3
complex
  4

  0
STYLE
  2
ITALIC
 70
0
 40
0
 41
1
 50
0
 71
0
 42
3.5
  3
italic
  4

  0
ENDTAB
  0
TABLE
  2
VIEW
 70
0
  0
ENDTAB
  0
ENDSEC
  0
SECTION
  2
BLOCKS
  0
BLOCK
  8
0
  2
TOP
 70
0
 10
-94.07714312360099
 20
-117.943674262847
 30
0
  0
LINE
  8
1
 62
3
  6
DIVIDE
 10
353.2351037281368
 20
-846.5653524941409
 30
0
 11
353.2351037281368
 21
-820.8153524941409
 31
0
  0
LINE
  8
1
 62
3
  6
DIVIDE
 10
353.2351037281368
 20
-846.5653524941409
 30
0
 11
350.7351037281368
 21
-849.0653524941409
 31
0
  0
LINE
  8
1
 62
3
  6
DIVIDE
 10
353.2351037281368
 20
-846.5653524941409
 30
0
 11
350.7351037281368
 21
-849.0653524941409
 31
0
  0
LINE
  8
1
 62
3
  6
DIVIDE
 10
350.7351037281368
 20
-849.0653524941409
 30
0
 11
346.2351037281368
 21
-849.0653524941409
 31
0
  0
LINE
  8
1
 62
3
  6
DIVIDE
 10
344.7351037281368
 20
-847.5653524941409
 30
0
 11
346.2351037281368
 21
-849.0653524941409
 31
0
  0
LINE
  8
1
 62
3
  6
DIVIDE
 10
344.7351037281368
 20
-847.5653524941409
 30
0
 11
344.7351037281368
 21
-832.5653524941409
 31
0
  0
LINE
  8
1
 62
3
  6
DIVIDE
 10
344.7351037281368
 20
-847.5653524941409
 30
0
 11
344.7351037281368
 21
-832.5653524941409
 31
0
  0
LINE
  8
1
 62
3
  6
DIVIDE
 10
344.7351037281368
 20
-832.5653524941409
 30
0
 11
319.7351037281368
 21
-832.5653524941409
 31
0
  0
LINE
  8
1
 62
3
  6
DIVIDE
 10
319.7351037281368
 20
-847.5653524941409
 30
0
 11
319.7351037281368
 21
-832.5653524941409
 31
0
  0
LINE
  8
1
 62
3
  6
DIVIDE
 10
319.7351037281368
 20
-847.5653524941409
 30
0
 11
318.2351037281368
 21
-849.0653524941409
 31
0
  0
LINE
  8
1
 62
3
  6
DIVIDE
 10
318.2351037281368
 20
-849.0653524941409
 30
0
 11
313.7351037281368
 21
-849.0653524941409
 31
0
  0
LINE
  8
1
 62
3
  6
DIVIDE
 10
311.2351037281368
 20
-846.5653524941409
 30
0
 11
313.7351037281368
 21
-849.0653524941409
 31
0
  0
LINE
  8
1
 62
3
  6
DIVIDE
 10
311.2351037281368
 20
-846.5653524941409
 30
0
 11
313.7351037281368
 21
-849.0653524941409
 31
0
  0
LINE
  8
1
 62
3
  6
DIVIDE
 10
311.2351037281368
 20
-846.5653524941409
 30
0
 11
311.2351037281368
 21
-820.8153524941409
 31
0
  0
LINE
  8
1
 62
3
  6
DASHDOT
 10
332.2351037281368
 20
-817.8278705875674
 30
0
 11
332.2351037281368
 21
-837.8278705875674
 31
0
  0
LINE
  8
1
 62
3
  6
DASHDOT
 10
308.2351037281368
 20
-817.8278705875674
 30
0
 11
308.2351037281368
 21
-837.8278705875674
 31
0
  0
LINE
  8
1
 62
3
  6
DIVIDE
 10
353.2351037281368
 20
-695.3153524941409
 30
0
 11
353.2351037281368
 21
-669.5653524941409
 31
0
  0
LINE
  8
1
 62
3
  6
DIVIDE
 10
350.7351037281368
 20
-667.0653524941409
 30
0
 11
353.2351037281368
 21
-669.5653524941409
 31
0
  0
LINE
  8
1
 62
3
  6
DIVIDE
 10
346.2351037281368
 20
-667.0653524941409
 30
0
 11
350.7351037281368
 21
-667.0653524941409
 31
0
  0
LINE
  8
1
 62
3
  6
DIVIDE
 10
346.2351037281368
 20
-667.0653524941409
 30
0
 11
344.7351037281368
 21
-668.5653524941409
 31
0
  0
LINE
  8
1
 62
3
  6
DIVIDE
 10
344.7351037281368
 20
-683.5653524941409
 30
0
 11
344.7351037281368
 21
-668.5653524941409
 31
0
  0
LINE
  8
1
 62
3
  6
DIVIDE
 10
319.7351037281368
 20
-683.5653524941409
 30
0
 11
344.7351037281368
 21
-683.5653524941409
 31
0
  0
LINE
  8
1
 62
3
  6
DIVIDE
 10
319.7351037281368
 20
-683.5653524941409
 30
0
 11
319.7351037281368
 21
-668.5653524941409
 31
0
  0
LINE
  8
1
 62
3
  6
DIVIDE
 10
318.2351037281368
 20
-667.0653524941409
 30
0
 11
319.7351037281368
 21
-668.5653524941409
 31
0
  0
LINE
  8
1
 62
3
  6
DIVIDE
 10
313.7351037281368
 20
-667.0653524941409
 30
0
 11
318.2351037281368
 21
-667.0653524941409
 31
0
  0
LINE
  8
1
 62
3
  6
DIVIDE
 10
313.7351037281368
 20
-667.0653524941409
 30
0
 11
311.2351037281368
 21
-669.5653524941409
 31
0
  0
LINE
  8
1
 62
3
  6
DIVIDE
 10
311.2351037281368
 20
-695.3153524941409
 30
0
 11
311.2351037281368
 21
-669.5653524941409
 31
0
  0
LINE
  8
1
 62
3
  6
DIVIDE
 10
288.3072725117855
 20
-699.8153524941409
 30
0
 11
288.3072725117855
 21
-690.8153524941409
 31
0
  0
LINE
  8
1
 62
3
  6
DIVIDE
 10
351.3072725117855
 20
-699.8153524941409
 30
0
 11
288.3072725117855
 21
-699.8153524941409
 31
0
  0
LINE
  8
1
 62
3
  6
DIVIDE
 10
351.3072725117855
 20
-690.8153524941409
 30
0
 11
351.3072725117855
 21
-699.8153524941409
 31
0
  0
LINE
  8
1
 62
3
  6
DIVIDE
 10
288.3072725117855
 20
-690.8153524941409
 30
0
 11
351.3072725117855
 21
-690.8153524941409
 31
0
  0
LINE
  8
1
 62
3
 10
255.735103728137
 20
-812.0653524941409
 30
0
 11
222.2351037281368
 21
-853.9653524941409
 31
0
  0
LINE
  8
1
 62
3
 10
222.2351037281368
 20
-812.0653524941409
 30
0
 11
255.7351037281372
 21
-853.9653524941409
 31
0
  0
LINE
  8
1
 62
3
 10
255.7351037281369
 20
-662.1653524941409
 30
0
 11
222.2351037281368
 21
-698.0653524941409
 31
0
  0
LINE
  8
1
 62
3
 10
222.2351037281368
 20
-662.1653524941409
 30
0
 11
255.735103728137
 21
-698.0653524941409
 31
0
  0
LINE
  8
1
 62
7
 10
222.2351037281368
 20
-662.1653524941409
 30
0
 11
255.7351037281369
 21
-662.1653524941409
 31
0
  0
LINE
  8
1
 62
7
 10
255.7351037281372
 20
-853.9653524941409
 30
0
 11
222.2351037281368
 21
-853.9653524941409
 31
0
  0
LINE
  8
1
 62
7
 10
194.2351037281368
 20
-803.0653524941409
 30
0
 11
354.2351037281368
 21
-803.0653524941409
 31
0
  0
LINE
  8
1
 62
3
  6
DASHDOT
 10
-65.45641957939851
 20
-758.0653524941409
 30
0
 11
-85.45641957939851
 21
-758.0653524941409
 31
0
  0
LINE
  8
1
 62
7
 10
255.735103728137
 20
-831.5653524941409
 30
0
 11
259.735103728137
 21
-831.5653524941409
 31
0
  0
LINE
  8
1
 62
7
 10
259.735103728137
 20
-840.5653524941409
 30
0
 11
255.735103728137
 21
-840.5653524941409
 31
0
  0
LINE
  8
1
 62
7
 10
280.4351037281369
 20
-695.5653524941409
 30
0
 11
286.2351037281368
 21
-695.5653524941409
 31
0
  0
LINE
  8
1
 62
3
 10
264.6784794011109
 20
-695.5653524941409
 30
0
 11
259.735103728137
 21
-695.5653524941409
 31
0
  0
LINE
  8
1
 62
3
 10
280.4351037281369
 20
-696.5653524941409
 30
0
 11
286.235103728137
 21
-696.5653524941409
 31
0
  0
LINE
  8
1
 62
7
 10
283.3351037281369
 20
-671.165352494141
 30
0
 11
284.735103728137
 21
-672.5653524941409
 31
0
  0
LINE
  8
1
 62
7
 10
259.735103728137
 20
-671.0653524941409
 30
0
 11
259.735103728137
 21
-669.5653524941409
 31
0
  0
LINE
  8
1
 62
7
 10
259.735103728137
 20
-675.8153524941409
 30
0
 11
259.735103728137
 21
-671.0653524941409
 31
0
  0
LINE
  8
1
 62
7
 10
259.735103728137
 20
-684.3153524941409
 30
0
 11
259.735103728137
 21
-699.0653524941409
 31
0
  0
LINE
  8
1
 62
7
 10
259.9351037281369
 20
-686.0653524941409
 30
0
 11
259.9351037281369
 21
-674.0653524941409
 31
0
  0
LINE
  8
1
 62
7
 10
255.9351037281369
 20
-684.3153524941409
 30
0
 11
255.9351037281369
 21
-675.8153524941409
 31
0
  0
LINE
  8
1
 62
7
 10
284.735103728137
 20
-672.5653524941409
 30
0
 11
284.735103728137
 21
-695.5653524941409
 31
0
  0
LINE
  8
1
 62
7
 10
272.235103728137
 20
-828.6786011481928
 30
0
 11
277.235103728137
 21
-831.5653524941409
 31
0
  0
LINE
  8
1
 62
7
 10
267.235103728137
 20
-831.5653524941409
 30
0
 11
272.235103728137
 21
-828.6786011481928
 31
0
  0
LINE
  8
1
 62
7
 10
277.235103728137
 20
-831.5653524941409
 30
0
 11
277.235103728137
 21
-846.5653524941409
 31
0
  0
LINE
  8
1
 62
7
 10
267.235103728137
 20
-831.5653524941409
 30
0
 11
277.235103728137
 21
-831.5653524941409
 31
0
  0
LINE
  8
1
 62
7
 10
267.235103728137
 20
-846.5653524941409
 30
0
 11
267.235103728137
 21
-831.5653524941409
 31
0
  0
LINE
  8
1
 62
7
 10
280.4351037281369
 20
-819.5653524941409
 30
0
 11
259.735103728137
 21
-819.5653524941409
 31
0
  0
LINE
  8
1
 62
7
 10
280.4351037281369
 20
-820.5653524941409
 30
0
 11
264.6784794011109
 21
-820.5653524941409
 31
0
  0
LINE
  8
1
 62
7
 10
280.4351037281369
 20
-821.5653524941409
 30
0
 11
280.4351037281369
 21
-819.5653524941409
 31
0
  0
LINE
  8
1
 62
7
 10
284.735103728137
 20
-820.5653524941409
 30
0
 11
284.735103728137
 21
-843.5653524941409
 31
0
  0
LINE
  8
1
 62
7
 10
283.3351037281369
 20
-682.0653524941409
 30
0
 11
283.3351037281369
 21
-690.0653524941409
 31
0
  0
LINE
  8
1
 62
7
 10
283.3351037281369
 20
-660.0653524941409
 30
0
 11
283.3351037281369
 21
-678.0653524941409
 31
0
  0
LINE
  8
1
 62
7
 10
280.735103728137
 20
-660.0653524941409
 30
0
 11
283.3351037281369
 21
-660.0653524941409
 31
0
  0
LINE
  8
1
 62
7
 10
280.735103728137
 20
-690.0653524941409
 30
0
 11
283.3351037281369
 21
-690.0653524941409
 31
0
  0
LINE
  8
1
 62
7
 10
277.9351037281368
 20
-676.0653524941409
 30
0
 11
277.9351037281368
 21
-674.0653524941409
 31
0
  0
LINE
  8
1
 62
7
 10
266.9351037281368
 20
-674.0653524941409
 30
0
 11
266.9351037281368
 21
-686.0653524941409
 31
0
  0
LINE
  8
1
 62
7
 10
280.735103728137
 20
-696.5653524941409
 30
0
 11
280.735103728137
 21
-660.0653524941409
 31
0
  0
LINE
  8
1
 62
7
 10
280.735103728137
 20
-682.0653524941409
 30
0
 11
284.735103728137
 21
-682.0653524941409
 31
0
  0
LINE
  8
1
 62
7
 10
280.735103728137
 20
-678.0653524941409
 30
0
 11
284.735103728137
 21
-678.0653524941409
 31
0
  0
LINE
  8
1
 62
7
 10
255.735103728137
 20
-684.3153524941409
 30
0
 11
259.9351037281369
 21
-684.3153524941409
 31
0
  0
LINE
  8
1
 62
7
 10
255.735103728137
 20
-675.8153524941409
 30
0
 11
259.9351037281369
 21
-675.8153524941409
 31
0
  0
LINE
  8
1
 62
7
 10
280.4351037281369
 20
-821.5653524941409
 30
0
 11
284.735103728137
 21
-821.5653524941409
 31
0
  0
LINE
  8
1
 62
3
 10
259.735103728137
 20
-820.5653524941409
 30
0
 11
280.4351037281369
 21
-820.5653524941409
 31
0
  0
LINE
  8
1
 62
7
 10
280.735103728137
 20
-694.5653524941409
 30
0
 11
284.735103728137
 21
-694.5653524941409
 31
0
  0
LINE
  8
1
 62
7
 10
259.735103728137
 20
-686.0653524941409
 30
0
 11
277.9351037281368
 21
-686.0653524941409
 31
0
  0
LINE
  8
1
 62
7
 10
266.9351037281368
 20
-684.0653524941409
 30
0
 11
280.735103728137
 21
-684.0653524941409
 31
0
  0
LINE
  8
1
 62
7
 10
266.9351037281368
 20
-676.0653524941409
 30
0
 11
280.735103728137
 21
-676.0653524941409
 31
0
  0
LINE
  8
1
 62
7
 10
259.735103728137
 20
-674.0653524941409
 30
0
 11
277.9351037281368
 21
-674.0653524941409
 31
0
  0
LINE
  8
1
 62
7
 10
277.9351037281368
 20
-686.0653524941409
 30
0
 11
277.9351037281368
 21
-684.0653524941409
 31
0
  0
LINE
  8
1
 62
7
 10
281.735103728137
 20
-846.5653524941409
 30
0
 11
284.735103728137
 21
-843.5653524941409
 31
0
  0
LINE
  8
1
 62
7
 10
281.735103728137
 20
-846.5653524941409
 30
0
 11
255.7351037281372
 21
-846.5653524941409
 31
0
  0
LINE
  8
1
 62
7
 10
255.7351037281369
 20
-669.5653524941409
 30
0
 11
280.735103728137
 21
-669.5653524941409
 31
0
  0
LINE
  8
1
 62
7
 10
259.735103728137
 20
-812.0653524941409
 30
0
 11
220.2351037281369
 21
-812.0653524941409
 31
0
  0
LINE
  8
1
 62
7
 10
259.735103728137
 20
-812.0653524941409
 30
0
 11
259.735103728137
 21
-846.5653524941409
 31
0
  0
LINE
  8
1
 62
7
 10
255.7351037281372
 20
-853.9653524941409
 30
0
 11
255.735103728137
 21
-812.0653524941409
 31
0
  0
LINE
  8
1
 62
7
 10
222.2351037281368
 20
-853.9653524941409
 30
0
 11
222.2351037281368
 21
-812.0653524941409
 31
0
  0
LINE
  8
1
 62
7
 10
259.735103728137
 20
-698.0653524941409
 30
0
 11
263.2351037281368
 21
-698.0653524941409
 31
0
  0
LINE
  8
1
 62
7
 10
255.735103728137
 20
-699.0653524941409
 30
0
 11
259.735103728137
 21
-699.0653524941409
 31
0
  0
LINE
  8
1
 62
7
 10
255.7351037281369
 20
-662.1653524941409
 30
0
 11
255.735103728137
 21
-699.0653524941409
 31
0
  0
LINE
  8
1
 62
7
 10
222.2351037281368
 20
-698.0653524941409
 30
0
 11
222.2351037281368
 21
-662.1653524941409
 31
0
  0
LINE
  8
1
 62
7
 10
210.2351037281368
 20
-696.2500524991
 30
0
 11
210.2351037281368
 21
-672.5653524941409
 31
0
  0
LINE
  8
1
 62
7
 10
211.5523286423641
 20
-698.0653524941409
 30
0
 11
255.735103728137
 21
-698.0653524941409
 31
0
  0
LINE
  8
1
 62
7
 10
213.2351037281368
 20
-669.5653524941409
 30
0
 11
210.2351037281368
 21
-672.5653524941409
 31
0
  0
LINE
  8
1
 62
7
 10
213.2351037281368
 20
-846.5653524941409
 30
0
 11
210.2351037281368
 21
-843.5653524941409
 31
0
  0
LINE
  8
1
 62
7
 10
220.2351037281368
 20
-818.0653524941409
 30
0
 11
195.2351037281368
 21
-818.0653524941409
 31
0
  0
LINE
  8
1
 62
7
 10
220.2351037281369
 20
-812.0653524941409
 30
0
 11
220.2351037281368
 21
-819.0653524941409
 31
0
  0
LINE
  8
1
 62
7
 10
210.2351037281368
 20
-829.0653524941409
 30
0
 11
220.2351037281368
 21
-819.0653524941409
 31
0
  0
LINE
  8
1
 62
7
 10
222.2351037281368
 20
-846.5653524941409
 30
0
 11
213.2351037281368
 21
-846.5653524941409
 31
0
  0
LINE
  8
1
 62
7
 10
210.2351037281368
 20
-843.5653524941409
 30
0
 11
210.2351037281368
 21
-818.0653524941411
 31
0
  0
LINE
  8
1
 62
7
 10
220.2351037281368
 20
-697.0653524941409
 30
0
 11
220.2351037281368
 21
-698.0653524941409
 31
0
  0
LINE
  8
1
 62
7
 10
220.2351037281368
 20
-697.0653524941409
 30
0
 11
210.2351037281368
 21
-687.0653524941409
 31
0
  0
LINE
  8
1
 62
7
 10
213.2351037281368
 20
-669.5653524941409
 30
0
 11
222.2351037281368
 21
-669.5653524941409
 31
0
  0
LINE
  8
1
 62
7
 10
263.2351037281368
 20
-698.0653524941409
 30
0
 11
264.6784794011109
 21
-695.5653524941409
 31
0
  0
LINE
  8
1
 62
7
 10
264.6784794011109
 20
-820.5653524941409
 30
0
 11
263.2351037281368
 21
-818.0653524941409
 31
0
  0
LINE
  8
1
 62
7
 10
194.2351037281368
 20
-713.0653524941409
 30
0
 11
195.2351037281368
 21
-712.0653524941409
 31
0
  0
LINE
  8
1
 62
7
 10
194.2351037281368
 20
-803.0653524941409
 30
0
 11
195.2351037281368
 21
-804.0653524941409
 31
0
  0
LINE
  8
1
 62
7
 10
290.2351037281368
 20
-719.0653524941409
 30
0
 11
194.2351037281368
 21
-719.0653524941409
 31
0
  0
LINE
  8
1
 62
7
 10
354.2351037281368
 20
-713.0653524941409
 30
0
 11
353.2351037281368
 21
-712.0653524941409
 31
0
  0
LINE
  8
1
 62
7
 10
354.2351037281368
 20
-803.0653524941409
 30
0
 11
353.2351037281368
 21
-804.0653524941409
 31
0
  0
LINE
  8
1
 62
7
 10
354.2351037281368
 20
-713.0653524941409
 30
0
 11
354.2351037281368
 21
-803.0653524941409
 31
0
  0
LINE
  8
1
 62
7
 10
353.2351037281368
 20
-695.3153524941409
 30
0
 11
353.2351037281368
 21
-712.0653524941409
 31
0
  0
LINE
  8
1
 62
7
 10
353.2351037281368
 20
-820.8153524941409
 30
0
 11
353.2351037281368
 21
-804.0653524941409
 31
0
  0
LINE
  8
1
 62
7
 10
-15.75803507314662
 20
-763.6647173995299
 30
0
 11
-15.71062498181702
 21
-763.5826007125555
 31
0
  0
LINE
  8
1
 62
3
 10
286.235103728137
 20
-696.5653524941409
 30
0
 11
286.2351037281368
 21
-695.5653524941409
 31
0
  0
LINE
  8
1
 62
7
 10
259.735103728137
 20
-696.5653524941409
 30
0
 11
280.4351037281369
 21
-696.5653524941409
 31
0
  0
LINE
  8
1
 62
3
 10
286.2351037281368
 20
-820.5653524941409
 30
0
 11
286.235103728137
 21
-819.5653524941409
 31
0
  0
LINE
  8
1
 62
3
 10
286.235103728137
 20
-819.5653524941409
 30
0
 11
280.4351037281369
 21
-819.5653524941409
 31
0
  0
LINE
  8
1
 62
7
 10
-66.45641957939863
 20
-799.0653524941409
 30
0
 11
-84.4564195793984
 21
-799.0653524941409
 31
0
  0
LINE
  8
1
 62
7
 10
-84.45641957939851
 20
-791.8884215447165
 30
0
 11
-84.4564195793984
 21
-799.0653524941409
 31
0
  0
LINE
  8
1
 62
7
 10
-66.45641957939851
 20
-791.8884215447165
 30
0
 11
-66.45641957939863
 21
-799.0653524941409
 31
0
  0
LINE
  8
1
 62
7
 10
-83.45641957939851
 20
-719.0653524941409
 30
0
 11
-67.45641957939851
 21
-719.0653524941409
 31
0
  0
LINE
  8
1
 62
7
 10
-83.45641957939851
 20
-676.0653524941409
 30
0
 11
-83.45641957939851
 21
-719.0653524941409
 31
0
  0
LINE
  8
1
 62
7
 10
-105.2314103269916
 20
-784.4935557244163
 30
0
 11
-113.2314103269916
 21
-770.6371492638654
 31
0
  0
LINE
  8
1
 62
7
 10
-67.4564195793984
 20
-817.529627483415
 30
0
 11
-67.4564195793984
 21
-811.0653524941411
 31
0
  0
LINE
  8
1
 62
7
 10
-27.95884682106352
 20
-721.4050117692284
 30
0
 11
-33.55707317882322
 21
-724.6371492638652
 31
0
  0
LINE
  8
1
 62
7
 10
-83.4564195793984
 20
-811.0653524941411
 30
0
 11
-67.4564195793984
 21
-811.0653524941411
 31
0
  0
LINE
  8
1
 62
7
 10
-83.45641957939851
 20
-817.529627483415
 30
0
 11
-83.4564195793984
 21
-811.0653524941411
 31
0
  0
LINE
  8
1
 62
7
 10
-25.55707317882322
 20
-738.4935557244163
 30
0
 11
-33.55707317882322
 21
-724.6371492638652
 31
0
  0
LINE
  8
1
 62
7
 10
-19.9588468210636
 20
-735.2614182297795
 30
0
 11
-25.55707317882322
 21
-738.4935557244163
 31
0
  0
LINE
  8
1
 62
7
 10
-37.68142883180552
 20
-770.6371492638654
 30
0
 11
-45.68142883180541
 21
-784.4935557244164
 31
0
  0
LINE
  8
1
 62
7
 10
-0.4423364690745189
 20
-792.1371492638655
 30
0
 11
-37.68142883180552
 21
-770.6371492638654
 31
0
  0
LINE
  8
1
 62
7
 10
-8.442336469074519
 20
-805.9935557244164
 30
0
 11
-45.68142883180541
 21
-784.4935557244164
 31
0
  0
LINE
  8
1
 62
7
 10
-117.3557659799739
 20
-724.6371492638655
 30
0
 11
-125.3557659799739
 21
-738.4935557244164
 31
0
  0
LINE
  8
1
 62
7
 10
-122.9539923377334
 20
-721.4050117692284
 30
0
 11
-117.3557659799739
 21
-724.6371492638655
 31
0
  0
LINE
  8
1
 62
7
 10
-130.9539923377334
 20
-735.2614182297793
 30
0
 11
-125.3557659799739
 21
-738.4935557244164
 31
0
  0
LINE
  8
1
 62
7
 10
195.2351037281368
 20
-698.0653524941409
 30
0
 11
195.2351037281368
 21
-712.0653524941409
 31
0
  0
LINE
  8
1
 62
7
 10
195.2351037281368
 20
-698.0653524941409
 30
0
 11
196.9437928065069
 21
-698.0653524941409
 31
0
  0
LINE
  8
1
 62
3
 10
264.6784794011109
 20
-695.5653524941409
 30
0
 11
280.4351037281369
 21
-695.5653524941409
 31
0
  0
LINE
  8
1
 62
7
 10
286.2351037281368
 20
-695.5653524941409
 30
0
 11
286.3794412954342
 21
-695.3153524941409
 31
0
  0
LINE
  8
1
 62
7
 10
286.3794412954342
 20
-695.3153524941409
 30
0
 11
353.2351037281368
 21
-695.3153524941409
 31
0
  0
LINE
  8
1
 62
7
 10
264.2351037281368
 20
-811.0653524941409
 30
0
 11
195.2351037281368
 21
-811.0653524941409
 31
0
  0
LINE
  8
1
 62
7
 10
195.2351037281368
 20
-804.0653524941409
 30
0
 11
195.2351037281368
 21
-818.0653524941409
 31
0
  0
LINE
  8
1
 62
7
 10
194.2351037281368
 20
-803.0653524941409
 30
0
 11
194.2351037281368
 21
-713.0653524941409
 31
0
  0
LINE
  8
1
 62
7
 10
263.2351037281368
 20
-818.0653524941409
 30
0
 11
259.735103728137
 21
-818.0653524941409
 31
0
  0
LINE
  8
1
 62
7
 10
286.2351037281368
 20
-820.5653524941409
 30
0
 11
280.4351037281369
 21
-820.5653524941409
 31
0
  0
LINE
  8
1
 62
7
 10
286.3794412954342
 20
-820.8153524941409
 30
0
 11
286.2351037281368
 21
-820.5653524941409
 31
0
  0
LINE
  8
1
 62
7
 10
353.2351037281368
 20
-820.8153524941409
 30
0
 11
286.3794412954342
 21
-820.8153524941409
 31
0
  0
LINE
  8
1
 62
3
  6
DASHDOT
 10
363.7041150156159
 20
-758.0653524941409
 30
0
 11
354.2351037281368
 21
-758.0653524941409
 31
0
  0
LINE
  8
1
 62
2
 10
286.2351037281368
 20
-820.6906370038021
 30
0
 11
286.2351037281368
 21
-820.5653524941409
 31
0
  0
LINE
  8
1
 62
7
 10
-67.45641957939851
 20
-719.0653524941409
 30
0
 11
-67.45641957939863
 21
-676.0653524941409
 31
0
  0
LINE
  8
1
 62
7
 10
-83.45641957939851
 20
-676.0653524941409
 30
0
 11
-67.45641957939863
 21
-676.0653524941409
 31
0
  0
LINE
  8
1
 62
7
 10
-105.2314103269916
 20
-784.4935557244163
 30
0
 11
-142.4705026897224
 21
-805.9935557244164
 31
0
  0
LINE
  8
1
 62
7
 10
-142.4705026897224
 20
-805.9935557244164
 30
0
 11
-150.4705026897224
 21
-792.1371492638655
 31
0
  0
LINE
  8
1
 62
7
 10
-113.2314103269916
 20
-770.6371492638654
 30
0
 11
-150.4705026897224
 21
-792.1371492638655
 31
0
  0
LINE
  8
1
 62
7
 10
-0.4423364690745189
 20
-792.1371492638655
 30
0
 11
-8.442336469074519
 21
-805.9935557244164
 31
0
  0
LINE
  8
1
 62
3
  6
DASHDOT
 10
-75.45641957939851
 20
-748.0653524941409
 30
0
 11
-75.45641957939851
 21
-768.0653524941409
 31
0
  0
LINE
  8
1
 62
3
  6
DASHDOT
 10
194.2351037281368
 20
-758.0653524941409
 30
0
 11
185.1545792565318
 21
-758.0653524941409
 31
0
  0
LINE
  8
1
 62
7
 10
200.5241994814325
 20
-679.068673698486
 30
0
 11
195.4081224183707
 21
-706.2132082401726
 31
0
  0
LINE
  8
1
 62
7
 10
205.8755706559076
 20
-718.0448215238254
 30
0
 11
310.1610220161105
 21
-711.351942128621
 31
0
  0
LINE
  8
1
 62
7
 10
221.4601056500264
 20
-702.9429835346955
 30
0
 11
288.952764879616
 21
-706.4592245500116
 31
0
  0
LINE
  8
1
 62
3
  6
DASHDOT
 10
308.2351037281368
 20
-678.3028344007145
 30
0
 11
308.2351037281368
 21
-698.3028344007145
 31
0
  0
LINE
  8
1
 62
7
 10
322.2351037281368
 20
-667.0653524941409
 30
0
 11
320.7351037281368
 21
-668.5653524941409
 31
0
  0
LINE
  8
1
 62
7
 10
294.2351037281368
 20
-667.0653524941409
 30
0
 11
295.7351037281368
 21
-668.5653524941409
 31
0
  0
LINE
  8
1
 62
7
 10
326.7351037281368
 20
-667.0653524941409
 30
0
 11
329.2351037281368
 21
-669.5653524941409
 31
0
  0
LINE
  8
1
 62
7
 10
289.7351037281368
 20
-667.0653524941409
 30
0
 11
287.2351037281368
 21
-669.5653524941409
 31
0
  0
LINE
  8
1
 62
7
 10
322.2351037281368
 20
-667.0653524941409
 30
0
 11
326.7351037281368
 21
-667.0653524941409
 31
0
  0
LINE
  8
1
 62
7
 10
295.7351037281368
 20
-683.5653524941409
 30
0
 11
320.7351037281368
 21
-683.5653524941409
 31
0
  0
LINE
  8
1
 62
7
 10
289.7351037281368
 20
-667.0653524941409
 30
0
 11
294.2351037281368
 21
-667.0653524941409
 31
0
  0
LINE
  8
1
 62
7
 10
295.7351037281368
 20
-683.5653524941409
 30
0
 11
295.7351037281368
 21
-668.5653524941409
 31
0
  0
LINE
  8
1
 62
7
 10
320.7351037281368
 20
-683.5653524941409
 30
0
 11
320.7351037281368
 21
-668.5653524941409
 31
0
  0
LINE
  8
1
 62
7
 10
329.2351037281368
 20
-695.3153524941409
 30
0
 11
329.2351037281368
 21
-669.5653524941409
 31
0
  0
LINE
  8
1
 62
7
 10
287.2351037281368
 20
-695.3153524941409
 30
0
 11
287.2351037281368
 21
-669.5653524941409
 31
0
  0
LINE
  8
1
 62
3
  6
DASHDOT
 10
332.2351037281368
 20
-678.3028344007145
 30
0
 11
332.2351037281368
 21
-698.3028344007145
 31
0
  0
LINE
  8
1
 62
7
 10
287.2351037281368
 20
-846.5653524941409
 30
0
 11
287.2351037281368
 21
-820.8153524941411
 31
0
  0
LINE
  8
1
 62
7
 10
329.2351037281368
 20
-846.5653524941409
 30
0
 11
329.2351037281368
 21
-820.8153524941409
 31
0
  0
LINE
  8
1
 62
7
 10
320.7351037281368
 20
-847.5653524941409
 30
0
 11
320.7351037281368
 21
-832.5653524941409
 31
0
  0
LINE
  8
1
 62
7
 10
295.7351037281368
 20
-847.5653524941409
 30
0
 11
295.7351037281368
 21
-832.5653524941409
 31
0
  0
LINE
  8
1
 62
7
 10
294.2351037281368
 20
-849.0653524941409
 30
0
 11
289.7351037281368
 21
-849.0653524941409
 31
0
  0
LINE
  8
1
 62
7
 10
320.7351037281368
 20
-832.5653524941409
 30
0
 11
295.7351037281368
 21
-832.5653524941409
 31
0
  0
LINE
  8
1
 62
7
 10
326.7351037281368
 20
-849.0653524941409
 30
0
 11
322.2351037281368
 21
-849.0653524941409
 31
0
  0
LINE
  8
1
 62
7
 10
287.2351037281368
 20
-846.5653524941409
 30
0
 11
289.7351037281368
 21
-849.0653524941409
 31
0
  0
LINE
  8
1
 62
7
 10
329.2351037281368
 20
-846.5653524941409
 30
0
 11
326.7351037281368
 21
-849.0653524941409
 31
0
  0
LINE
  8
1
 62
7
 10
295.7351037281368
 20
-847.5653524941409
 30
0
 11
294.2351037281368
 21
-849.0653524941409
 31
0
  0
LINE
  8
1
 62
7
 10
320.7351037281368
 20
-847.5653524941409
 30
0
 11
322.2351037281368
 21
-849.0653524941409
 31
0
  0
LINE
  8
1
 62
7
 10
-83.4564195793984
 20
-812.0653524941411
 30
0
 11
-67.4564195793984
 21
-812.0653524941411
 31
0
  0
LINE
  8
1
 62
7
 10
-44.81540342802097
 20
-784.9935557244164
 30
0
 11
-36.81540342802108
 21
-771.1371492638654
 31
0
  0
LINE
  8
1
 62
7
 10
-32.69104777503877
 20
-724.1371492638652
 30
0
 11
-24.69104777503878
 21
-737.9935557244163
 31
0
  0
LINE
  8
1
 62
7
 10
-83.45641957939851
 20
-718.0653524941409
 30
0
 11
-67.45641957939851
 21
-718.0653524941409
 31
0
  0
LINE
  8
1
 62
7
 10
-126.2217913837583
 20
-737.9935557244164
 30
0
 11
-118.2217913837583
 21
-724.1371492638655
 31
0
  0
LINE
  8
1
 62
7
 10
-114.097435730776
 20
-771.1371492638654
 30
0
 11
-106.097435730776
 21
-784.9935557244163
 31
0
  0
LINE
  8
1
 62
7
 10
194.2351037281368
 20
-723.0653524941409
 30
0
 11
354.2351037281368
 21
-723.0653524941409
 31
0
  0
LINE
  8
1
 62
7
 10
194.2351037281368
 20
-793.0653524941409
 30
0
 11
354.2351037281368
 21
-793.0653524941409
 31
0
  0
LINE
  8
1
 62
7
 10
194.2351037281368
 20
-799.0653524941409
 30
0
 11
354.2351037281368
 21
-799.0653524941409
 31
0
  0
ARC
  8
1
 62
7
 10
290.2351037281368
 20
-656.5653524941409
 30
0
 40
62.5
 50
270
 51
321.6838655263343
  0
ARC
  8
1
 62
7
 10
-75.45641957939851
 20
-758.0653524941409
 30
0
 40
35
 50
90
 51
255.0994033121701
  0
ARC
  8
1
 62
7
 10
-75.45641957939851
 20
-758.0653524941409
 30
0
 40
35.00000000000003
 50
284.9005966878299
 51
0
  0
ARC
  8
1
 62
7
 10
-75.45641957939851
 20
-758.0653524941409
 30
0
 40
60.00000000000006
 50
37.66225566076604
 51
82.33774433923395
  0
ARC
  8
1
 62
7
 10
-75.45641957939851
 20
-758.0653524941409
 30
0
 40
60.00000000000001
 50
97.66225566076605
 51
142.3377443392339
  0
ARC
  8
1
 62
7
 10
-75.45641957939851
 20
-758.0653524941409
 30
0
 40
45.00000000000006
 50
100.2403483211861
 51
199.7596516788138
  0
ARC
  8
1
 62
7
 10
-75.45641957939851
 20
-758.0653524941409
 30
0
 40
44.99999999999994
 50
220.2403483211862
 51
240
  0
ARC
  8
1
 62
7
 10
-75.45641957939851
 20
-758.0653524941409
 30
0
 40
59.99999999999998
 50
217.6622556607661
 51
240.0000000000001
  0
ARC
  8
1
 62
7
 10
-75.45641957939851
 20
-758.0653524941409
 30
0
 40
60.00000000000002
 50
277.6622556607662
 51
322.337744339234
  0
ARC
  8
1
 62
7
 10
-75.45641957939851
 20
-758.0653524941409
 30
0
 40
59.99999999999997
 50
337.6622556607661
 51
22.33774433923393
  0
ARC
  8
1
 62
7
 10
-75.45641957939851
 20
-758.0653524941409
 30
0
 40
59.99999999999994
 50
240.0000000000001
 51
262.337744339234
  0
ARC
  8
1
 62
7
 10
-75.45641957939851
 20
-758.0653524941409
 30
0
 40
44.99999999999999
 50
340.2403483211862
 51
79.75965167881377
  0
ARC
  8
1
 62
7
 10
-75.45641957939851
 20
-758.0653524941409
 30
0
 40
44.99999999999995
 50
240
 51
319.7596516788139
  0
ARC
  8
1
 62
7
 10
-75.45641957939851
 20
-758.0653524941409
 30
0
 40
60.00000000000001
 50
157.662255660766
 51
202.3377443392341
  0
ARC
  8
1
 62
7
 10
264.2351037281368
 20
-873.5653524941409
 30
0
 40
62.5
 50
57.56495192511867
 51
90
  0
ARC
  8
1
 62
7
 10
-75.45641957939851
 20
-758.0653524941409
 30
0
 40
61
 50
337.5359093422801
 51
0
  0
ARC
  8
1
 62
7
 10
-75.45641957939851
 20
-758.0653524941409
 30
0
 40
61.0000000000001
 50
0
 51
82.46409065771995
  0
ARC
  8
1
 62
7
 10
-75.45641957939851
 20
-758.0653524941409
 30
0
 40
61
 50
97.53590934228005
 51
202.4640906577199
  0
ARC
  8
1
 62
7
 10
-75.45641957939851
 20
-758.0653524941409
 30
0
 40
61.00000000000002
 50
217.5359093422801
 51
322.46409065772
  0
ARC
  8
1
 62
7
 10
-75.45641957939851
 20
-758.0653524941409
 30
0
 40
71.00000000000009
 50
336.4696016103426
 51
0
  0
ARC
  8
1
 62
7
 10
-75.45641957939851
 20
-758.0653524941409
 30
0
 40
71.0000000000001
 50
0
 51
83.53039838965736
  0
ARC
  8
1
 62
7
 10
-75.45641957939851
 20
-758.0653524941409
 30
0
 40
71.00000000000004
 50
96.46960161034264
 51
203.5303983896574
  0
ARC
  8
1
 62
7
 10
-75.45641957939851
 20
-758.0653524941409
 30
0
 40
71.00000000000003
 50
216.4696016103427
 51
323.5303983896575
  0
ARC
  8
1
 62
7
 10
-75.45641957939851
 20
-758.0653524941409
 30
0
 40
34.99999999999989
 50
0
 51
90
  0
ARC
  8
1
 62
7
 10
205.4376901363156
 20
-679.9947458254702
 30
0
 40
4.999999999999921
 50
331.8385417609686
 51
343.6342781615878
  0
ARC
  8
1
 62
7
 10
205.2351037281368
 20
-708.0653524941409
 30
0
 40
10.00000000000001
 50
169.3263658814214
 51
273.6721186039732
  0
ARC
  8
1
 62
7
 10
310.0009052841679
 20
-708.8570748711999
 30
0
 40
2.499999999999977
 50
273.6721186039707
 51
21.51609308045762
  0
ARC
  8
1
 62
7
 10
293.7203999691635
 20
-715.275419415404
 30
0
 40
20.00000000000003
 50
21.51609308045665
 51
86.3787265760653
  0
ARC
  8
1
 62
7
 10
294.7941382241889
 20
-698.3093625323303
 30
0
 40
3.00000000000008
 50
86.37872657606599
 51
216.413701284853
  0
ARC
  8
1
 62
7
 10
289.1608751441119
 20
-702.4646419538182
 30
0
 40
4.000000000000052
 50
267.0176935579664
 51
36.41370128485488
  0
ARC
  8
1
 62
7
 10
222.1884915757623
 20
-688.9619444480185
 30
0
 40
14.0000000000001
 50
151.8385417609682
 51
267.0176935579657
  0
ARC
  8
1
 62
7
 10
205.4376901363156
 20
-679.9947458254702
 30
0
 40
4.999999999999967
 50
16.36572183841223
 51
169.3263658814215
  0
CIRCLE
  8
1
 62
7
 10
-75.45641957939851
 20
-758.0653524941409
 30
0
 40
88.50000000000006
  0
CIRCLE
  8
1
 62
7
 10
-75.45641957939851
 20
-758.0653524941409
 30
0
 40
85.5000000000001
  0
CIRCLE
  8
1
 62
7
 10
205.2351037281368
 20
-708.0653524941409
 30
0
 40
4
  0
CIRCLE
  8
1
 62
3
 10
-75.45641957939851
 20
-758.0653524941409
 30
0
 40
89.25000000000003
  0
CIRCLE
  8
1
 62
7
 10
-75.45641957939851
 20
-758.0653524941409
 30
0
 40
95.90000000000003
  0
TEXT
  8
1
 62
7
 10
-87.6131557374503
 20
-622.172046715169
 30
0
 40
10
  1
DS 705TG
 41
0.9
  7
SIMPLEX
 72
1
 11
-51.6131557374503
 21
-622.172046715169
 31
0
  0
ENDBLK
  8
0
  0
ENDSEC
  0
SECTION
  2
ENTITIES
  0
INSERT
  8
0
  2
TOP
 10
0
 20
0
 30
0
 41
0.5
 42
0.5
 43
0.5
  0
ENDSEC
  0
EOF
