  0
SECTION
  2
HEADER
  9
$ACADVER
  1
AC1009
  9
$INSBASE
 10
0
 20
0
  9
$EXTMIN
 10
-665.178452880781
 20
156.4
  9
$EXTMAX
 10
-141.9251079653106
 20
428.8142598001815
  9
$LIMMIN
 10
-665.178452880781
 20
156.4
  9
$LIMMAX
 10
-141.9251079653106
 20
428.8142598001815
  9
$VIEWCTR
 10
10
 20
10
  9
$VIEWSIZE
 40
10
  9
$SNAPMODE
 70
0
  9
$SNAPUNIT
 10
1
 20
1
  9
$SNAPBASE
 10
0
 20
0
  9
$SNAPANG
 50
0
  9
$SNAPSTYLE
 70
0
  9
$SNAPISOPAIR
 70
0
  9
$GRIDMODE
 70
0
  9
$GRIDUNIT
 10
0
 20
0
  9
$ORTHOMODE
 70
0
  9
$REGENMODE
 70
1
  9
$FILLMODE
 70
1
  9
$QTEXTMODE
 70
0
  9
$DRAGMODE
 70
2
  9
$LTSCALE
 40
1
  9
$OSMODE
 70
0
  9
$ATTMODE
 70
1
  9
$TEXTSIZE
 40
3.5
  9
$TRACEWID
 40
0.5
  9
$TEXTSTYLE
  7
STANDARD
  9
$CLAYER
  8
0
  9
$CELTYPE
  6
BYLAYER
  9
$CECOLOR
 62
256
  9
$DIMSCALE
 40
1
  9
$DIMASZ
 40
0.18
  9
$DIMEXO
 40
0.0625
  9
$DIMDLI
 40
0.38
  9
$DIMRND
 40
0
  9
$DIMDLE
 40
0
  9
$DIMEXE
 40
0.18
  9
$DIMTP
 40
0
  9
$DIMTM
 40
0
  9
$DIMTXT
 40
0.18
  9
$DIMCEN
 40
0.09
  9
$DIMTSZ
 40
0
  9
$DIMTOL
 70
0
  9
$DIMLIM
 70
0
  9
$DIMTIH
 70
1
  9
$DIMTOH
 70
1
  9
$DIMSE1
 70
0
  9
$DIMSE2
 70
0
  9
$DIMTAD
 70
0
  9
$DIMZIN
 70
0
  9
$DIMBLK
  1

  9
$DIMASO
 70
1
  9
$DIMSHO
 70
1
  9
$DIMPOST
  1

  9
$DIMAPOST
  1

  9
$DIMALT
 70
0
  9
$DIMALTD
 70
2
  9
$DIMALTF
 40
25.4
  9
$DIMLFAC
 40
1
  9
$DIMTOFL
 70
0
  9
$DIMTVP
 40
0
  9
$DIMTIX
 70
0
  9
$DIMSOXD
 70
0
  9
$DIMSAH
 70
0
  9
$DIMBLK1
  1

  9
$DIMBLK2
  1

  9
$DIMSTYLE
  2
*UNNAMED
  9
$DIMCLRD
 70
0
  9
$DIMCLRE
 70
0
  9
$DIMCLRT
 70
0
  9
$DIMTFAC
 40
1
  9
$DIMGAP
 40
0.09
  9
$LUNITS
 70
2
  9
$LUPREC
 70
4
  9
$AXISMODE
 70
0
  9
$AXISUNIT
 10
0
 20
0
  9
$SKETCHINC
 40
0.1
  9
$FILLETRAD
 40
2
  9
$AUNITS
 70
0
  9
$AUPREC
 70
0
  9
$MENU
  1
ACAD
  9
$ELEVATION
 40
0
  9
$THICKNESS
 40
0
  9
$VIEWDIR
 10
0
 20
0
 30
1
  9
$LIMCHECK
 70
0
  9
$BLIPMODE
 70
1
  9
$CHAMFERA
 40
0
  9
$CHAMFERB
 40
0
  9
$FASTZOOM
 70
1
  9
$SKPOLY
 70
0
  9
$ANGBASE
 50
0
  9
$ANGDIR
 70
0
  9
$PDMODE
 70
0
  9
$PDSIZE
 40
0
  9
$PLINEWID
 40
0
  9
$COORDS
 70
2
  0
ENDSEC
  0
SECTION
  2
TABLES
  0
TABLE
  2
DIMSTYLE
 70
0
  0
ENDTAB
  0
TABLE
  2
LTYPE
 70
9
  0
LTYPE
  2
CONTINUOUS
 70
64
  3
Solid line
 72
65
 73
0
 40
0
  0
LTYPE
  2
BORDER
 70
64
  3
__ __ . __ __ .
 72
65
 73
6
 40
24.09719351584404
 49
6.884912433098296
 49
-3.442456216549148
 49
6.884912433098296
 49
-3.442456216549148
 49
0
 49
-3.442456216549148
  0
LTYPE
  2
CENTER
 70
64
  3
____ _ ____ _
 72
65
 73
4
 40
27.53964973239318
 49
17.21228108274574
 49
-3.442456216549148
 49
3.442456216549148
 49
-3.442456216549148
  0
LTYPE
  2
DASHDOT
 70
64
  3
__ . __ . __ .
 72
65
 73
4
 40
13.76982486619659
 49
6.884912433098296
 49
-3.442456216549148
 49
0
 49
-3.442456216549148
  0
LTYPE
  2
DASHED
 70
64
  3
__ __ __ __ __
 72
65
 73
2
 40
10.32736864964744
 49
6.884912433098296
 49
-3.442456216549148
  0
LTYPE
  2
DIVIDE
 70
64
  3
__ . . __ . . 
 72
65
 73
6
 40
17.21228108274574
 49
6.884912433098296
 49
-3.442456216549148
 49
0
 49
-3.442456216549148
 49
0
 49
-3.442456216549148
  0
LTYPE
  2
DOT
 70
64
  3
..............
 72
65
 73
4
 40
6.884912433098296
 49
0
 49
-3.442456216549148
 49
0
 49
-3.442456216549148
  0
LTYPE
  2
HIDDEN
 70
64
  3
_ _ _ _ _ _ _
 72
65
 73
2
 40
5.163684324823722
 49
3.442456216549148
 49
-1.721228108274574
  0
LTYPE
  2
PHANTOM
 70
64
  3
_____ _ _ _____ _ _ 
 72
65
 73
6
 40
34.42456216549148
 49
17.21228108274574
 49
-3.442456216549148
 49
3.442456216549148
 49
-3.442456216549148
 49
3.442456216549148
 49
-3.442456216549148
  0
ENDTAB
  0
TABLE
  2
LAYER
 70
3
  0
LAYER
  2
1
 70
0
 62
7
  6
CONTINUOUS
  0
LAYER
  2
0
 70
0
 62
7
  6
CONTINUOUS
  0
ENDTAB
  0
TABLE
  2
STYLE
 70
4
  0
STYLE
  2
STANDARD
 70
0
 40
0
 41
1
 50
0
 71
0
 42
3.5
  3
txt
  4

  0
STYLE
  2
SIMPLEX
 70
0
 40
0
 41
1
 50
0
 71
0
 42
3.5
  3
simplex
  4

  0
STYLE
  2
COMPLEX
 70
0
 40
0
 41
1
 50
0
 71
0
 42
3.5
  3
complex
  4

  0
STYLE
  2
ITALIC
 70
0
 40
0
 41
1
 50
0
 71
0
 42
3.5
  3
italic
  4

  0
ENDTAB
  0
TABLE
  2
VIEW
 70
0
  0
ENDTAB
  0
ENDSEC
  0
SECTION
  2
BLOCKS
  0
BLOCK
  8
0
  2
TOP
 70
0
 10
-515.7363000166138
 20
-288.891692954785
 30
0
  0
LINE
  8
1
 62
7
 10
-229.6650983879713
 20
182.8867513459481
 30
0
 11
-224.6650983879713
 21
180
 31
0
  0
LINE
  8
1
 62
7
 10
-234.6650983879713
 20
180
 30
0
 11
-229.6650983879713
 21
182.8867513459481
 31
0
  0
LINE
  8
1
 62
7
 10
-224.6650983879713
 20
180
 30
0
 11
-224.6650983879713
 21
165
 31
0
  0
LINE
  8
1
 62
7
 10
-234.6650983879713
 20
180
 30
0
 11
-224.6650983879713
 21
180
 31
0
  0
LINE
  8
1
 62
7
 10
-234.6650983879713
 20
165
 30
0
 11
-234.6650983879713
 21
180
 31
0
  0
LINE
  8
1
 62
3
  6
DIVIDE
 10
-148.6650983879713
 20
196.75
 30
0
 11
-148.6650983879713
 21
171
 31
0
  0
LINE
  8
1
 62
3
  6
DIVIDE
 10
-151.1650983879713
 20
168.5
 30
0
 11
-148.6650983879713
 21
171
 31
0
  0
LINE
  8
1
 62
3
  6
DIVIDE
 10
-151.1650983879713
 20
168.5
 30
0
 11
-155.6650983879714
 21
168.5
 31
0
  0
LINE
  8
1
 62
3
  6
DIVIDE
 10
-155.6650983879714
 20
168.5
 30
0
 11
-157.1650983879714
 21
170
 31
0
  0
LINE
  8
1
 62
3
  6
DIVIDE
 10
-157.1650983879713
 20
184.5
 30
0
 11
-157.1650983879714
 21
170
 31
0
  0
LINE
  8
1
 62
3
  6
DIVIDE
 10
-157.1650983879713
 20
184.5
 30
0
 11
-182.1650983879713
 21
184.5
 31
0
  0
LINE
  8
1
 62
3
  6
DIVIDE
 10
-182.1650983879713
 20
184.5
 30
0
 11
-182.1650983879713
 21
170
 31
0
  0
LINE
  8
1
 62
3
  6
DIVIDE
 10
-183.6650983879713
 20
168.5
 30
0
 11
-182.1650983879713
 21
170
 31
0
  0
LINE
  8
1
 62
3
  6
DIVIDE
 10
-183.6650983879713
 20
168.5
 30
0
 11
-188.1650983879713
 21
168.5
 31
0
  0
LINE
  8
1
 62
3
  6
DIVIDE
 10
-190.6650983879713
 20
171
 30
0
 11
-188.1650983879713
 21
168.5
 31
0
  0
LINE
  8
1
 62
3
  6
DIVIDE
 10
-190.6650983879713
 20
196.75
 30
0
 11
-190.6650983879713
 21
171
 31
0
  0
LINE
  8
1
 62
3
  6
DASHDOT
 10
-169.6650983879713
 20
199.430826108867
 30
0
 11
-169.6650983879713
 21
167.430826108867
 31
0
  0
LINE
  8
1
 62
3
  6
DASHDOT
 10
-193.6650983879713
 20
198.876379388719
 30
0
 11
-193.6650983879713
 21
166.876379388719
 31
0
  0
LINE
  8
1
 62
3
  6
DIVIDE
 10
-148.6650983879713
 20
361
 30
0
 11
-148.6650983879713
 21
335.25
 31
0
  0
LINE
  8
1
 62
3
  6
DIVIDE
 10
-148.6650983879713
 20
361
 30
0
 11
-151.1650983879713
 21
363.5
 31
0
  0
LINE
  8
1
 62
3
  6
DIVIDE
 10
-155.6650983879714
 20
363.5
 30
0
 11
-151.1650983879713
 21
363.5
 31
0
  0
LINE
  8
1
 62
3
  6
DIVIDE
 10
-157.1650983879714
 20
362
 30
0
 11
-155.6650983879714
 21
363.5
 31
0
  0
LINE
  8
1
 62
3
  6
DIVIDE
 10
-157.1650983879714
 20
362
 30
0
 11
-157.1650983879713
 21
347.5
 31
0
  0
LINE
  8
1
 62
3
  6
DIVIDE
 10
-182.1650983879713
 20
347.5
 30
0
 11
-157.1650983879713
 21
347.5
 31
0
  0
LINE
  8
1
 62
3
  6
DIVIDE
 10
-182.1650983879713
 20
362
 30
0
 11
-182.1650983879713
 21
347.5
 31
0
  0
LINE
  8
1
 62
3
  6
DIVIDE
 10
-182.1650983879713
 20
362
 30
0
 11
-183.6650983879713
 21
363.5
 31
0
  0
LINE
  8
1
 62
3
  6
DIVIDE
 10
-188.1650983879713
 20
363.5
 30
0
 11
-183.6650983879713
 21
363.5
 31
0
  0
LINE
  8
1
 62
3
  6
DIVIDE
 10
-188.1650983879713
 20
363.5
 30
0
 11
-190.6650983879713
 21
361
 31
0
  0
LINE
  8
1
 62
3
  6
DIVIDE
 10
-190.6650983879713
 20
361
 30
0
 11
-190.6650983879713
 21
335.25
 31
0
  0
LINE
  8
1
 62
3
 10
-246.1650983879713
 20
204.600523533605
 30
0
 11
-279.6650983879713
 21
156.4
 31
0
  0
LINE
  8
1
 62
3
 10
-279.6650983879713
 20
204.500523533605
 30
0
 11
-246.1650983879713
 21
156.4
 31
0
  0
LINE
  8
1
 62
3
 10
-246.4650983879714
 20
375.6
 30
0
 11
-279.6650983879713
 21
333.6
 31
0
  0
LINE
  8
1
 62
3
 10
-279.6650983879713
 20
375.6
 30
0
 11
-246.1650983879713
 21
333.5
 31
0
  0
LINE
  8
1
 62
3
  6
DASHDOT
 10
-169.6650983879713
 20
364.569173891133
 30
0
 11
-169.6650983879713
 21
332.569173891133
 31
0
  0
LINE
  8
1
 62
3
  6
DASHDOT
 10
-555.578452880781
 20
276
 30
0
 11
-555.578452880781
 21
256
 31
0
  0
LINE
  8
1
 62
7
 10
-279.6650983879713
 20
375.6
 30
0
 11
-279.6650983879713
 21
333.5
 31
0
  0
LINE
  8
1
 62
7
 10
-242.1650983879713
 20
333.5
 30
0
 11
-242.1650983879713
 21
365.5
 31
0
  0
LINE
  8
1
 62
7
 10
-246.1650983879713
 20
332
 30
0
 11
-246.1650983879713
 21
367
 31
0
  0
LINE
  8
1
 62
7
 10
-221.1650983879713
 20
335
 30
0
 11
-221.1650983879713
 21
354
 31
0
  0
LINE
  8
1
 62
7
 10
-217.1650983879713
 20
197
 30
0
 11
-217.1650983879713
 21
168
 31
0
  0
LINE
  8
1
 62
7
 10
-279.6650983879713
 20
204.600523533605
 30
0
 11
-279.6650983879713
 21
156.4
 31
0
  0
LINE
  8
1
 62
7
 10
-282.6650983879713
 20
204.600523533605
 30
0
 11
-282.6650983879713
 21
197.5
 31
0
  0
LINE
  8
1
 62
7
 10
-291.6650983879712
 20
335.4842651538399
 30
0
 11
-291.6650983879712
 21
364
 31
0
  0
LINE
  8
1
 62
7
 10
-179.6650983879714
 20
168.5
 30
0
 11
-181.1650983879714
 21
170
 31
0
  0
LINE
  8
1
 62
7
 10
-207.6650983879713
 20
168.5
 30
0
 11
-206.1650983879713
 21
170
 31
0
  0
LINE
  8
1
 62
7
 10
-175.1650983879713
 20
168.5
 30
0
 11
-172.6650983879713
 21
171
 31
0
  0
LINE
  8
1
 62
7
 10
-214.6650983879713
 20
171
 30
0
 11
-212.1650983879713
 21
168.5
 31
0
  0
LINE
  8
1
 62
7
 10
-181.1650983879713
 20
184.5
 30
0
 11
-181.1650983879714
 21
170
 31
0
  0
LINE
  8
1
 62
7
 10
-206.1650983879713
 20
184.5
 30
0
 11
-206.1650983879713
 21
170
 31
0
  0
LINE
  8
1
 62
7
 10
-181.1650983879713
 20
184.5
 30
0
 11
-206.1650983879713
 21
184.5
 31
0
  0
LINE
  8
1
 62
7
 10
-175.1650983879713
 20
168.5
 30
0
 11
-179.6650983879714
 21
168.5
 31
0
  0
LINE
  8
1
 62
7
 10
-207.6650983879713
 20
168.5
 30
0
 11
-212.1650983879713
 21
168.5
 31
0
  0
LINE
  8
1
 62
7
 10
-181.1650983879714
 20
362
 30
0
 11
-179.6650983879714
 21
363.5
 31
0
  0
LINE
  8
1
 62
7
 10
-206.1650983879713
 20
362
 30
0
 11
-207.6650983879713
 21
363.5
 31
0
  0
LINE
  8
1
 62
7
 10
-172.6650983879713
 20
361
 30
0
 11
-175.1650983879713
 21
363.5
 31
0
  0
LINE
  8
1
 62
7
 10
-212.1650983879713
 20
363.5
 30
0
 11
-214.6650983879713
 21
361
 31
0
  0
LINE
  8
1
 62
7
 10
-172.6650983879713
 20
361
 30
0
 11
-172.6650983879713
 21
335.25
 31
0
  0
LINE
  8
1
 62
7
 10
-181.1650983879714
 20
362
 30
0
 11
-181.1650983879713
 21
347.5
 31
0
  0
LINE
  8
1
 62
7
 10
-206.1650983879713
 20
362
 30
0
 11
-206.1650983879713
 21
347.5
 31
0
  0
LINE
  8
1
 62
7
 10
-206.1650983879713
 20
347.5
 30
0
 11
-181.1650983879713
 21
347.5
 31
0
  0
LINE
  8
1
 62
7
 10
-179.6650983879714
 20
363.5
 30
0
 11
-175.1650983879713
 21
363.5
 31
0
  0
LINE
  8
1
 62
7
 10
-212.1650983879713
 20
363.5
 30
0
 11
-207.6650983879713
 21
363.5
 31
0
  0
LINE
  8
1
 62
7
 10
-214.6650983879713
 20
361
 30
0
 11
-214.6650983879713
 21
335.25
 31
0
  0
LINE
  8
1
 62
7
 10
-291.6650983879712
 20
188.5
 30
0
 11
-282.6650983879713
 21
197.5
 31
0
  0
LINE
  8
1
 62
7
 10
-291.6650983879712
 20
343.5
 30
0
 11
-282.6650983879713
 21
334.5
 31
0
  0
LINE
  8
1
 62
7
 10
-282.6650983879713
 20
334.5
 30
0
 11
-282.6650983879713
 21
333.5
 31
0
  0
LINE
  8
1
 62
7
 10
-282.6650983879713
 20
333.6
 30
0
 11
-279.6650983879713
 21
333.6
 31
0
  0
LINE
  8
1
 62
7
 10
-279.6650983879713
 20
366.5
 30
0
 11
-280.1650983879713
 21
367
 31
0
  0
LINE
  8
1
 62
7
 10
-291.6650983879712
 20
168
 30
0
 11
-288.6650983879712
 21
165
 31
0
  0
LINE
  8
1
 62
7
 10
-291.6650983879712
 20
364
 30
0
 11
-288.6650983879712
 21
367
 31
0
  0
LINE
  8
1
 62
7
 10
-291.6650983879712
 20
168
 30
0
 11
-291.6650983879712
 21
198.5
 31
0
  0
LINE
  8
1
 62
7
 10
-279.6650983879713
 20
165.0000000000001
 30
0
 11
-288.6650983879712
 21
165
 31
0
  0
LINE
  8
1
 62
7
 10
-279.6650983879713
 20
366.5
 30
0
 11
-279.6650983879713
 21
333.5
 31
0
  0
LINE
  8
1
 62
7
 10
-288.6650983879712
 20
367
 30
0
 11
-280.1650983879713
 21
367
 31
0
  0
LINE
  8
1
 62
7
 10
-242.1650983879713
 20
170.75
 30
0
 11
-246.1650983879713
 21
170.75
 31
0
  0
LINE
  8
1
 62
7
 10
-246.1650983879713
 20
181.25
 30
0
 11
-242.1650983879713
 21
181.25
 31
0
  0
LINE
  8
1
 62
7
 10
-242.1650983879713
 20
350.75
 30
0
 11
-246.1650983879713
 21
350.75
 31
0
  0
LINE
  8
1
 62
7
 10
-246.1650983879713
 20
361.25
 30
0
 11
-242.1650983879713
 21
361.25
 31
0
  0
LINE
  8
1
 62
7
 10
-246.1650983879713
 20
156.4
 30
0
 11
-246.1650983879713
 21
204.600523533605
 31
0
  0
LINE
  8
1
 62
7
 10
-242.1650983879713
 20
165
 30
0
 11
-246.1650983879713
 21
165
 31
0
  0
LINE
  8
1
 62
7
 10
-242.1650983879713
 20
367
 30
0
 11
-242.1650983879713
 21
332
 31
0
  0
LINE
  8
1
 62
7
 10
-218.5650983879713
 20
354
 30
0
 11
-218.5650983879713
 21
346
 31
0
  0
LINE
  8
1
 62
7
 10
-221.1650983879713
 20
346
 30
0
 11
-218.5650983879713
 21
346
 31
0
  0
LINE
  8
1
 62
7
 10
-218.5650983879713
 20
376
 30
0
 11
-218.5650983879713
 21
358
 31
0
  0
LINE
  8
1
 62
7
 10
-221.1650983879713
 20
376
 30
0
 11
-218.5650983879713
 21
376
 31
0
  0
LINE
  8
1
 62
7
 10
-221.1650983879713
 20
358
 30
0
 11
-221.1650983879713
 21
376
 31
0
  0
LINE
  8
1
 62
7
 10
-221.3650983879713
 20
360
 30
0
 11
-221.3650983879713
 21
352
 31
0
  0
LINE
  8
1
 62
7
 10
-224.1650983879713
 20
360
 30
0
 11
-224.1650983879713
 21
362
 31
0
  0
LINE
  8
1
 62
7
 10
-217.3650983879713
 20
358
 30
0
 11
-217.3650983879713
 21
354
 31
0
  0
LINE
  8
1
 62
7
 10
-221.3650983879713
 20
354
 30
0
 11
-217.3650983879713
 21
354
 31
0
  0
LINE
  8
1
 62
7
 10
-221.3650983879713
 20
358
 30
0
 11
-217.3650983879713
 21
358
 31
0
  0
LINE
  8
1
 62
7
 10
-235.1650983879713
 20
352
 30
0
 11
-221.1650983879713
 21
352
 31
0
  0
LINE
  8
1
 62
7
 10
-235.1650983879713
 20
360
 30
0
 11
-221.1650983879713
 21
360
 31
0
  0
LINE
  8
1
 62
7
 10
-235.1650983879713
 20
362
 30
0
 11
-235.1650983879713
 21
350
 31
0
  0
LINE
  8
1
 62
7
 10
-242.1650983879713
 20
362
 30
0
 11
-242.1650983879713
 21
350
 31
0
  0
LINE
  8
1
 62
7
 10
-246.1650983879713
 20
361
 30
0
 11
-246.1650983879713
 21
351
 31
0
  0
LINE
  8
1
 62
7
 10
-242.1650983879713
 20
197
 30
0
 11
-221.1650983879713
 21
197
 31
0
  0
LINE
  8
1
 62
7
 10
-242.1650983879713
 20
335
 30
0
 11
-221.1650983879713
 21
335
 31
0
  0
LINE
  8
1
 62
7
 10
-242.1650983879713
 20
350
 30
0
 11
-224.1650983879713
 21
350
 31
0
  0
LINE
  8
1
 62
7
 10
-242.1650983879713
 20
362
 30
0
 11
-224.1650983879713
 21
362
 31
0
  0
LINE
  8
1
 62
7
 10
-224.1650983879713
 20
350
 30
0
 11
-224.1650983879713
 21
352
 31
0
  0
LINE
  8
1
 62
7
 10
-221.1650983879713
 20
165
 30
0
 11
-221.1650983879713
 21
197
 31
0
  0
LINE
  8
1
 62
7
 10
-220.1650983879713
 20
165
 30
0
 11
-217.1650983879713
 21
168
 31
0
  0
LINE
  8
1
 62
7
 10
-218.5650983879713
 20
365.4
 30
0
 11
-217.1650983879713
 21
364
 31
0
  0
LINE
  8
1
 62
7
 10
-217.1650983879713
 20
364
 30
0
 11
-217.1650983879713
 21
335
 31
0
  0
LINE
  8
1
 62
7
 10
-220.1650983879713
 20
165
 30
0
 11
-242.1650983879713
 21
165
 31
0
  0
LINE
  8
1
 62
7
 10
-242.1650983879713
 20
165
 30
0
 11
-242.1650983879713
 21
204.600523533605
 31
0
  0
LINE
  8
1
 62
7
 10
-246.1650983879713
 20
367
 30
0
 11
-221.1650983879713
 21
367
 31
0
  0
LINE
  8
1
 62
7
 10
-211.6650983879713
 20
312
 30
0
 11
-306.6650983879713
 21
312
 31
0
  0
LINE
  8
1
 62
7
 10
-307.6650983879713
 20
311
 30
0
 11
-306.6650983879713
 21
312
 31
0
  0
LINE
  8
1
 62
7
 10
-306.6650983879713
 20
312
 30
0
 11
-306.6650983879713
 21
333.5
 31
0
  0
LINE
  8
1
 62
7
 10
-306.6650983879713
 20
333.5
 30
0
 11
-304.8629675525008
 21
333.5
 31
0
  0
LINE
  8
1
 62
7
 10
-239.6650983879713
 20
333.5
 30
0
 11
-238.7990729841869
 21
335
 31
0
  0
LINE
  8
1
 62
7
 10
-238.7990729841869
 20
335
 30
0
 11
-216.6650983879713
 21
335
 31
0
  0
LINE
  8
1
 62
7
 10
-216.6650983879713
 20
335
 30
0
 11
-216.5207608206739
 21
335.25
 31
0
  0
LINE
  8
1
 62
7
 10
-307.6650983879713
 20
301
 30
0
 11
-147.6650983879713
 21
301
 31
0
  0
LINE
  8
1
 62
7
 10
-148.6650983879713
 20
335.25
 30
0
 11
-148.6650983879713
 21
311
 31
0
  0
LINE
  8
1
 62
7
 10
-148.6650983879713
 20
311
 30
0
 11
-147.6650983879713
 21
311
 31
0
  0
LINE
  8
1
 62
7
 10
-237.6650983879713
 20
206
 30
0
 11
-306.6650983879713
 21
206
 31
0
  0
LINE
  8
1
 62
7
 10
-307.1650983879713
 20
225
 30
0
 11
-307.6650983879713
 21
224.5
 31
0
  0
LINE
  8
1
 62
7
 10
-306.6650983879713
 20
220
 30
0
 11
-307.6650983879713
 21
221
 31
0
  0
LINE
  8
1
 62
7
 10
-307.6650983879713
 20
221
 30
0
 11
-307.6650983879713
 21
311
 31
0
  0
LINE
  8
1
 62
7
 10
-306.6650983879713
 20
198.5
 30
0
 11
-306.6650983879713
 21
220
 31
0
  0
LINE
  8
1
 62
7
 10
-239.6650983879713
 20
198.5
 30
0
 11
-242.1650983879713
 21
198.5
 31
0
  0
LINE
  8
1
 62
7
 10
-238.7990729841869
 20
197
 30
0
 11
-239.6650983879713
 21
198.5
 31
0
  0
LINE
  8
1
 62
7
 10
-216.6650983879713
 20
197
 30
0
 11
-238.7990729841869
 21
197
 31
0
  0
LINE
  8
1
 62
7
 10
-216.5207608206739
 20
196.75
 30
0
 11
-216.6650983879713
 21
197
 31
0
  0
LINE
  8
1
 62
7
 10
-148.6650983879713
 20
196.75
 30
0
 11
-216.5207608206739
 21
196.75
 31
0
  0
LINE
  8
1
 62
7
 10
-147.6650983879713
 20
224.5
 30
0
 11
-148.1650983879713
 21
225
 31
0
  0
LINE
  8
1
 62
7
 10
-148.1650983879713
 20
231
 30
0
 11
-307.1650983879713
 21
231
 31
0
  0
LINE
  8
1
 62
7
 10
-148.6650983879713
 20
221
 30
0
 11
-148.6650983879713
 21
196.75
 31
0
  0
LINE
  8
1
 62
7
 10
-147.6650983879713
 20
221
 30
0
 11
-148.6650983879713
 21
221
 31
0
  0
LINE
  8
1
 62
7
 10
-147.6650983879713
 20
221
 30
0
 11
-147.6650983879713
 21
311
 31
0
  0
LINE
  8
1
 62
7
 10
-280.3841112779498
 20
328.4415392182323
 30
0
 11
-212.9347495100135
 21
324.1746202059542
 31
0
  0
LINE
  8
1
 62
7
 10
-296.1356985754915
 20
313.5140230403556
 30
0
 11
-191.7822393472088
 21
319.0462510807698
 31
0
  0
LINE
  8
1
 62
7
 10
-301.0531059252693
 20
352.5472957407848
 30
0
 11
-306.470865296538
 21
325.4613605825697
 31
0
  0
LINE
  8
1
 62
7
 10
-290.2959431000007
 20
333.5
 30
0
 11
-246.1650983879713
 21
333.5
 31
0
  0
LINE
  8
1
 62
7
 10
-214.6650983879713
 20
196.75
 30
0
 11
-214.6650983879713
 21
171
 31
0
  0
LINE
  8
1
 62
7
 10
-172.6650983879713
 20
196.75
 30
0
 11
-172.6650983879713
 21
171
 31
0
  0
LINE
  8
1
 62
7
 10
-307.1650983879713
 20
225
 30
0
 11
-148.1650983879713
 21
225
 31
0
  0
LINE
  8
1
 62
7
 10
-282.6650983879713
 20
204.600523533605
 30
0
 11
-242.1650983879713
 21
204.600523533605
 31
0
  0
LINE
  8
1
 62
7
 10
-246.1650983879713
 20
332
 30
0
 11
-242.1650983879713
 21
332
 31
0
  0
LINE
  8
1
 62
3
  6
DASHDOT
 10
-545.578452880781
 20
266
 30
0
 11
-565.578452880781
 21
266
 31
0
  0
LINE
  8
1
 62
7
 10
-564.578452880781
 20
232.1769309494245
 30
0
 11
-564.578452880781
 21
225
 31
0
  0
LINE
  8
1
 62
7
 10
-546.578452880781
 20
232.1769309494245
 30
0
 11
-546.578452880781
 21
225
 31
0
  0
LINE
  8
1
 62
7
 10
-564.578452880781
 20
225
 30
0
 11
-546.578452880781
 21
225
 31
0
  0
LINE
  8
1
 62
7
 10
-563.578452880781
 20
206
 30
0
 11
-563.578452880781
 21
198.9757506569451
 31
0
  0
LINE
  8
1
 62
7
 10
-547.578452880781
 20
206
 30
0
 11
-547.578452880781
 21
198.9757506569451
 31
0
  0
LINE
  8
1
 62
7
 10
-563.578452880781
 20
206
 30
0
 11
-547.578452880781
 21
206
 31
0
  0
LINE
  8
1
 62
7
 10
-563.578452880781
 20
312
 30
0
 11
-547.578452880781
 21
312
 31
0
  0
LINE
  8
1
 62
7
 10
-563.578452880781
 20
356.5666154494999
 30
0
 11
-563.578452880781
 21
312
 31
0
  0
LINE
  8
1
 62
7
 10
-547.578452880781
 20
356.5666154494999
 30
0
 11
-547.578452880781
 21
312
 31
0
  0
LINE
  8
1
 62
7
 10
-499.6169286537147
 20
289.0717967697244
 30
0
 11
-507.6169286537147
 21
302.9282032302755
 31
0
  0
LINE
  8
1
 62
7
 10
-499.6169286537147
 20
289.0717967697244
 30
0
 11
-493.5337502801131
 21
292.5839214412519
 31
0
  0
LINE
  8
1
 62
7
 10
-507.6169286537147
 20
302.9282032302755
 30
0
 11
-501.5337502801131
 21
306.4403279018029
 31
0
  0
LINE
  8
1
 62
7
 10
-603.5399771078473
 20
302.9282032302755
 30
0
 11
-611.5399771078473
 21
289.0717967697244
 31
0
  0
LINE
  8
1
 62
7
 10
-611.5399771078473
 20
289.0717967697244
 30
0
 11
-617.623155481449
 21
292.5839214412519
 31
0
  0
LINE
  8
1
 62
7
 10
-603.5399771078473
 20
302.9282032302755
 30
0
 11
-609.623155481449
 21
306.4403279018029
 31
0
  0
LINE
  8
1
 62
7
 10
-591.4156214548652
 20
236.0717967697244
 30
0
 11
-599.4156214548652
 21
249.9282032302755
 31
0
  0
LINE
  8
1
 62
7
 10
-638.0114425948242
 20
227.6448955055255
 30
0
 11
-599.4156214548652
 21
249.9282032302755
 31
0
  0
LINE
  8
1
 62
7
 10
-481.1454631667378
 20
213.7884890449745
 30
0
 11
-519.7412843066968
 21
236.0717967697244
 31
0
  0
LINE
  8
1
 62
7
 10
-473.1454631667379
 20
227.6448955055254
 30
0
 11
-511.7412843066968
 21
249.9282032302755
 31
0
  0
LINE
  8
1
 62
7
 10
-511.7412843066968
 20
249.9282032302755
 30
0
 11
-519.7412843066968
 21
236.0717967697244
 31
0
  0
LINE
  8
1
 62
7
 10
-563.578452880781
 20
356.5666154494999
 30
0
 11
-547.578452880781
 21
356.5666154494999
 31
0
  0
LINE
  8
1
 62
7
 10
-630.0114425948242
 20
213.7884890449745
 30
0
 11
-591.4156214548652
 21
236.0717967697244
 31
0
  0
LINE
  8
1
 62
7
 10
-630.0114425948242
 20
213.7884890449745
 30
0
 11
-638.0114425948242
 21
227.6448955055255
 31
0
  0
LINE
  8
1
 62
7
 10
-473.1454631667379
 20
227.6448955055254
 30
0
 11
-481.1454631667378
 21
213.7884890449745
 31
0
  0
LINE
  8
1
 62
3
  6
DIVIDE
 10
-214.6650983879713
 20
339.75
 30
0
 11
-151.6650983879713
 21
339.75
 31
0
  0
LINE
  8
1
 62
3
  6
DIVIDE
 10
-151.6650983879713
 20
339.75
 30
0
 11
-151.6650983879713
 21
330.75
 31
0
  0
LINE
  8
1
 62
3
  6
DIVIDE
 10
-151.6650983879713
 20
330.75
 30
0
 11
-214.6650983879713
 21
330.75
 31
0
  0
LINE
  8
1
 62
3
  6
DIVIDE
 10
-214.6650983879713
 20
330.75
 30
0
 11
-214.6650983879713
 21
339.75
 31
0
  0
LINE
  8
1
 62
3
  6
DASHDOT
 10
-193.6650983879713
 20
365.123620611281
 30
0
 11
-193.6650983879713
 21
333.123620611281
 31
0
  0
LINE
  8
1
 62
7
 10
-216.5207608206739
 20
335.25
 30
0
 11
-148.6650983879713
 21
335.25
 31
0
  0
LINE
  8
1
 62
3
  6
DASHDOT
 10
-141.9251079653106
 20
266
 30
0
 11
-147.6650983879713
 21
266
 31
0
  0
LINE
  8
1
 62
7
 10
-279.6650983879713
 20
204.600523533605
 30
0
 11
-279.6650983879713
 21
165.0000000000001
 31
0
  0
LINE
  8
1
 62
7
 10
-279.6650983879713
 20
375.6
 30
0
 11
-246.4650983879714
 21
375.6
 31
0
  0
LINE
  8
1
 62
7
 10
-246.4650983879714
 20
375.6
 30
0
 11
-246.4650983879714
 21
333.5
 31
0
  0
LINE
  8
1
 62
7
 10
-246.1650983879713
 20
156.4
 30
0
 11
-279.6650983879713
 21
156.4
 31
0
  0
LINE
  8
1
 62
7
 10
-563.578452880781
 20
205
 30
0
 11
-547.578452880781
 21
205
 31
0
  0
LINE
  8
1
 62
7
 10
-600.2816468586497
 20
249.4282032302755
 30
0
 11
-592.2816468586497
 21
235.5717967697244
 31
0
  0
LINE
  8
1
 62
7
 10
-612.4060025116318
 20
289.5717967697244
 30
0
 11
-604.4060025116318
 21
303.4282032302755
 31
0
  0
LINE
  8
1
 62
7
 10
-563.578452880781
 20
313
 30
0
 11
-547.578452880781
 21
313
 31
0
  0
LINE
  8
1
 62
7
 10
-506.7509032499303
 20
303.4282032302755
 30
0
 11
-498.7509032499303
 21
289.5717967697244
 31
0
  0
LINE
  8
1
 62
7
 10
-518.8752589029124
 20
235.5717967697244
 30
0
 11
-510.8752589029124
 21
249.4282032302755
 31
0
  0
LINE
  8
1
 62
7
 10
-242.1650983879713
 20
333.5
 30
0
 11
-239.6650983879713
 21
333.5
 31
0
  0
LINE
  8
1
 62
7
 10
-235.1650983879713
 20
362
 30
0
 11
-233.1650983879713
 21
350
 31
0
  0
LINE
  8
1
 62
7
 10
-233.1650983879713
 20
350
 30
0
 11
-231.1650983879713
 21
362
 31
0
  0
LINE
  8
1
 62
7
 10
-231.1650983879713
 20
362
 30
0
 11
-229.1650983879713
 21
350
 31
0
  0
LINE
  8
1
 62
7
 10
-229.1650983879713
 20
350
 30
0
 11
-227.1650983879713
 21
362
 31
0
  0
LINE
  8
1
 62
7
 10
-227.1650983879713
 20
362
 30
0
 11
-225.1650983879713
 21
350
 31
0
  0
LINE
  8
1
 62
7
 10
-225.1650983879713
 20
350
 30
0
 11
-224.1650983879713
 21
360.230221320329
 31
0
  0
LINE
  8
1
 62
3
  6
DASHDOT
 10
-307.6650983879713
 20
266
 30
0
 11
-315.9251079653106
 21
266
 31
0
  0
LINE
  8
1
 62
7
 10
-282.6650983879713
 20
198.5
 30
0
 11
-306.6650983879713
 21
198.5
 31
0
  0
ARC
  8
1
 62
7
 10
-211.6650983879713
 20
374.5
 30
0
 40
62.5
 50
270
 51
321.0972801799528
  0
ARC
  8
1
 62
7
 10
-237.6650983879713
 20
143.5
 30
0
 40
62.50000000000001
 50
58.42987132640428
 51
90
  0
ARC
  8
1
 62
7
 10
-191.9145893003287
 20
321.542745320681
 30
0
 40
2.500000000000086
 50
273.0346561291777
 51
20.87863060565983
  0
ARC
  8
1
 62
7
 10
-208.2654948606617
 20
315.3059282352538
 30
0
 40
20.00000000000028
 50
20.87863060566304
 51
85.74126410127104
  0
ARC
  8
1
 62
7
 10
-207.0030656761646
 20
332.2589890961761
 30
0
 40
3.000000000000129
 50
85.74126410127317
 51
215.7762388100589
  0
ARC
  8
1
 62
7
 10
-212.6822100394937
 20
328.1666402229168
 30
0
 40
4.000000000000018
 50
266.3802310831726
 51
35.77623881005973
  0
ARC
  8
1
 62
7
 10
-296.6650983879713
 20
323.5
 30
0
 40
10.00000000000003
 50
168.6889034066282
 51
273.0346561291788
  0
ARC
  8
1
 62
7
 10
-279.5002231311305
 20
342.4136092776013
 30
0
 40
14.00000000000007
 50
151.2010792861752
 51
266.3802310831726
  0
ARC
  8
1
 62
7
 10
-296.1502224709861
 20
351.5666154495001
 30
0
 40
4.999999999999815
 50
26.23029273693058
 51
168.688903406629
  0
ARC
  8
1
 62
7
 10
-296.1502224709861
 20
351.5666154495001
 30
0
 40
5.00000000000015
 50
331.2010792861723
 51
333.7697072630694
  0
ARC
  8
1
 62
7
 10
-555.578452880781
 20
266
 30
0
 40
35
 50
180
 51
255.0994033121701
  0
ARC
  8
1
 62
7
 10
-555.578452880781
 20
266
 30
0
 40
34.99999999999997
 50
284.9005966878299
 51
180
  0
ARC
  8
1
 62
7
 10
-555.578452880781
 20
266
 30
0
 40
67.4999999999999
 50
156.8066097853296
 51
180
  0
ARC
  8
1
 62
7
 10
-555.578452880781
 20
266
 30
0
 40
67.49999999999983
 50
36.80660978532962
 51
83.1933902146704
  0
ARC
  8
1
 62
7
 10
-555.578452880781
 20
266
 30
0
 40
67.49999999999999
 50
96.80660978532958
 51
143.1933902146704
  0
ARC
  8
1
 62
7
 10
-555.578452880781
 20
266
 30
0
 40
67.5
 50
180
 51
203.1933902146704
  0
ARC
  8
1
 62
7
 10
-555.578452880781
 20
266
 30
0
 40
67.50000000000003
 50
216.8066097853296
 51
263.1933902146704
  0
ARC
  8
1
 62
7
 10
-555.578452880781
 20
266
 30
0
 40
67.49999999999996
 50
276.8066097853296
 51
323.1933902146703
  0
ARC
  8
1
 62
7
 10
-555.578452880781
 20
266
 30
0
 40
67.5000000000001
 50
336.8066097853296
 51
23.19339021467041
  0
ARC
  8
1
 62
7
 10
-555.578452880781
 20
266
 30
0
 40
77.50000000000014
 50
215.9249572859845
 51
324.0750427140155
  0
ARC
  8
1
 62
7
 10
-555.578452880781
 20
266
 30
0
 40
77.49999999999999
 50
335.9249572859844
 51
0
  0
ARC
  8
1
 62
7
 10
-555.578452880781
 20
266
 30
0
 40
77.5
 50
0
 51
84.07504271401548
  0
ARC
  8
1
 62
7
 10
-555.578452880781
 20
266
 30
0
 40
77.50000000000006
 50
95.92495728598452
 51
204.0750427140155
  0
ARC
  8
1
 62
7
 10
-555.578452880781
 20
266
 30
0
 40
68.50000000000007
 50
336.7067834442497
 51
0
  0
ARC
  8
1
 62
7
 10
-555.578452880781
 20
266
 30
0
 40
68.5
 50
0
 51
83.29321655575023
  0
ARC
  8
1
 62
7
 10
-555.578452880781
 20
266
 30
0
 40
68.50000000000001
 50
96.70678344424977
 51
203.2932165557503
  0
ARC
  8
1
 62
7
 10
-555.578452880781
 20
266
 30
0
 40
68.49999999999993
 50
216.7067834442498
 51
323.2932165557502
  0
CIRCLE
  8
1
 62
7
 10
-555.578452880781
 20
266
 30
0
 40
45
  0
CIRCLE
  8
1
 62
7
 10
-296.6650983879713
 20
323.5
 30
0
 40
4
  0
CIRCLE
  8
1
 62
7
 10
-555.578452880781
 20
266
 30
0
 40
109.6
  0
CIRCLE
  8
1
 62
3
 10
-555.578452880781
 20
266
 30
0
 40
102
  0
CIRCLE
  8
1
 62
7
 10
-555.578452880781
 20
266
 30
0
 40
101
  0
CIRCLE
  8
1
 62
7
 10
-555.578452880781
 20
266
 30
0
 40
98
  0
TEXT
  8
1
 62
7
 10
-595.3929464297085
 20
418.8142598001815
 30
0
 40
10
  1
DS 804MG
 41
0.9
  7
SIMPLEX
 72
1
 11
-559.3929464297085
 21
418.8142598001815
 31
0
  0
ENDBLK
  8
0
  0
ENDSEC
  0
SECTION
  2
ENTITIES
  0
INSERT
  8
0
  2
TOP
 10
0
 20
0
 30
0
 41
0.5
 42
0.5
 43
0.5
  0
ENDSEC
  0
EOF
