  0
SECTION
  2
HEADER
  9
$ACADVER
  1
AC1009
  9
$INSBASE
 10
0
 20
0
  9
$EXTMIN
 10
-661.6849699738623
 20
17.89166340977204
  9
$EXTMAX
 10
-344.8074532984401
 20
145.579275637674
  9
$LIMMIN
 10
-661.6849699738623
 20
17.89166340977204
  9
$LIMMAX
 10
-344.8074532984401
 20
145.579275637674
  9
$VIEWCTR
 10
10
 20
10
  9
$VIEWSIZE
 40
10
  9
$SNAPMODE
 70
0
  9
$SNAPUNIT
 10
1
 20
1
  9
$SNAPBASE
 10
0
 20
0
  9
$SNAPANG
 50
0
  9
$SNAPSTYLE
 70
0
  9
$SNAPISOPAIR
 70
0
  9
$GRIDMODE
 70
0
  9
$GRIDUNIT
 10
0
 20
0
  9
$ORTHOMODE
 70
0
  9
$REGENMODE
 70
1
  9
$FILLMODE
 70
1
  9
$QTEXTMODE
 70
0
  9
$DRAGMODE
 70
2
  9
$LTSCALE
 40
1
  9
$OSMODE
 70
0
  9
$ATTMODE
 70
1
  9
$TEXTSIZE
 40
3.5
  9
$TRACEWID
 40
0.5
  9
$TEXTSTYLE
  7
STANDARD
  9
$CLAYER
  8
0
  9
$CELTYPE
  6
BYLAYER
  9
$CECOLOR
 62
256
  9
$DIMSCALE
 40
1
  9
$DIMASZ
 40
0.18
  9
$DIMEXO
 40
0.0625
  9
$DIMDLI
 40
0.38
  9
$DIMRND
 40
0
  9
$DIMDLE
 40
0
  9
$DIMEXE
 40
0.18
  9
$DIMTP
 40
0
  9
$DIMTM
 40
0
  9
$DIMTXT
 40
0.18
  9
$DIMCEN
 40
0.09
  9
$DIMTSZ
 40
0
  9
$DIMTOL
 70
0
  9
$DIMLIM
 70
0
  9
$DIMTIH
 70
1
  9
$DIMTOH
 70
1
  9
$DIMSE1
 70
0
  9
$DIMSE2
 70
0
  9
$DIMTAD
 70
0
  9
$DIMZIN
 70
0
  9
$DIMBLK
  1

  9
$DIMASO
 70
1
  9
$DIMSHO
 70
1
  9
$DIMPOST
  1

  9
$DIMAPOST
  1

  9
$DIMALT
 70
0
  9
$DIMALTD
 70
2
  9
$DIMALTF
 40
25.4
  9
$DIMLFAC
 40
1
  9
$DIMTOFL
 70
0
  9
$DIMTVP
 40
0
  9
$DIMTIX
 70
0
  9
$DIMSOXD
 70
0
  9
$DIMSAH
 70
0
  9
$DIMBLK1
  1

  9
$DIMBLK2
  1

  9
$DIMSTYLE
  2
*UNNAMED
  9
$DIMCLRD
 70
0
  9
$DIMCLRE
 70
0
  9
$DIMCLRT
 70
0
  9
$DIMTFAC
 40
1
  9
$DIMGAP
 40
0.09
  9
$LUNITS
 70
2
  9
$LUPREC
 70
4
  9
$AXISMODE
 70
0
  9
$AXISUNIT
 10
0
 20
0
  9
$SKETCHINC
 40
0.1
  9
$FILLETRAD
 40
2
  9
$AUNITS
 70
0
  9
$AUPREC
 70
0
  9
$MENU
  1
ACAD
  9
$ELEVATION
 40
0
  9
$THICKNESS
 40
0
  9
$VIEWDIR
 10
0
 20
0
 30
1
  9
$LIMCHECK
 70
0
  9
$BLIPMODE
 70
1
  9
$CHAMFERA
 40
0
  9
$CHAMFERB
 40
0
  9
$FASTZOOM
 70
1
  9
$SKPOLY
 70
0
  9
$ANGBASE
 50
0
  9
$ANGDIR
 70
0
  9
$PDMODE
 70
0
  9
$PDSIZE
 40
0
  9
$PLINEWID
 40
0
  9
$COORDS
 70
2
  0
ENDSEC
  0
SECTION
  2
TABLES
  0
TABLE
  2
DIMSTYLE
 70
0
  0
ENDTAB
  0
TABLE
  2
LTYPE
 70
9
  0
LTYPE
  2
CONTINUOUS
 70
64
  3
Solid line
 72
65
 73
0
 40
0
  0
LTYPE
  2
BORDER
 70
64
  3
__ __ . __ __ .
 72
65
 73
6
 40
14.59304353110497
 49
4.169441008887134
 49
-2.084720504443567
 49
4.169441008887134
 49
-2.084720504443567
 49
0
 49
-2.084720504443567
  0
LTYPE
  2
CENTER
 70
64
  3
____ _ ____ _
 72
65
 73
4
 40
16.67776403554854
 49
10.42360252221783
 49
-2.084720504443567
 49
2.084720504443567
 49
-2.084720504443567
  0
LTYPE
  2
DASHDOT
 70
64
  3
__ . __ . __ .
 72
65
 73
4
 40
8.338882017774267
 49
4.169441008887134
 49
-2.084720504443567
 49
0
 49
-2.084720504443567
  0
LTYPE
  2
DASHED
 70
64
  3
__ __ __ __ __
 72
65
 73
2
 40
6.254161513330701
 49
4.169441008887134
 49
-2.084720504443567
  0
LTYPE
  2
DIVIDE
 70
64
  3
__ . . __ . . 
 72
65
 73
6
 40
10.42360252221783
 49
4.169441008887134
 49
-2.084720504443567
 49
0
 49
-2.084720504443567
 49
0
 49
-2.084720504443567
  0
LTYPE
  2
DOT
 70
64
  3
..............
 72
65
 73
4
 40
4.169441008887134
 49
0
 49
-2.084720504443567
 49
0
 49
-2.084720504443567
  0
LTYPE
  2
HIDDEN
 70
64
  3
_ _ _ _ _ _ _
 72
65
 73
2
 40
3.12708075666535
 49
2.084720504443567
 49
-1.042360252221783
  0
LTYPE
  2
PHANTOM
 70
64
  3
_____ _ _ _____ _ _ 
 72
65
 73
6
 40
20.84720504443567
 49
10.42360252221783
 49
-2.084720504443567
 49
2.084720504443567
 49
-2.084720504443567
 49
2.084720504443567
 49
-2.084720504443567
  0
ENDTAB
  0
TABLE
  2
LAYER
 70
3
  0
LAYER
  2
1
 70
0
 62
7
  6
CONTINUOUS
  0
LAYER
  2
0
 70
0
 62
7
  6
CONTINUOUS
  0
ENDTAB
  0
TABLE
  2
STYLE
 70
4
  0
STYLE
  2
STANDARD
 70
0
 40
0
 41
1
 50
0
 71
0
 42
3.5
  3
txt
  4

  0
STYLE
  2
SIMPLEX
 70
0
 40
0
 41
1
 50
0
 71
0
 42
3.5
  3
simplex
  4

  0
STYLE
  2
COMPLEX
 70
0
 40
0
 41
1
 50
0
 71
0
 42
3.5
  3
complex
  4

  0
STYLE
  2
ITALIC
 70
0
 40
0
 41
1
 50
0
 71
0
 42
3.5
  3
italic
  4

  0
ENDTAB
  0
TABLE
  2
VIEW
 70
0
  0
ENDTAB
  0
ENDSEC
  0
SECTION
  2
BLOCKS
  0
ENDSEC
  0
SECTION
  2
ENTITIES
  0
LINE
  8
1
 62
3
  6
DIVIDE
 10
-405.8074532984401
 20
34.14166340977207
 30
0
 11
-405.8074532984401
 21
22.89166340977204
 31
0
  0
LINE
  8
1
 62
3
  6
DIVIDE
 10
-411.8074532984401
 20
21.89166340977204
 30
0
 11
-410.8074532984401
 21
20.89166340977204
 31
0
  0
LINE
  8
1
 62
3
  6
DIVIDE
 10
-407.8074532984401
 20
20.89166340977204
 30
0
 11
-410.8074532984401
 21
20.89166340977204
 31
0
  0
LINE
  8
1
 62
3
  6
DIVIDE
 10
-411.8074532984401
 20
21.89166340977204
 30
0
 11
-411.8074532984401
 21
28.39166340977204
 31
0
  0
LINE
  8
1
 62
3
  6
DIVIDE
 10
-411.8074532984401
 20
28.39166340977204
 30
0
 11
-429.8074532984401
 21
28.39166340977204
 31
0
  0
LINE
  8
1
 62
3
  6
DIVIDE
 10
-429.8074532984401
 20
28.39166340977204
 30
0
 11
-429.8074532984401
 21
21.89166340977204
 31
0
  0
LINE
  8
1
 62
3
  6
DIVIDE
 10
-430.8074532984401
 20
20.89166340977204
 30
0
 11
-429.8074532984401
 21
21.89166340977204
 31
0
  0
LINE
  8
1
 62
3
  6
DIVIDE
 10
-430.8074532984401
 20
20.89166340977204
 30
0
 11
-433.8074532984401
 21
20.89166340977204
 31
0
  0
LINE
  8
1
 62
3
  6
DIVIDE
 10
-435.8074532984401
 20
22.89166340977204
 30
0
 11
-433.8074532984401
 21
20.89166340977204
 31
0
  0
LINE
  8
1
 62
3
  6
DIVIDE
 10
-435.8074532984401
 20
22.89166340977204
 30
0
 11
-435.8074532984401
 21
34.14166340977207
 31
0
  0
LINE
  8
1
 62
3
  6
DIVIDE
 10
-410.8074532984401
 20
112.8916634097721
 30
0
 11
-411.8074532984401
 21
111.8916634097721
 31
0
  0
LINE
  8
1
 62
3
  6
DIVIDE
 10
-411.8074532984401
 20
105.3916634097721
 30
0
 11
-411.8074532984401
 21
111.8916634097721
 31
0
  0
LINE
  8
1
 62
3
  6
DIVIDE
 10
-405.8074532984401
 20
110.8916634097721
 30
0
 11
-405.8074532984401
 21
99.64166340977207
 31
0
  0
LINE
  8
1
 62
3
  6
DIVIDE
 10
-410.8074532984401
 20
112.8916634097721
 30
0
 11
-407.8074532984401
 21
112.8916634097721
 31
0
  0
LINE
  8
1
 62
3
  6
DIVIDE
 10
-429.8074532984401
 20
105.3916634097721
 30
0
 11
-411.8074532984401
 21
105.3916634097721
 31
0
  0
LINE
  8
1
 62
3
  6
DIVIDE
 10
-429.8074532984401
 20
111.8916634097721
 30
0
 11
-429.8074532984401
 21
105.3916634097721
 31
0
  0
LINE
  8
1
 62
3
  6
DIVIDE
 10
-429.8074532984401
 20
111.8916634097721
 30
0
 11
-430.8074532984401
 21
112.8916634097721
 31
0
  0
LINE
  8
1
 62
3
  6
DIVIDE
 10
-433.8074532984401
 20
112.8916634097721
 30
0
 11
-430.8074532984401
 21
112.8916634097721
 31
0
  0
LINE
  8
1
 62
3
  6
DIVIDE
 10
-433.8074532984401
 20
112.8916634097721
 30
0
 11
-435.8074532984401
 21
110.8916634097721
 31
0
  0
LINE
  8
1
 62
3
  6
DIVIDE
 10
-435.8074532984401
 20
99.64166340977207
 30
0
 11
-435.8074532984401
 21
110.8916634097721
 31
0
  0
LINE
  8
1
 62
7
 10
-469.6552246039447
 20
102.3916634097721
 30
0
 11
-470.1074532984399
 21
104.9563797831726
 31
0
  0
LINE
  8
1
 62
7
 10
-468.4209357389854
 20
109.3916634097721
 30
0
 11
-469.6552246039447
 21
102.3916634097721
 31
0
  0
LINE
  8
1
 62
7
 10
-467.1866468740262
 20
102.3916634097721
 30
0
 11
-468.4209357389854
 21
109.3916634097721
 31
0
  0
LINE
  8
1
 62
7
 10
-465.9523580090669
 20
109.3916634097721
 30
0
 11
-467.1866468740262
 21
102.3916634097721
 31
0
  0
LINE
  8
1
 62
7
 10
-464.7180691441077
 20
102.3916634097721
 30
0
 11
-465.9523580090669
 21
109.3916634097721
 31
0
  0
LINE
  8
1
 62
7
 10
-463.4837802791485
 20
109.3916634097721
 30
0
 11
-464.7180691441077
 21
102.3916634097721
 31
0
  0
LINE
  8
1
 62
7
 10
-463.30745329844
 20
108.3916634097721
 30
0
 11
-463.4837802791485
 21
109.3916634097721
 31
0
  0
LINE
  8
1
 62
7
 10
-393.9596819929355
 20
24.39166340977204
 30
0
 11
-393.5074532984401
 21
26.95637978317314
 31
0
  0
LINE
  8
1
 62
7
 10
-395.1939708578947
 20
31.39166340977204
 30
0
 11
-393.9596819929355
 21
24.39166340977204
 31
0
  0
LINE
  8
1
 62
7
 10
-396.428259722854
 20
24.39166340977204
 30
0
 11
-395.1939708578947
 21
31.39166340977204
 31
0
  0
LINE
  8
1
 62
7
 10
-397.6625485878132
 20
31.39166340977204
 30
0
 11
-396.428259722854
 21
24.39166340977204
 31
0
  0
LINE
  8
1
 62
7
 10
-398.8968374527724
 20
24.39166340977204
 30
0
 11
-397.6625485878132
 21
31.39166340977204
 31
0
  0
LINE
  8
1
 62
7
 10
-400.1311263177317
 20
31.39166340977204
 30
0
 11
-398.8968374527724
 21
24.39166340977204
 31
0
  0
LINE
  8
1
 62
7
 10
-400.3074532984401
 20
30.39166340977204
 30
0
 11
-400.1311263177317
 21
31.39166340977204
 31
0
  0
LINE
  8
1
 62
3
  6
DASHDOT
 10
-615.828724237164
 20
71.89166340977207
 30
0
 11
-615.828724237164
 21
61.89166340977207
 31
0
  0
LINE
  8
1
 62
3
  6
DASHDOT
 10
-610.828724237164
 20
66.89166340977207
 30
0
 11
-620.828724237164
 21
66.89166340977207
 31
0
  0
LINE
  8
1
 62
3
  6
DASHDOT
 10
-349.80745329844
 20
66.89166340977207
 30
0
 11
-344.8074532984401
 21
66.89166340977207
 31
0
  0
LINE
  8
1
 62
7
 10
-457.80745329844
 20
50.39166340977206
 30
0
 11
-405.80745329844
 21
50.39166340977207
 31
0
  0
LINE
  8
1
 62
7
 10
-457.80745329844
 20
83.39166340977215
 30
0
 11
-457.80745329844
 21
50.39166340977206
 31
0
  0
LINE
  8
1
 62
7
 10
-405.80745329844
 20
83.39166340977208
 30
0
 11
-457.80745329844
 21
83.39166340977215
 31
0
  0
LINE
  8
1
 62
7
 10
-405.80745329844
 20
50.39166340977207
 30
0
 11
-405.80745329844
 21
83.39166340977208
 31
0
  0
LINE
  8
1
 62
3
  6
DASHDOT
 10
-420.8074532984401
 20
96.64166340977205
 30
0
 11
-420.8074532984401
 21
108.3916634097721
 31
0
  0
LINE
  8
1
 62
7
 10
-405.80745329844
 20
82.89166340977207
 30
0
 11
-349.80745329844
 21
82.89166340977205
 31
0
  0
LINE
  8
1
 62
7
 10
-457.80745329844
 20
50.89166340977207
 30
0
 11
-513.80745329844
 21
50.89166340977207
 31
0
  0
LINE
  8
1
 62
3
  6
DIVIDE
 10
-381.30745329844
 20
83.39166340977207
 30
0
 11
-381.30745329844
 21
94.39166340977207
 31
0
  0
LINE
  8
1
 62
3
  6
DIVIDE
 10
-371.30745329844
 20
83.39166340977207
 30
0
 11
-371.30745329844
 21
94.39166340977207
 31
0
  0
LINE
  8
1
 62
3
  6
DIVIDE
 10
-378.30745329844
 20
94.39166340977207
 30
0
 11
-378.30745329844
 21
83.39166340977207
 31
0
  0
LINE
  8
1
 62
3
  6
DIVIDE
 10
-368.30745329844
 20
94.39166340977207
 30
0
 11
-368.30745329844
 21
83.39166340977207
 31
0
  0
LINE
  8
1
 62
3
  6
DIVIDE
 10
-362.80745329844
 20
50.39166340977206
 30
0
 11
-362.80745329844
 21
83.39166340977207
 31
0
  0
LINE
  8
1
 62
3
  6
DIVIDE
 10
-387.80745329844
 20
50.39166340977206
 30
0
 11
-362.80745329844
 21
50.39166340977206
 31
0
  0
LINE
  8
1
 62
3
  6
DIVIDE
 10
-387.80745329844
 20
83.39166340977208
 30
0
 11
-387.80745329844
 21
50.39166340977206
 31
0
  0
LINE
  8
1
 62
3
  6
DIVIDE
 10
-362.80745329844
 20
83.39166340977207
 30
0
 11
-387.80745329844
 21
83.39166340977208
 31
0
  0
LINE
  8
1
 62
7
 10
-391.8270685407107
 20
98.79166340977206
 30
0
 11
-389.30745329844
 21
98.79166340977206
 31
0
  0
LINE
  8
1
 62
3
 10
-392.1734787022246
 20
99.39166340977205
 30
0
 11
-389.30745329844
 21
99.39166340977205
 31
0
  0
LINE
  8
1
 62
7
 10
-404.6538634599538
 20
99.39166340977205
 30
0
 11
-404.7982010272513
 21
99.64166340977205
 31
0
  0
LINE
  8
1
 62
7
 10
-404.7982010272513
 20
99.64166340977205
 30
0
 11
-458.8167055696287
 21
99.64166340977207
 31
0
  0
LINE
  8
1
 62
3
 10
-404.3074532984401
 20
98.79166340977206
 30
0
 11
-404.6538634599538
 21
99.39166340977205
 31
0
  0
LINE
  8
1
 62
7
 10
-402.3074532984401
 20
34.39166340977206
 30
0
 11
-402.3074532984401
 21
17.89166340977204
 31
0
  0
LINE
  8
1
 62
3
 10
-404.6538634599538
 20
34.39166340977206
 30
0
 11
-404.30745329844
 21
34.99166340977206
 31
0
  0
LINE
  8
1
 62
3
 10
-390.8270685407107
 20
34.99166340977206
 30
0
 11
-404.30745329844
 21
34.99166340977206
 31
0
  0
LINE
  8
1
 62
7
 10
-391.1734787022246
 20
34.39166340977206
 30
0
 11
-404.6538634599538
 21
34.39166340977206
 31
0
  0
LINE
  8
1
 62
7
 10
-405.30745329844
 20
24.89166340977204
 30
0
 11
-405.30745329844
 21
34.14166340977206
 31
0
  0
LINE
  8
1
 62
7
 10
-402.30745329844
 20
100.3916634097721
 30
0
 11
-405.30745329844
 21
100.3916634097721
 31
0
  0
LINE
  8
1
 62
7
 10
-402.30745329844
 20
99.39166340977205
 30
0
 11
-402.30745329844
 21
100.3916634097721
 31
0
  0
LINE
  8
1
 62
7
 10
-405.30745329844
 20
33.39166340977204
 30
0
 11
-402.3074532984401
 21
33.39166340977204
 31
0
  0
LINE
  8
1
 62
7
 10
-403.9074532984401
 20
23.49166340977203
 30
0
 11
-405.30745329844
 21
24.89166340977204
 31
0
  0
LINE
  8
1
 62
7
 10
-349.80745329844
 20
44.39166340977206
 30
0
 11
-349.80745329844
 21
89.39166340977207
 31
0
  0
LINE
  8
1
 62
7
 10
-361.8074532984399
 20
110.8916634097721
 30
0
 11
-365.30745329844
 21
110.8916634097721
 31
0
  0
LINE
  8
1
 62
7
 10
-361.80745329844
 20
22.89166340977203
 30
0
 11
-365.30745329844
 21
22.89166340977203
 31
0
  0
LINE
  8
1
 62
7
 10
-397.30745329844
 20
102.8709374676084
 30
0
 11
-400.80745329844
 21
104.8916634097721
 31
0
  0
LINE
  8
1
 62
7
 10
-393.8074532984401
 20
104.8916634097721
 30
0
 11
-397.30745329844
 21
102.8709374676084
 31
0
  0
LINE
  8
1
 62
7
 10
-400.80745329844
 20
104.8916634097721
 30
0
 11
-400.80745329844
 21
110.8916634097721
 31
0
  0
LINE
  8
1
 62
7
 10
-393.8074532984401
 20
104.8916634097721
 30
0
 11
-400.80745329844
 21
104.8916634097721
 31
0
  0
LINE
  8
1
 62
7
 10
-393.80745329844
 20
110.8916634097721
 30
0
 11
-393.8074532984401
 21
104.8916634097721
 31
0
  0
LINE
  8
1
 62
7
 10
-403.30745329844
 20
110.8916634097721
 30
0
 11
-405.30745329844
 21
108.8916634097721
 31
0
  0
LINE
  8
1
 62
7
 10
-386.30745329844
 20
110.8916634097721
 30
0
 11
-403.30745329844
 21
110.8916634097721
 31
0
  0
LINE
  8
1
 62
7
 10
-405.30745329844
 20
108.8916634097721
 30
0
 11
-405.30745329844
 21
99.64166340977205
 31
0
  0
LINE
  8
1
 62
7
 10
-403.9074532984401
 20
32.89166340977204
 30
0
 11
-403.9074532984401
 21
17.89166340977204
 31
0
  0
LINE
  8
1
 62
7
 10
-386.30745329844
 20
35.89166340977206
 30
0
 11
-386.30745329844
 21
18.39166340977204
 31
0
  0
LINE
  8
1
 62
3
 10
-386.30745329844
 20
94.79166340977207
 30
0
 11
-365.30745329844
 21
115.3916634097721
 31
0
  0
LINE
  8
1
 62
3
 10
-365.30745329844
 20
94.79166340977207
 30
0
 11
-386.30745329844
 21
115.3916634097721
 31
0
  0
LINE
  8
1
 62
7
 10
-363.30745329844
 20
97.89166340977205
 30
0
 11
-350.80745329844
 21
97.89166340977205
 31
0
  0
LINE
  8
1
 62
7
 10
-363.30745329844
 20
94.79166340977207
 30
0
 11
-389.30745329844
 21
94.79166340977208
 31
0
  0
LINE
  8
1
 62
7
 10
-363.30745329844
 20
98.89166340977208
 30
0
 11
-363.30745329844
 21
94.79166340977207
 31
0
  0
LINE
  8
1
 62
7
 10
-363.30745329844
 20
98.89166340977208
 30
0
 11
-359.80745329844
 21
102.3916634097721
 31
0
  0
LINE
  8
1
 62
7
 10
-386.30745329844
 20
115.3916634097721
 30
0
 11
-365.30745329844
 21
115.3916634097721
 31
0
  0
LINE
  8
1
 62
7
 10
-365.30745329844
 20
115.3916634097721
 30
0
 11
-365.30745329844
 21
94.79166340977207
 31
0
  0
LINE
  8
1
 62
7
 10
-361.8074532984399
 20
110.8916634097721
 30
0
 11
-359.80745329844
 21
108.8916634097721
 31
0
  0
LINE
  8
1
 62
7
 10
-359.80745329844
 20
97.89166340977205
 30
0
 11
-359.80745329844
 21
108.8916634097721
 31
0
  0
LINE
  8
1
 62
7
 10
-359.80745329844
 20
24.89166340977203
 30
0
 11
-361.80745329844
 21
22.89166340977203
 31
0
  0
LINE
  8
1
 62
7
 10
-363.30745329844
 20
34.89166340977206
 30
0
 11
-363.30745329844
 21
35.89166340977206
 31
0
  0
LINE
  8
1
 62
7
 10
-359.80745329844
 20
31.39166340977203
 30
0
 11
-363.30745329844
 21
34.89166340977206
 31
0
  0
LINE
  8
1
 62
7
 10
-359.80745329844
 20
24.89166340977203
 30
0
 11
-359.80745329844
 21
35.55411657018476
 31
0
  0
LINE
  8
1
 62
3
 10
-386.30745329844
 20
18.39166340977204
 30
0
 11
-365.30745329844
 21
35.89166340977206
 31
0
  0
LINE
  8
1
 62
3
 10
-365.30745329844
 20
18.39166340977203
 30
0
 11
-386.30745329844
 21
35.89166340977206
 31
0
  0
LINE
  8
1
 62
7
 10
-365.30745329844
 20
18.39166340977203
 30
0
 11
-365.30745329844
 21
35.89166340977206
 31
0
  0
LINE
  8
1
 62
7
 10
-365.30745329844
 20
18.39166340977203
 30
0
 11
-386.30745329844
 21
18.39166340977204
 31
0
  0
LINE
  8
1
 62
7
 10
-393.5074532984401
 20
25.39166340977204
 30
0
 11
-402.3074532984401
 21
25.39166340977204
 31
0
  0
LINE
  8
1
 62
7
 10
-393.5074532984401
 20
24.39166340977204
 30
0
 11
-393.5074532984401
 21
31.39166340977204
 31
0
  0
LINE
  8
1
 62
7
 10
-400.3074532984401
 20
30.39166340977204
 30
0
 11
-400.30745329844
 21
31.39166340977204
 31
0
  0
LINE
  8
1
 62
7
 10
-400.30745329844
 20
24.39166340977204
 30
0
 11
-400.30745329844
 21
25.39166340977204
 31
0
  0
LINE
  8
1
 62
7
 10
-400.30745329844
 20
24.39166340977204
 30
0
 11
-389.30745329844
 21
24.39166340977204
 31
0
  0
LINE
  8
1
 62
3
 10
-404.3074532984401
 20
98.79166340977206
 30
0
 11
-391.8270685407107
 21
98.79166340977206
 31
0
  0
LINE
  8
1
 62
7
 10
-389.30745329844
 20
34.99166340977206
 30
0
 11
-390.8270685407107
 21
34.99166340977206
 31
0
  0
LINE
  8
1
 62
3
 10
-389.30745329844
 20
34.39166340977206
 30
0
 11
-391.1734787022246
 21
34.39166340977206
 31
0
  0
LINE
  8
1
 62
7
 10
-402.3074532984401
 20
22.89166340977204
 30
0
 11
-386.30745329844
 21
22.89166340977204
 31
0
  0
LINE
  8
1
 62
7
 10
-402.3074532984401
 20
32.89166340977204
 30
0
 11
-403.9074532984401
 21
32.89166340977204
 31
0
  0
LINE
  8
1
 62
7
 10
-402.3074532984401
 20
17.89166340977204
 30
0
 11
-403.9074532984401
 21
17.89166340977204
 31
0
  0
LINE
  8
1
 62
7
 10
-402.3074532984401
 20
30.39166340977204
 30
0
 11
-393.5074532984401
 21
30.39166340977204
 31
0
  0
LINE
  8
1
 62
7
 10
-389.30745329844
 20
31.39166340977204
 30
0
 11
-400.30745329844
 21
31.39166340977204
 31
0
  0
LINE
  8
1
 62
7
 10
-386.30745329844
 20
108.8916634097721
 30
0
 11
-389.30745329844
 21
108.8916634097721
 31
0
  0
LINE
  8
1
 62
7
 10
-386.30745329844
 20
102.8916634097721
 30
0
 11
-389.30745329844
 21
102.8916634097721
 31
0
  0
LINE
  8
1
 62
7
 10
-389.30745329844
 20
110.8916634097721
 30
0
 11
-389.30745329844
 21
94.79166340977208
 31
0
  0
LINE
  8
1
 62
7
 10
-386.30745329844
 20
94.79166340977207
 30
0
 11
-386.30745329844
 21
115.3916634097721
 31
0
  0
LINE
  8
1
 62
7
 10
-386.30745329844
 20
30.89166340977204
 30
0
 11
-389.30745329844
 21
30.89166340977204
 31
0
  0
LINE
  8
1
 62
7
 10
-386.30745329844
 20
24.89166340977204
 30
0
 11
-389.30745329844
 21
24.89166340977204
 31
0
  0
LINE
  8
1
 62
7
 10
-389.30745329844
 20
35.89166340977206
 30
0
 11
-389.30745329844
 21
22.89166340977204
 31
0
  0
LINE
  8
1
 62
7
 10
-360.0724831655292
 20
35.89166340977206
 30
0
 11
-390.30745329844
 21
35.89166340977206
 31
0
  0
LINE
  8
1
 62
7
 10
-356.8196462284558
 20
47.36536006341326
 30
0
 11
-417.8561944967311
 21
41.07979609105246
 31
0
  0
LINE
  8
1
 62
7
 10
-350.80745329844
 20
94.39166340977207
 30
0
 11
-391.80745329844
 21
94.39166340977208
 31
0
  0
LINE
  8
1
 62
7
 10
-350.80745329844
 20
90.39166340977207
 30
0
 11
-350.80745329844
 21
97.89166340977205
 31
0
  0
LINE
  8
1
 62
7
 10
-350.80745329844
 20
90.39166340977207
 30
0
 11
-349.80745329844
 21
89.39166340977207
 31
0
  0
LINE
  8
1
 62
7
 10
-349.80745329844
 20
44.39166340977206
 30
0
 11
-350.80745329844
 21
43.39166340977206
 31
0
  0
LINE
  8
1
 62
7
 10
-350.80745329844
 20
35.89166340977206
 30
0
 11
-352.0257801705357
 21
35.89166340977206
 31
0
  0
LINE
  8
1
 62
7
 10
-350.80745329844
 20
35.89166340977206
 30
0
 11
-350.80745329844
 21
43.39166340977206
 31
0
  0
LINE
  8
1
 62
7
 10
-391.30745329844
 20
97.89166340977205
 30
0
 11
-392.1734787022246
 21
99.39166340977205
 31
0
  0
LINE
  8
1
 62
7
 10
-392.1734787022246
 20
99.39166340977205
 30
0
 11
-404.6538634599538
 21
99.39166340977205
 31
0
  0
LINE
  8
1
 62
7
 10
-391.30745329844
 20
97.89166340977205
 30
0
 11
-389.30745329844
 21
97.89166340977205
 31
0
  0
LINE
  8
1
 62
7
 10
-349.80745329844
 20
50.89166340977206
 30
0
 11
-405.80745329844
 21
50.89166340977206
 31
0
  0
LINE
  8
1
 62
7
 10
-404.6538634599538
 20
34.39166340977206
 30
0
 11
-404.7982010272513
 21
34.14166340977206
 31
0
  0
LINE
  8
1
 62
7
 10
-391.1734787022246
 20
34.39166340977206
 30
0
 11
-390.30745329844
 21
35.89166340977206
 31
0
  0
LINE
  8
1
 62
7
 10
-349.80745329844
 20
47.89166340977206
 30
0
 11
-407.80745329844
 21
47.89166340977206
 31
0
  0
LINE
  8
1
 62
7
 10
-365.4508961595611
 20
38.40203739959892
 30
0
 11
-405.1376924170149
 21
38.35771652894827
 31
0
  0
LINE
  8
1
 62
7
 10
-352.9364100549124
 20
28.01682193411516
 30
0
 11
-351.3405520077193
 21
41.81730153060777
 31
0
  0
LINE
  8
1
 62
3
  6
DIVIDE
 10
-638.8944228412362
 20
81.94070151544877
 30
0
 11
-629.3089737079217
 21
76.40653987802619
 31
0
  0
LINE
  8
1
 62
3
  6
DIVIDE
 10
-630.8089737079217
 20
73.80846366667288
 30
0
 11
-640.3944228412362
 21
79.34262530409545
 31
0
  0
LINE
  8
1
 62
3
  6
DIVIDE
 10
-591.2630256330921
 20
79.34262530409535
 30
0
 11
-600.8484747664063
 21
73.80846366667288
 31
0
  0
LINE
  8
1
 62
3
  6
DIVIDE
 10
-602.3484747664063
 20
76.40653987802619
 30
0
 11
-592.7630256330921
 21
81.94070151544867
 31
0
  0
LINE
  8
1
 62
3
  6
DIVIDE
 10
-617.328724237164
 20
39.39166340977206
 30
0
 11
-617.328724237164
 21
50.45998668461708
 31
0
  0
LINE
  8
1
 62
3
  6
DIVIDE
 10
-614.328724237164
 20
50.45998668461708
 30
0
 11
-614.328724237164
 21
39.39166340977206
 31
0
  0
LINE
  8
1
 62
3
  6
DIVIDE
 10
-482.30745329844
 20
50.39166340977206
 30
0
 11
-482.30745329844
 21
39.39166340977206
 31
0
  0
LINE
  8
1
 62
3
  6
DIVIDE
 10
-492.30745329844
 20
50.39166340977206
 30
0
 11
-492.30745329844
 21
39.39166340977206
 31
0
  0
LINE
  8
1
 62
3
  6
DIVIDE
 10
-485.30745329844
 20
39.39166340977206
 30
0
 11
-485.30745329844
 21
50.39166340977206
 31
0
  0
LINE
  8
1
 62
3
  6
DIVIDE
 10
-495.30745329844
 20
39.39166340977206
 30
0
 11
-495.30745329844
 21
50.39166340977206
 31
0
  0
LINE
  8
1
 62
7
 10
-513.80745329844
 20
82.89166340977207
 30
0
 11
-457.80745329844
 21
82.89166340977207
 31
0
  0
LINE
  8
1
 62
3
  6
DIVIDE
 10
-500.80745329844
 20
83.39166340977207
 30
0
 11
-500.80745329844
 21
50.39166340977206
 31
0
  0
LINE
  8
1
 62
3
  6
DIVIDE
 10
-475.80745329844
 20
83.39166340977207
 30
0
 11
-500.80745329844
 21
83.39166340977207
 31
0
  0
LINE
  8
1
 62
3
  6
DIVIDE
 10
-475.80745329844
 20
50.39166340977206
 30
0
 11
-475.80745329844
 21
83.39166340977207
 31
0
  0
LINE
  8
1
 62
3
  6
DIVIDE
 10
-500.80745329844
 20
50.39166340977206
 30
0
 11
-475.80745329844
 21
50.39166340977206
 31
0
  0
LINE
  8
1
 62
7
 10
-471.7878380561693
 20
34.99166340977207
 30
0
 11
-474.30745329844
 21
34.99166340977207
 31
0
  0
LINE
  8
1
 62
3
 10
-471.4414278946554
 20
34.39166340977208
 30
0
 11
-474.30745329844
 21
34.39166340977208
 31
0
  0
LINE
  8
1
 62
7
 10
-458.9610431369262
 20
34.39166340977208
 30
0
 11
-458.8167055696287
 21
34.14166340977208
 31
0
  0
LINE
  8
1
 62
7
 10
-458.8167055696287
 20
34.14166340977208
 30
0
 11
-415.0972688866904
 21
34.14166340977206
 31
0
  0
LINE
  8
1
 62
3
 10
-459.30745329844
 20
34.99166340977207
 30
0
 11
-458.9610431369262
 21
34.39166340977208
 31
0
  0
LINE
  8
1
 62
7
 10
-461.30745329844
 20
99.39166340977207
 30
0
 11
-461.30745329844
 21
115.8916634097721
 31
0
  0
LINE
  8
1
 62
3
 10
-458.9610431369262
 20
99.39166340977207
 30
0
 11
-459.30745329844
 21
98.79166340977207
 31
0
  0
LINE
  8
1
 62
3
 10
-472.7878380561693
 20
98.79166340977207
 30
0
 11
-459.30745329844
 21
98.79166340977207
 31
0
  0
LINE
  8
1
 62
7
 10
-472.4414278946554
 20
99.39166340977207
 30
0
 11
-458.9610431369262
 21
99.39166340977207
 31
0
  0
LINE
  8
1
 62
7
 10
-458.30745329844
 20
108.8916634097721
 30
0
 11
-458.30745329844
 21
99.64166340977207
 31
0
  0
LINE
  8
1
 62
7
 10
-461.30745329844
 20
33.39166340977206
 30
0
 11
-458.30745329844
 21
33.39166340977206
 31
0
  0
LINE
  8
1
 62
7
 10
-461.30745329844
 20
34.39166340977208
 30
0
 11
-461.30745329844
 21
33.39166340977206
 31
0
  0
LINE
  8
1
 62
7
 10
-458.30745329844
 20
100.3916634097721
 30
0
 11
-461.30745329844
 21
100.3916634097721
 31
0
  0
LINE
  8
1
 62
7
 10
-459.7074532984399
 20
110.2916634097721
 30
0
 11
-458.30745329844
 21
108.8916634097721
 31
0
  0
LINE
  8
1
 62
7
 10
-501.80745329844
 20
22.89166340977207
 30
0
 11
-498.30745329844
 21
22.89166340977207
 31
0
  0
LINE
  8
1
 62
7
 10
-501.80745329844
 20
110.8916634097721
 30
0
 11
-498.30745329844
 21
110.8916634097721
 31
0
  0
LINE
  8
1
 62
7
 10
-466.30745329844
 20
30.91238935193573
 30
0
 11
-462.80745329844
 21
28.89166340977204
 31
0
  0
LINE
  8
1
 62
7
 10
-469.80745329844
 20
28.89166340977204
 30
0
 11
-466.30745329844
 21
30.91238935193573
 31
0
  0
LINE
  8
1
 62
7
 10
-462.80745329844
 20
28.89166340977204
 30
0
 11
-462.80745329844
 21
22.89166340977204
 31
0
  0
LINE
  8
1
 62
7
 10
-469.80745329844
 20
28.89166340977204
 30
0
 11
-462.80745329844
 21
28.89166340977204
 31
0
  0
LINE
  8
1
 62
7
 10
-469.80745329844
 20
22.89166340977204
 30
0
 11
-469.80745329844
 21
28.89166340977204
 31
0
  0
LINE
  8
1
 62
7
 10
-460.30745329844
 20
22.891663409772
 30
0
 11
-458.30745329844
 21
24.89166340977204
 31
0
  0
LINE
  8
1
 62
7
 10
-477.30745329844
 20
22.89166340977205
 30
0
 11
-460.30745329844
 21
22.891663409772
 31
0
  0
LINE
  8
1
 62
7
 10
-458.30745329844
 20
24.89166340977204
 30
0
 11
-458.30745329844
 21
34.14166340977208
 31
0
  0
LINE
  8
1
 62
7
 10
-459.7074532984399
 20
100.8916634097721
 30
0
 11
-459.7074532984399
 21
115.8916634097721
 31
0
  0
LINE
  8
1
 62
7
 10
-477.30745329844
 20
97.89166340977207
 30
0
 11
-477.30745329844
 21
115.3916634097721
 31
0
  0
LINE
  8
1
 62
3
 10
-477.30745329844
 20
38.99166340977206
 30
0
 11
-498.30745329844
 21
18.39166340977204
 31
0
  0
LINE
  8
1
 62
3
 10
-498.30745329844
 20
38.99166340977206
 30
0
 11
-477.30745329844
 21
18.39166340977204
 31
0
  0
LINE
  8
1
 62
7
 10
-500.30745329844
 20
35.89166340977208
 30
0
 11
-512.80745329844
 21
35.89166340977208
 31
0
  0
LINE
  8
1
 62
7
 10
-500.30745329844
 20
34.89166340977205
 30
0
 11
-500.30745329844
 21
38.99166340977206
 31
0
  0
LINE
  8
1
 62
7
 10
-500.30745329844
 20
34.89166340977205
 30
0
 11
-503.80745329844
 21
31.39166340977204
 31
0
  0
LINE
  8
1
 62
7
 10
-498.30745329844
 20
18.39166340977204
 30
0
 11
-498.30745329844
 21
38.99166340977206
 31
0
  0
LINE
  8
1
 62
7
 10
-477.30745329844
 20
18.39166340977204
 30
0
 11
-498.30745329844
 21
18.39166340977204
 31
0
  0
LINE
  8
1
 62
7
 10
-501.80745329844
 20
22.89166340977207
 30
0
 11
-503.80745329844
 21
24.89166340977206
 31
0
  0
LINE
  8
1
 62
7
 10
-503.80745329844
 20
35.89166340977208
 30
0
 11
-503.80745329844
 21
24.89166340977206
 31
0
  0
LINE
  8
1
 62
7
 10
-503.80745329844
 20
108.8916634097721
 30
0
 11
-501.80745329844
 21
110.8916634097721
 31
0
  0
LINE
  8
1
 62
7
 10
-500.30745329844
 20
98.89166340977207
 30
0
 11
-500.30745329844
 21
97.89166340977207
 31
0
  0
LINE
  8
1
 62
7
 10
-503.80745329844
 20
102.3916634097721
 30
0
 11
-500.30745329844
 21
98.89166340977207
 31
0
  0
LINE
  8
1
 62
7
 10
-503.80745329844
 20
108.8916634097721
 30
0
 11
-503.80745329844
 21
98.62673727624657
 31
0
  0
LINE
  8
1
 62
3
 10
-477.30745329844
 20
115.3916634097721
 30
0
 11
-498.30745329844
 21
97.89166340977207
 31
0
  0
LINE
  8
1
 62
3
 10
-498.30745329844
 20
115.3916634097721
 30
0
 11
-477.30745329844
 21
97.89166340977207
 31
0
  0
LINE
  8
1
 62
7
 10
-498.30745329844
 20
115.3916634097721
 30
0
 11
-498.30745329844
 21
97.89166340977207
 31
0
  0
LINE
  8
1
 62
7
 10
-498.30745329844
 20
115.3916634097721
 30
0
 11
-477.30745329844
 21
115.3916634097721
 31
0
  0
LINE
  8
1
 62
7
 10
-470.1074532984399
 20
108.3916634097721
 30
0
 11
-461.30745329844
 21
108.3916634097721
 31
0
  0
LINE
  8
1
 62
7
 10
-470.1074532984399
 20
109.3916634097721
 30
0
 11
-470.1074532984399
 21
102.3916634097721
 31
0
  0
LINE
  8
1
 62
7
 10
-463.30745329844
 20
109.3916634097721
 30
0
 11
-474.30745329844
 21
109.3916634097721
 31
0
  0
LINE
  8
1
 62
3
 10
-459.30745329844
 20
34.99166340977207
 30
0
 11
-471.7878380561693
 21
34.99166340977207
 31
0
  0
LINE
  8
1
 62
7
 10
-474.30745329844
 20
98.79166340977207
 30
0
 11
-472.7878380561693
 21
98.79166340977207
 31
0
  0
LINE
  8
1
 62
3
 10
-474.30745329844
 20
99.39166340977207
 30
0
 11
-472.4414278946554
 21
99.39166340977207
 31
0
  0
LINE
  8
1
 62
7
 10
-461.30745329844
 20
110.8916634097721
 30
0
 11
-477.30745329844
 21
110.8916634097721
 31
0
  0
LINE
  8
1
 62
7
 10
-461.30745329844
 20
100.8916634097721
 30
0
 11
-459.7074532984399
 21
100.8916634097721
 31
0
  0
LINE
  8
1
 62
7
 10
-461.30745329844
 20
115.8916634097721
 30
0
 11
-459.7074532984399
 21
115.8916634097721
 31
0
  0
LINE
  8
1
 62
7
 10
-461.30745329844
 20
103.3916634097721
 30
0
 11
-470.1074532984399
 21
103.3916634097721
 31
0
  0
LINE
  8
1
 62
7
 10
-474.30745329844
 20
102.3916634097721
 30
0
 11
-463.30745329844
 21
102.3916634097721
 31
0
  0
LINE
  8
1
 62
7
 10
-477.30745329844
 20
24.89166340977206
 30
0
 11
-474.30745329844
 21
24.89166340977206
 31
0
  0
LINE
  8
1
 62
7
 10
-477.30745329844
 20
30.89166340977207
 30
0
 11
-474.30745329844
 21
30.89166340977207
 31
0
  0
LINE
  8
1
 62
7
 10
-474.30745329844
 20
38.99166340977206
 30
0
 11
-500.30745329844
 21
38.99166340977206
 31
0
  0
LINE
  8
1
 62
7
 10
-474.30745329844
 20
22.89166340977204
 30
0
 11
-474.30745329844
 21
38.99166340977206
 31
0
  0
LINE
  8
1
 62
7
 10
-477.30745329844
 20
38.99166340977206
 30
0
 11
-477.30745329844
 21
18.39166340977204
 31
0
  0
LINE
  8
1
 62
7
 10
-477.30745329844
 20
102.8916634097721
 30
0
 11
-474.30745329844
 21
102.8916634097721
 31
0
  0
LINE
  8
1
 62
7
 10
-477.30745329844
 20
108.8916634097721
 30
0
 11
-474.30745329844
 21
108.8916634097721
 31
0
  0
LINE
  8
1
 62
7
 10
-474.30745329844
 20
97.89166340977207
 30
0
 11
-474.30745329844
 21
110.8916634097721
 31
0
  0
LINE
  8
1
 62
3
  6
DIVIDE
 10
-456.30745329844
 20
102.6416634097721
 30
0
 11
-407.30745329844
 21
102.6416634097721
 31
0
  0
LINE
  8
1
 62
3
  6
DIVIDE
 10
-407.30745329844
 20
96.14166340977207
 30
0
 11
-407.30745329844
 21
102.6416634097721
 31
0
  0
LINE
  8
1
 62
3
  6
DIVIDE
 10
-456.30745329844
 20
96.14166340977207
 30
0
 11
-407.30745329844
 21
96.14166340977207
 31
0
  0
LINE
  8
1
 62
3
  6
DIVIDE
 10
-456.30745329844
 20
96.14166340977207
 30
0
 11
-456.30745329844
 21
102.6416634097721
 31
0
  0
LINE
  8
1
 62
7
 10
-503.405625515177
 20
97.89166340977207
 30
0
 11
-473.30745329844
 21
97.89166340977207
 31
0
  0
LINE
  8
1
 62
7
 10
-507.0521594165019
 20
86.3981851597098
 30
0
 11
-445.7728540102549
 21
89.53111795248529
 31
0
  0
LINE
  8
1
 62
7
 10
-512.80745329844
 20
39.39166340977206
 30
0
 11
-471.80745329844
 21
39.39166340977206
 31
0
  0
LINE
  8
1
 62
7
 10
-512.80745329844
 20
43.39166340977206
 30
0
 11
-512.80745329844
 21
35.89166340977208
 31
0
  0
LINE
  8
1
 62
7
 10
-512.80745329844
 20
43.39166340977206
 30
0
 11
-513.80745329844
 21
44.39166340977206
 31
0
  0
LINE
  8
1
 62
7
 10
-513.80745329844
 20
44.39166340977206
 30
0
 11
-513.80745329844
 21
89.39166340977207
 31
0
  0
LINE
  8
1
 62
7
 10
-513.80745329844
 20
89.39166340977207
 30
0
 11
-512.80745329844
 21
90.39166340977207
 31
0
  0
LINE
  8
1
 62
7
 10
-512.80745329844
 20
97.89166340977207
 30
0
 11
-511.2842485340809
 21
97.89166340977207
 31
0
  0
LINE
  8
1
 62
7
 10
-512.80745329844
 20
97.89166340977207
 30
0
 11
-512.80745329844
 21
90.39166340977207
 31
0
  0
LINE
  8
1
 62
7
 10
-433.80745329844
 20
28.39166340977207
 30
0
 11
-451.80745329844
 21
28.39166340977207
 31
0
  0
LINE
  8
1
 62
7
 10
-472.30745329844
 20
35.89166340977208
 30
0
 11
-471.4414278946554
 21
34.39166340977208
 31
0
  0
LINE
  8
1
 62
7
 10
-471.4414278946554
 20
34.39166340977208
 30
0
 11
-458.9610431369262
 21
34.39166340977208
 31
0
  0
LINE
  8
1
 62
7
 10
-472.30745329844
 20
35.89166340977208
 30
0
 11
-474.30745329844
 21
35.89166340977208
 31
0
  0
LINE
  8
1
 62
7
 10
-458.9610431369262
 20
99.39166340977207
 30
0
 11
-458.8167055696287
 21
99.64166340977207
 31
0
  0
LINE
  8
1
 62
7
 10
-472.4414278946554
 20
99.39166340977207
 30
0
 11
-473.30745329844
 21
97.89166340977207
 31
0
  0
LINE
  8
1
 62
7
 10
-513.80745329844
 20
85.89166340977207
 30
0
 11
-455.80745329844
 21
85.89166340977207
 31
0
  0
LINE
  8
1
 62
7
 10
-433.80745329844
 20
105.3916634097721
 30
0
 11
-433.80745329844
 21
111.8916634097721
 31
0
  0
LINE
  8
1
 62
7
 10
-432.80745329844
 20
112.8916634097721
 30
0
 11
-433.80745329844
 21
111.8916634097721
 31
0
  0
LINE
  8
1
 62
7
 10
-451.80745329844
 20
111.8916634097721
 30
0
 11
-452.80745329844
 21
112.8916634097721
 31
0
  0
LINE
  8
1
 62
7
 10
-455.80745329844
 20
112.8916634097721
 30
0
 11
-457.80745329844
 21
110.8916634097721
 31
0
  0
LINE
  8
1
 62
7
 10
-451.80745329844
 20
111.8916634097721
 30
0
 11
-451.80745329844
 21
105.3916634097721
 31
0
  0
LINE
  8
1
 62
7
 10
-455.80745329844
 20
112.8916634097721
 30
0
 11
-452.80745329844
 21
112.8916634097721
 31
0
  0
LINE
  8
1
 62
7
 10
-457.80745329844
 20
99.64166340977207
 30
0
 11
-457.80745329844
 21
110.8916634097721
 31
0
  0
LINE
  8
1
 62
7
 10
-427.80745329844
 20
110.8916634097721
 30
0
 11
-427.80745329844
 21
99.64166340977207
 31
0
  0
LINE
  8
1
 62
7
 10
-432.80745329844
 20
112.8916634097721
 30
0
 11
-429.80745329844
 21
112.8916634097721
 31
0
  0
LINE
  8
1
 62
7
 10
-497.9706260393451
 20
94.90496951506042
 30
0
 11
-458.3342414850866
 21
92.90477427779642
 31
0
  0
LINE
  8
1
 62
7
 10
-509.9335035332752
 20
105.9210770305663
 30
0
 11
-512.2381715576283
 21
92.22113158186015
 31
0
  0
LINE
  8
1
 62
7
 10
-427.80745329844
 20
34.14166340977208
 30
0
 11
-427.80745329844
 21
22.89166340977209
 31
0
  0
LINE
  8
1
 62
7
 10
-429.80745329844
 20
20.89166340977209
 30
0
 11
-432.80745329844
 21
20.89166340977209
 31
0
  0
LINE
  8
1
 62
7
 10
-433.80745329844
 20
21.89166340977209
 30
0
 11
-433.80745329844
 21
28.39166340977207
 31
0
  0
LINE
  8
1
 62
7
 10
-433.80745329844
 20
21.89166340977209
 30
0
 11
-432.80745329844
 21
20.89166340977209
 31
0
  0
LINE
  8
1
 62
7
 10
-452.80745329844
 20
20.89166340977209
 30
0
 11
-451.80745329844
 21
21.89166340977209
 31
0
  0
LINE
  8
1
 62
7
 10
-451.80745329844
 20
28.39166340977207
 30
0
 11
-451.80745329844
 21
21.89166340977209
 31
0
  0
LINE
  8
1
 62
7
 10
-457.80745329844
 20
22.89166340977209
 30
0
 11
-455.80745329844
 21
20.89166340977209
 31
0
  0
LINE
  8
1
 62
7
 10
-452.80745329844
 20
20.89166340977209
 30
0
 11
-455.80745329844
 21
20.89166340977209
 31
0
  0
LINE
  8
1
 62
7
 10
-457.80745329844
 20
22.89166340977209
 30
0
 11
-457.80745329844
 21
34.14166340977208
 31
0
  0
LINE
  8
1
 62
7
 10
-451.80745329844
 20
105.3916634097721
 30
0
 11
-433.80745329844
 21
105.3916634097721
 31
0
  0
LINE
  8
1
 62
3
  6
DASHDOT
 10
-442.80745329844
 20
108.3916634097721
 30
0
 11
-442.80745329844
 21
96.64166340977205
 31
0
  0
LINE
  8
1
 62
3
  6
DASHDOT
 10
-518.80745329844
 20
66.89166340977207
 30
0
 11
-513.80745329844
 21
66.89166340977207
 31
0
  0
LINE
  8
1
 62
7
 10
-600.6300400835933
 20
61.89166340977204
 30
0
 11
-596.328724237164
 21
61.89166340977204
 31
0
  0
LINE
  8
1
 62
7
 10
-596.328724237164
 20
61.89166340977204
 30
0
 11
-596.328724237164
 21
71.89166340977204
 31
0
  0
LINE
  8
1
 62
7
 10
-596.328724237164
 20
71.89166340977204
 30
0
 11
-600.6300400835933
 21
71.89166340977204
 31
0
  0
LINE
  8
1
 62
7
 10
-620.328724237164
 20
108.4233961273135
 30
0
 11
-620.328724237164
 21
85.89166340977207
 31
0
  0
LINE
  8
1
 62
7
 10
-620.328724237164
 20
85.89166340977207
 30
0
 11
-611.328724237164
 21
85.89166340977207
 31
0
  0
LINE
  8
1
 62
7
 10
-611.328724237164
 20
85.89166340977207
 30
0
 11
-611.328724237164
 21
108.4233961273135
 31
0
  0
LINE
  8
1
 62
7
 10
-611.328724237164
 20
108.4233961273135
 30
0
 11
-620.328724237164
 21
108.4233961273135
 31
0
  0
LINE
  8
1
 62
7
 10
-620.328724237164
 20
86.39166340977207
 30
0
 11
-611.328724237164
 21
86.39166340977207
 31
0
  0
LINE
  8
1
 62
7
 10
-649.5462598337402
 20
42.2286827339714
 30
0
 11
-630.0332069090683
 21
53.4945490927421
 31
0
  0
LINE
  8
1
 62
7
 10
-630.0332069090683
 20
53.4945490927421
 30
0
 11
-634.5332069090683
 21
61.28877772680205
 31
0
  0
LINE
  8
1
 62
7
 10
-634.5332069090683
 20
61.28877772680205
 30
0
 11
-654.0462598337402
 21
50.02291136803135
 31
0
  0
LINE
  8
1
 62
7
 10
-654.0462598337402
 20
50.02291136803135
 30
0
 11
-649.5462598337402
 21
42.2286827339714
 31
0
  0
LINE
  8
1
 62
7
 10
-630.4662196109606
 20
53.2445490927421
 30
0
 11
-634.9662196109606
 21
61.03877772680205
 31
0
  0
LINE
  8
1
 62
7
 10
-577.611188640588
 20
50.02291136803129
 30
0
 11
-597.1242415652597
 21
61.28877772680205
 31
0
  0
LINE
  8
1
 62
7
 10
-597.1242415652597
 20
61.28877772680205
 30
0
 11
-601.6242415652597
 21
53.4945490927421
 31
0
  0
LINE
  8
1
 62
7
 10
-601.6242415652597
 20
53.4945490927421
 30
0
 11
-582.111188640588
 21
42.22868273397134
 31
0
  0
LINE
  8
1
 62
7
 10
-582.111188640588
 20
42.22868273397134
 30
0
 11
-577.611188640588
 21
50.02291136803129
 31
0
  0
LINE
  8
1
 62
7
 10
-596.6912288633674
 20
61.03877772680201
 30
0
 11
-601.1912288633674
 21
53.24454909274206
 31
0
  0
LINE
  8
1
 62
7
 10
-620.328724237164
 20
36.22001526364207
 30
0
 11
-620.328724237164
 21
39.39166340977206
 31
0
  0
LINE
  8
1
 62
7
 10
-620.328724237164
 20
39.39166340977206
 30
0
 11
-611.328724237164
 21
39.39166340977206
 31
0
  0
LINE
  8
1
 62
7
 10
-611.328724237164
 20
39.39166340977206
 30
0
 11
-611.328724237164
 21
36.22001526364207
 31
0
  0
LINE
  8
1
 62
7
 10
-587.0162977666777
 20
78.33037316580709
 30
0
 11
-589.7630256330921
 21
76.74454909274211
 31
0
  0
LINE
  8
1
 62
7
 10
-589.7630256330921
 20
76.74454909274211
 30
0
 11
-594.2630256330921
 21
84.53877772680205
 31
0
  0
LINE
  8
1
 62
7
 10
-594.2630256330921
 20
84.53877772680205
 30
0
 11
-591.5162977666777
 21
86.12460179986704
 31
0
  0
LINE
  8
1
 62
7
 10
-640.1411507076506
 20
86.12460179986705
 30
0
 11
-637.3944228412362
 21
84.53877772680204
 31
0
  0
LINE
  8
1
 62
7
 10
-637.3944228412362
 20
84.53877772680204
 30
0
 11
-641.8944228412362
 21
76.74454909274209
 31
0
  0
LINE
  8
1
 62
7
 10
-641.8944228412362
 20
76.74454909274209
 30
0
 11
-644.6411507076506
 21
78.3303731658071
 31
0
  0
LINE
  8
1
 62
7
 10
-593.9166154715782
 20
84.7387777268021
 30
0
 11
-589.4166154715782
 21
76.94454909274214
 31
0
  0
LINE
  8
1
 62
7
 10
-642.24083300275
 20
76.94454909274214
 30
0
 11
-637.74083300275
 21
84.73877772680208
 31
0
  0
LINE
  8
1
 62
7
 10
-611.328724237164
 20
38.99166340977198
 30
0
 11
-620.328724237164
 21
38.99166340977198
 31
0
  0
LINE
  8
1
 62
7
 10
-625.078724237164
 20
110.4196716343624
 30
0
 11
-625.078724237164
 21
114.5014050599848
 31
0
  0
LINE
  8
1
 62
7
 10
-606.578724237164
 20
110.4196716343624
 30
0
 11
-606.578724237164
 21
114.5014050599848
 31
0
  0
LINE
  8
1
 62
7
 10
-658.1500851357972
 20
80.64493253706114
 30
0
 11
-661.6849699738623
 21
82.68579924987235
 31
0
  0
LINE
  8
1
 62
7
 10
-648.9000851357972
 20
96.66640250707324
 30
0
 11
-652.4349699738623
 21
98.70726921988447
 31
0
  0
LINE
  8
1
 62
7
 10
-658.1500851357972
 20
53.13839428248291
 30
0
 11
-661.6849699738623
 21
51.09752756967174
 31
0
  0
LINE
  8
1
 62
7
 10
-648.9000851357972
 20
37.11692431247081
 30
0
 11
-652.4349699738623
 21
35.07605759965962
 31
0
  0
LINE
  8
1
 62
7
 10
-625.078724237164
 20
23.36365518518169
 30
0
 11
-625.078724237164
 21
19.28192175955931
 31
0
  0
LINE
  8
1
 62
7
 10
-606.578724237164
 20
23.36365518518169
 30
0
 11
-606.578724237164
 21
19.28192175955931
 31
0
  0
LINE
  8
1
 62
7
 10
-582.7573633385308
 20
37.11692431247079
 30
0
 11
-579.2224785004657
 21
35.0760575996596
 31
0
  0
LINE
  8
1
 62
7
 10
-573.5073633385308
 20
53.1383942824829
 30
0
 11
-569.9724785004657
 21
51.09752756967171
 31
0
  0
LINE
  8
1
 62
7
 10
-573.5073633385307
 20
80.64493253706111
 30
0
 11
-569.9724785004657
 21
82.6857992498723
 31
0
  0
LINE
  8
1
 62
7
 10
-582.7573633385307
 20
96.66640250707322
 30
0
 11
-579.2224785004656
 21
98.70726921988442
 31
0
  0
LINE
  8
1
 62
7
 10
-408.5597529153852
 20
34.14166340977206
 30
0
 11
-404.7982010272513
 21
34.14166340977206
 31
0
  0
LINE
  8
1
 62
7
 10
-463.30745329844
 20
109.3916634097721
 30
0
 11
-463.30745329844
 21
108.3916634097721
 31
0
  0
LINE
  8
1
 62
7
 10
-463.30745329844
 20
102.3916634097721
 30
0
 11
-463.30745329844
 21
103.3916634097721
 31
0
  0
LINE
  8
1
 62
3
  6
DASHDOT
 10
-420.8074532984401
 20
25.39166340977204
 30
0
 11
-420.8074532984401
 21
37.14166340977208
 31
0
  0
LINE
  8
1
 62
3
  6
DASHDOT
 10
-442.80745329844
 20
37.14166340977208
 30
0
 11
-442.80745329844
 21
25.39166340977204
 31
0
  0
ARC
  8
1
 62
3
  6
DIVIDE
 10
-615.828724237164
 20
66.89166340977207
 30
0
 40
16.49999999999993
 50
260
 51
280.0000000000004
  0
ARC
  8
1
 62
3
  6
DIVIDE
 10
-615.828724237164
 20
66.89166340977207
 30
0
 40
16.49999999999989
 50
139.9999999999999
 51
160.0000000000002
  0
ARC
  8
1
 62
3
  6
DIVIDE
 10
-615.828724237164
 20
66.89166340977207
 30
0
 40
16.49999999999999
 50
20
 51
39.99999999999999
  0
ARC
  8
1
 62
7
 10
-615.828724237164
 20
66.89166340977207
 30
0
 40
22.5
 50
180
 51
198.4630409671846
  0
ARC
  8
1
 62
7
 10
-615.828724237164
 20
66.89166340977207
 30
0
 40
22.49999999999998
 50
221.5369590328153
 51
318.4630409671841
  0
ARC
  8
1
 62
7
 10
-615.828724237164
 20
66.89166340977207
 30
0
 40
22.5
 50
101.5369590328155
 51
180
  0
ARC
  8
1
 62
7
 10
-615.828724237164
 20
66.89166340977207
 30
0
 40
22.49999999999997
 50
341.5369590328151
 51
78.46304096718453
  0
ARC
  8
1
 62
7
 10
-402.3433212825358
 20
27.89166340977204
 30
0
 40
2.167143041697264
 50
136.1990206080457
 51
223.8009793919543
  0
ARC
  8
1
 62
7
 10
-405.1337837379282
 20
34.85771871148783
 30
0
 40
3.500000000000013
 50
90.06398596048261
 51
211.3905007230111
  0
ARC
  8
1
 62
7
 10
-409.6136228137525
 20
32.88102244268843
 30
0
 40
1.500000000000014
 50
275.8796124899704
 51
5.87961248997092
  0
ARC
  8
1
 62
7
 10
-407.1962088842174
 20
43.17345452988337
 30
0
 40
11.99999999999988
 50
196.3057740850108
 51
259.1262034585749
  0
ARC
  8
1
 62
7
 10
-391.80745329844
 20
134.3916634097721
 30
0
 40
40.00000000000006
 50
240.3137047686277
 51
270
  0
ARC
  8
1
 62
7
 10
-407.80745329844
 20
7.891663409772039
 30
0
 40
40.00000000000002
 50
90
 51
138.9855003342695
  0
ARC
  8
1
 62
7
 10
-355.9165508293449
 20
28.36143906161368
 30
0
 40
2.999999999999835
 50
162.2983635427395
 51
353.4037360603894
  0
ARC
  8
1
 62
7
 10
-356.30745329844
 20
42.39166340977206
 30
0
 40
5.000000000000036
 50
353.4037360603883
 51
95.87961248997181
  0
ARC
  8
1
 62
7
 10
-365.4430788013879
 20
31.402041764678
 30
0
 40
6.999999999999947
 50
5.681547714714668
 51
90.06398596048121
  0
ARC
  8
1
 62
7
 10
-365.4430788013879
 20
31.402041764678
 30
0
 40
7.000000000000179
 50
342.2983635427414
 51
5.681547714714668
  0
ARC
  8
1
 62
7
 10
-461.2715853143442
 20
105.8916634097721
 30
0
 40
2.167143041697264
 50
316.1990206080457
 51
43.80097939195425
  0
ARC
  8
1
 62
7
 10
-458.1578432966438
 20
96.40032626269297
 30
0
 40
3.500000000000015
 50
267.1110984665478
 51
28.43761322907506
  0
ARC
  8
1
 62
7
 10
-453.5821233033179
 20
98.14361993475337
 30
0
 40
1.500000000000006
 50
92.9267249960343
 51
182.9267249960354
  0
ARC
  8
1
 62
7
 10
-456.5265400179186
 20
87.98938640449563
 30
0
 40
12
 50
13.3528865910746
 51
76.17331596463849
  0
ARC
  8
1
 62
7
 10
-471.80745329844
 20
-0.6083365902279431
 30
0
 40
40.00000000000007
 50
60.31370476862762
 51
90
  0
ARC
  8
1
 62
7
 10
-455.80745329844
 20
125.8916634097721
 30
0
 40
40.00000000000003
 50
270
 51
318.9855003342696
  0
ARC
  8
1
 62
7
 10
-506.9750725777622
 20
105.4233961273135
 30
0
 40
2.999999999999926
 50
339.3454760488042
 51
170.4508485664533
  0
ARC
  8
1
 62
7
 10
-507.30745329844
 20
91.39166340977207
 30
0
 40
5.000000000000029
 50
170.4508485664523
 51
272.926724996036
  0
ARC
  8
1
 62
7
 10
-497.6178296624592
 20
101.8960734848535
 30
0
 40
6.999999999999869
 50
182.7286602207787
 51
267.1110984665446
  0
ARC
  8
1
 62
7
 10
-497.6178296624592
 20
101.8960734848535
 30
0
 40
7.000000000000035
 50
159.345476048805
 51
182.7286602207787
  0
ARC
  8
1
 62
7
 10
-615.828724237164
 20
66.89166340977207
 30
0
 40
16.00000000000008
 50
18.20995686428281
 51
341.790043135717
  0
ARC
  8
1
 62
7
 10
-615.828724237164
 20
66.89166340977207
 30
0
 40
30.9999999999999
 50
38.34661926322073
 51
81.65338073677941
  0
ARC
  8
1
 62
7
 10
-615.828724237164
 20
66.89166340977207
 30
0
 40
31.0000000000001
 50
158.3466192632207
 51
201.6533807367796
  0
ARC
  8
1
 62
7
 10
-615.828724237164
 20
66.89166340977207
 30
0
 40
30.99999999999999
 50
278.3466192632206
 51
321.6533807367791
  0
ARC
  8
1
 62
7
 10
-615.828724237164
 20
66.89166340977207
 30
0
 40
31.00000000000003
 50
218.3466192632204
 51
261.6533807367794
  0
ARC
  8
1
 62
7
 10
-615.828724237164
 20
66.89166340977207
 30
0
 40
31.00000000000003
 50
338.346619263221
 51
21.65338073677948
  0
ARC
  8
1
 62
7
 10
-615.828724237164
 20
66.89166340977207
 30
0
 40
31.00000000000001
 50
98.3466192632206
 51
141.6533807367795
  0
ARC
  8
1
 62
7
 10
-615.828724237164
 20
66.89166340977207
 30
0
 40
35.49999999999997
 50
337.2824374797786
 51
82.71756252022171
  0
ARC
  8
1
 62
7
 10
-615.828724237164
 20
66.89166340977207
 30
0
 40
35.49999999999999
 50
217.2824374797781
 51
322.7175625202213
  0
ARC
  8
1
 62
7
 10
-615.828724237164
 20
66.89166340977207
 30
0
 40
35.50000000000003
 50
97.2824374797783
 51
202.7175625202219
  0
ARC
  8
1
 62
7
 10
-615.828724237164
 20
66.89166340977207
 30
0
 40
31.99999999999996
 50
218.0840139070992
 51
321.9159860929003
  0
ARC
  8
1
 62
7
 10
-615.828724237164
 20
66.89166340977207
 30
0
 40
31.99999999999995
 50
338.0840139070996
 51
81.91598609290071
  0
ARC
  8
1
 62
7
 10
-615.828724237164
 20
66.89166340977207
 30
0
 40
32.00000000000003
 50
98.08401390709929
 51
201.9159860929009
  0
ARC
  8
1
 62
7
 10
-615.828724237164
 20
66.89166340977207
 30
0
 40
48.50000000000002
 50
79.00509817554163
 51
100.9949018244584
  0
ARC
  8
1
 62
7
 10
-615.828724237164
 20
66.89166340977207
 30
0
 40
44.50000000000007
 50
41.99727493403527
 51
78.00272506596458
  0
ARC
  8
1
 62
7
 10
-615.828724237164
 20
66.89166340977207
 30
0
 40
48.49999999999998
 50
139.0050981755416
 51
160.9949018244584
  0
ARC
  8
1
 62
7
 10
-615.828724237164
 20
66.89166340977207
 30
0
 40
48.5
 50
199.0050981755417
 51
220.9949018244584
  0
ARC
  8
1
 62
7
 10
-615.828724237164
 20
66.89166340977207
 30
0
 40
48.50000000000004
 50
259.0050981755417
 51
280.9949018244584
  0
ARC
  8
1
 62
7
 10
-615.828724237164
 20
66.89166340977207
 30
0
 40
48.50000000000002
 50
319.0050981755416
 51
340.9949018244583
  0
ARC
  8
1
 62
7
 10
-615.828724237164
 20
66.89166340977207
 30
0
 40
48.49999999999996
 50
19.00509817554156
 51
40.99490182445824
  0
ARC
  8
1
 62
7
 10
-615.828724237164
 20
66.89166340977207
 30
0
 40
44.50000000000005
 50
101.9972749340354
 51
138.0027250659646
  0
ARC
  8
1
 62
7
 10
-615.828724237164
 20
66.89166340977207
 30
0
 40
44.50000000000003
 50
161.9972749340355
 51
198.0027250659647
  0
ARC
  8
1
 62
7
 10
-615.828724237164
 20
66.89166340977207
 30
0
 40
44.50000000000006
 50
221.9972749340355
 51
258.0027250659646
  0
ARC
  8
1
 62
7
 10
-615.828724237164
 20
66.89166340977207
 30
0
 40
44.50000000000009
 50
281.9972749340354
 51
318.0027250659645
  0
ARC
  8
1
 62
7
 10
-615.828724237164
 20
66.89166340977207
 30
0
 40
44.50000000000006
 50
341.9972749340353
 51
18.00272506596446
  0
CIRCLE
  8
1
 62
7
 10
-356.30745329844
 20
42.39166340977206
 30
0
 40
2.75
  0
CIRCLE
  8
1
 62
7
 10
-507.30745329844
 20
91.39166340977207
 30
0
 40
2.75
  0
CIRCLE
  8
1
 62
7
 10
-615.828724237164
 20
66.89166340977207
 30
0
 40
44.00000000000003
  0
CIRCLE
  8
1
 62
7
 10
-615.828724237164
 20
66.89166340977207
 30
0
 40
42.00000000000003
  0
ARC
  8
1
 62
3
  6
DIVIDE
 10
-407.8074532984401
 20
22.89166340977204
 30
0
 40
2
 50
270
 51
0
  0
ARC
  8
1
 62
3
  6
DIVIDE
 10
-407.8074532984401
 20
110.8916634097721
 30
0
 40
2
 50
0
 51
90
  0
ARC
  8
1
 62
7
 10
-417.7537559107279
 20
40.08505676032422
 30
0
 40
1.000000000000002
 50
95.87961248997702
 51
196.3057740850128
  0
ARC
  8
1
 62
7
 10
-445.8239127866426
 20
90.52981360249774
 30
0
 40
1.000000000000001
 50
272.9267249960419
 51
13.35288659107516
  0
ARC
  8
1
 62
7
 10
-429.80745329844
 20
110.8916634097721
 30
0
 40
2
 50
0
 51
90
  0
ARC
  8
1
 62
7
 10
-429.80745329844
 20
22.89166340977209
 30
0
 40
2
 50
270
 51
0
  0
TEXT
  8
1
 62
7
 10
-630.882871149059
 20
140.579275637674
 30
0
 40
5
  1
OD 357
 41
0.9
  7
SIMPLEX
 72
1
 11
-617.382871149059
 21
140.579275637674
 31
0
  0
ENDSEC
  0
EOF
