  0
SECTION
  2
HEADER
  9
$ACADVER
  1
AC1009
  9
$INSBASE
 10
0
 20
0
  9
$EXTMIN
 10
159.5633280640001
 20
411.9301289285298
  9
$EXTMAX
 10
589.4466056108245
 20
622.1016558911449
  9
$LIMMIN
 10
159.5633280640001
 20
411.9301289285298
  9
$LIMMAX
 10
589.4466056108245
 20
622.1016558911449
  9
$VIEWCTR
 10
10
 20
10
  9
$VIEWSIZE
 40
10
  9
$SNAPMODE
 70
0
  9
$SNAPUNIT
 10
1
 20
1
  9
$SNAPBASE
 10
0
 20
0
  9
$SNAPANG
 50
0
  9
$SNAPSTYLE
 70
0
  9
$SNAPISOPAIR
 70
0
  9
$GRIDMODE
 70
0
  9
$GRIDUNIT
 10
0
 20
0
  9
$ORTHOMODE
 70
0
  9
$REGENMODE
 70
1
  9
$FILLMODE
 70
1
  9
$QTEXTMODE
 70
0
  9
$DRAGMODE
 70
2
  9
$LTSCALE
 40
1
  9
$OSMODE
 70
0
  9
$ATTMODE
 70
1
  9
$TEXTSIZE
 40
3.5
  9
$TRACEWID
 40
0.5
  9
$TEXTSTYLE
  7
STANDARD
  9
$CLAYER
  8
0
  9
$CELTYPE
  6
BYLAYER
  9
$CECOLOR
 62
256
  9
$DIMSCALE
 40
1
  9
$DIMASZ
 40
0.18
  9
$DIMEXO
 40
0.0625
  9
$DIMDLI
 40
0.38
  9
$DIMRND
 40
0
  9
$DIMDLE
 40
0
  9
$DIMEXE
 40
0.18
  9
$DIMTP
 40
0
  9
$DIMTM
 40
0
  9
$DIMTXT
 40
0.18
  9
$DIMCEN
 40
0.09
  9
$DIMTSZ
 40
0
  9
$DIMTOL
 70
0
  9
$DIMLIM
 70
0
  9
$DIMTIH
 70
1
  9
$DIMTOH
 70
1
  9
$DIMSE1
 70
0
  9
$DIMSE2
 70
0
  9
$DIMTAD
 70
0
  9
$DIMZIN
 70
0
  9
$DIMBLK
  1

  9
$DIMASO
 70
1
  9
$DIMSHO
 70
1
  9
$DIMPOST
  1

  9
$DIMAPOST
  1

  9
$DIMALT
 70
0
  9
$DIMALTD
 70
2
  9
$DIMALTF
 40
25.4
  9
$DIMLFAC
 40
1
  9
$DIMTOFL
 70
0
  9
$DIMTVP
 40
0
  9
$DIMTIX
 70
0
  9
$DIMSOXD
 70
0
  9
$DIMSAH
 70
0
  9
$DIMBLK1
  1

  9
$DIMBLK2
  1

  9
$DIMSTYLE
  2
*UNNAMED
  9
$DIMCLRD
 70
0
  9
$DIMCLRE
 70
0
  9
$DIMCLRT
 70
0
  9
$DIMTFAC
 40
1
  9
$DIMGAP
 40
0.09
  9
$LUNITS
 70
2
  9
$LUPREC
 70
4
  9
$AXISMODE
 70
0
  9
$AXISUNIT
 10
0
 20
0
  9
$SKETCHINC
 40
0.1
  9
$FILLETRAD
 40
2
  9
$AUNITS
 70
0
  9
$AUPREC
 70
0
  9
$MENU
  1
ACAD
  9
$ELEVATION
 40
0
  9
$THICKNESS
 40
0
  9
$VIEWDIR
 10
0
 20
0
 30
1
  9
$LIMCHECK
 70
0
  9
$BLIPMODE
 70
1
  9
$CHAMFERA
 40
0
  9
$CHAMFERB
 40
0
  9
$FASTZOOM
 70
1
  9
$SKPOLY
 70
0
  9
$ANGBASE
 50
0
  9
$ANGDIR
 70
0
  9
$PDMODE
 70
0
  9
$PDSIZE
 40
0
  9
$PLINEWID
 40
0
  9
$COORDS
 70
2
  0
ENDSEC
  0
SECTION
  2
TABLES
  0
TABLE
  2
DIMSTYLE
 70
0
  0
ENDTAB
  0
TABLE
  2
LTYPE
 70
9
  0
LTYPE
  2
CONTINUOUS
 70
64
  3
Solid line
 72
65
 73
0
 40
0
  0
LTYPE
  2
BORDER
 70
64
  3
__ __ . __ __ .
 72
65
 73
6
 40
19.79725620281428
 49
5.656358915089794
 49
-2.828179457544897
 49
5.656358915089794
 49
-2.828179457544897
 49
0
 49
-2.828179457544897
  0
LTYPE
  2
CENTER
 70
64
  3
____ _ ____ _
 72
65
 73
4
 40
22.62543566035918
 49
14.14089728772449
 49
-2.828179457544897
 49
2.828179457544897
 49
-2.828179457544897
  0
LTYPE
  2
DASHDOT
 70
64
  3
__ . __ . __ .
 72
65
 73
4
 40
11.31271783017959
 49
5.656358915089794
 49
-2.828179457544897
 49
0
 49
-2.828179457544897
  0
LTYPE
  2
DASHED
 70
64
  3
__ __ __ __ __
 72
65
 73
2
 40
8.484538372634692
 49
5.656358915089794
 49
-2.828179457544897
  0
LTYPE
  2
DIVIDE
 70
64
  3
__ . . __ . . 
 72
65
 73
6
 40
14.14089728772449
 49
5.656358915089794
 49
-2.828179457544897
 49
0
 49
-2.828179457544897
 49
0
 49
-2.828179457544897
  0
LTYPE
  2
DOT
 70
64
  3
..............
 72
65
 73
4
 40
5.656358915089794
 49
0
 49
-2.828179457544897
 49
0
 49
-2.828179457544897
  0
LTYPE
  2
HIDDEN
 70
64
  3
_ _ _ _ _ _ _
 72
65
 73
2
 40
4.242269186317346
 49
2.828179457544897
 49
-1.414089728772449
  0
LTYPE
  2
PHANTOM
 70
64
  3
_____ _ _ _____ _ _ 
 72
65
 73
6
 40
28.28179457544897
 49
14.14089728772449
 49
-2.828179457544897
 49
2.828179457544897
 49
-2.828179457544897
 49
2.828179457544897
 49
-2.828179457544897
  0
ENDTAB
  0
TABLE
  2
LAYER
 70
3
  0
LAYER
  2
1
 70
0
 62
7
  6
CONTINUOUS
  0
LAYER
  2
0
 70
0
 62
7
  6
CONTINUOUS
  0
ENDTAB
  0
TABLE
  2
STYLE
 70
4
  0
STYLE
  2
STANDARD
 70
0
 40
0
 41
1
 50
0
 71
0
 42
3.5
  3
txt
  4

  0
STYLE
  2
SIMPLEX
 70
0
 40
0
 41
1
 50
0
 71
0
 42
3.5
  3
simplex
  4

  0
STYLE
  2
COMPLEX
 70
0
 40
0
 41
1
 50
0
 71
0
 42
3.5
  3
complex
  4

  0
STYLE
  2
ITALIC
 70
0
 40
0
 41
1
 50
0
 71
0
 42
3.5
  3
italic
  4

  0
ENDTAB
  0
TABLE
  2
VIEW
 70
0
  0
ENDTAB
  0
ENDSEC
  0
SECTION
  2
BLOCKS
  0
ENDSEC
  0
SECTION
  2
ENTITIES
  0
LINE
  8
1
 62
3
  6
DIVIDE
 10
475.9466056108244
 20
439.6801289285301
 30
0
 11
475.9466056108244
 21
421.4301289285299
 31
0
  0
LINE
  8
1
 62
3
  6
DIVIDE
 10
511.9466056108244
 20
439.6801289285298
 30
0
 11
511.9466056108244
 21
421.4301289285298
 31
0
  0
LINE
  8
1
 62
3
  6
DIVIDE
 10
509.4466056108244
 20
418.9301289285298
 30
0
 11
511.9466056108244
 21
421.4301289285298
 31
0
  0
LINE
  8
1
 62
3
  6
DIVIDE
 10
506.4466056108244
 20
418.9301289285298
 30
0
 11
509.4466056108244
 21
418.9301289285298
 31
0
  0
LINE
  8
1
 62
3
  6
DIVIDE
 10
504.9466056108244
 20
420.4301289285298
 30
0
 11
506.4466056108244
 21
418.9301289285298
 31
0
  0
LINE
  8
1
 62
3
  6
DIVIDE
 10
504.9466056108244
 20
430.6034411407237
 30
0
 11
504.9466056108244
 21
420.4301289285298
 31
0
  0
LINE
  8
1
 62
3
  6
DIVIDE
 10
502.1466056108245
 20
431.4301289285298
 30
0
 11
502.5466056108245
 21
431.8301289285297
 31
0
  0
LINE
  8
1
 62
3
  6
DIVIDE
 10
502.5466056108245
 20
431.8301289285297
 30
0
 11
504.8466056108245
 21
431.8301289285297
 31
0
  0
LINE
  8
1
 62
3
  6
DIVIDE
 10
504.9466056108244
 20
428.9301289285298
 30
0
 11
505.3466056108245
 21
429.3301289285297
 31
0
  0
LINE
  8
1
 62
3
  6
DIVIDE
 10
505.3466056108245
 20
429.3301289285297
 30
0
 11
505.3466056108245
 21
431.3301289285297
 31
0
  0
LINE
  8
1
 62
3
  6
DIVIDE
 10
485.7466056108244
 20
431.4301289285298
 30
0
 11
502.1466056108245
 21
431.4301289285298
 31
0
  0
LINE
  8
1
 62
3
  6
DIVIDE
 10
485.3466056108244
 20
431.8301289285297
 30
0
 11
485.7466056108244
 21
431.4301289285298
 31
0
  0
LINE
  8
1
 62
3
  6
DIVIDE
 10
483.0466056108244
 20
431.8301289285297
 30
0
 11
485.3466056108244
 21
431.8301289285297
 31
0
  0
LINE
  8
1
 62
3
  6
DIVIDE
 10
482.5466056108244
 20
429.3301289285297
 30
0
 11
482.9466056108244
 21
428.9301289285298
 31
0
  0
LINE
  8
1
 62
3
  6
DIVIDE
 10
482.5466056108244
 20
431.3301289285297
 30
0
 11
482.5466056108244
 21
429.3301289285297
 31
0
  0
LINE
  8
1
 62
3
  6
DIVIDE
 10
482.9466056108244
 20
430.6034411407237
 30
0
 11
482.9466056108244
 21
420.4301289285298
 31
0
  0
LINE
  8
1
 62
3
  6
DIVIDE
 10
482.9466056108244
 20
420.4301289285298
 30
0
 11
481.4466056108244
 21
418.9301289285298
 31
0
  0
LINE
  8
1
 62
3
  6
DIVIDE
 10
481.4466056108244
 20
418.9301289285298
 30
0
 11
478.4466056108244
 21
418.9301289285298
 31
0
  0
LINE
  8
1
 62
7
  6
DIVIDE
 10
475.9466056108244
 20
421.4301289285299
 30
0
 11
478.4466056108244
 21
418.9301289285298
 31
0
  0
LINE
  8
1
 62
3
  6
DASHDOT
 10
493.9466056108244
 20
442.5600461038466
 30
0
 11
493.9466056108244
 21
416.5600461038466
 31
0
  0
LINE
  8
1
 62
3
  6
DASHDOT
 10
457.9466056108244
 20
442.5600461038466
 30
0
 11
457.9466056108244
 21
416.5600461038466
 31
0
  0
LINE
  8
1
 62
3
  6
DIVIDE
 10
511.9466056108244
 20
556.4301289285298
 30
0
 11
511.9466056108244
 21
538.1801289285298
 31
0
  0
LINE
  8
1
 62
3
  6
DIVIDE
 10
511.9466056108244
 20
556.4301289285298
 30
0
 11
509.4466056108244
 21
558.9301289285298
 31
0
  0
LINE
  8
1
 62
3
  6
DIVIDE
 10
509.4466056108244
 20
558.9301289285298
 30
0
 11
506.4466056108244
 21
558.9301289285298
 31
0
  0
LINE
  8
1
 62
3
  6
DIVIDE
 10
506.4466056108244
 20
558.9301289285298
 30
0
 11
504.9466056108244
 21
557.4301289285298
 31
0
  0
LINE
  8
1
 62
3
  6
DIVIDE
 10
504.9466056108244
 20
557.4301289285298
 30
0
 11
504.9466056108244
 21
547.256816716336
 31
0
  0
LINE
  8
1
 62
3
  6
DIVIDE
 10
502.5466056108245
 20
546.03012892853
 30
0
 11
502.1466056108245
 21
546.4301289285298
 31
0
  0
LINE
  8
1
 62
3
  6
DIVIDE
 10
504.8466056108245
 20
546.03012892853
 30
0
 11
502.5466056108245
 21
546.03012892853
 31
0
  0
LINE
  8
1
 62
3
  6
DIVIDE
 10
505.3466056108245
 20
548.53012892853
 30
0
 11
504.9466056108244
 21
548.9301289285298
 31
0
  0
LINE
  8
1
 62
3
  6
DIVIDE
 10
505.3466056108245
 20
546.53012892853
 30
0
 11
505.3466056108245
 21
548.53012892853
 31
0
  0
LINE
  8
1
 62
3
  6
DIVIDE
 10
502.1466056108245
 20
546.4301289285298
 30
0
 11
485.7466056108244
 21
546.4301289285298
 31
0
  0
LINE
  8
1
 62
3
  6
DIVIDE
 10
485.7466056108244
 20
546.4301289285298
 30
0
 11
485.3466056108244
 21
546.03012892853
 31
0
  0
LINE
  8
1
 62
3
  6
DIVIDE
 10
485.3466056108244
 20
546.03012892853
 30
0
 11
483.0466056108244
 21
546.03012892853
 31
0
  0
LINE
  8
1
 62
3
  6
DIVIDE
 10
482.9466056108244
 20
548.9301289285298
 30
0
 11
482.5466056108244
 21
548.53012892853
 31
0
  0
LINE
  8
1
 62
3
  6
DIVIDE
 10
482.5466056108244
 20
548.53012892853
 30
0
 11
482.5466056108244
 21
546.53012892853
 31
0
  0
LINE
  8
1
 62
3
  6
DIVIDE
 10
482.9466056108244
 20
557.4301289285298
 30
0
 11
482.9466056108244
 21
547.256816716336
 31
0
  0
LINE
  8
1
 62
3
  6
DIVIDE
 10
481.4466056108244
 20
558.9301289285298
 30
0
 11
482.9466056108244
 21
557.4301289285298
 31
0
  0
LINE
  8
1
 62
3
  6
DIVIDE
 10
478.4466056108244
 20
558.9301289285298
 30
0
 11
481.4466056108244
 21
558.9301289285298
 31
0
  0
LINE
  8
1
 62
3
 10
478.4466056108244
 20
558.9301289285298
 30
0
 11
475.9466056108244
 21
556.4301289285298
 31
0
  0
LINE
  8
1
 62
7
 10
475.9466056108244
 20
556.4301289285298
 30
0
 11
475.9466056108244
 21
538.1801289285298
 31
0
  0
LINE
  8
1
 62
3
  6
DASHDOT
 10
493.9466056108244
 20
561.300211753213
 30
0
 11
493.9466056108244
 21
535.300211753213
 31
0
  0
LINE
  8
1
 62
3
  6
DASHDOT
 10
457.9466056108244
 20
561.300211753213
 30
0
 11
457.9466056108244
 21
535.300211753213
 31
0
  0
LINE
  8
1
 62
7
 10
442.4466056108244
 20
558.9301289285298
 30
0
 11
439.9466056108244
 21
556.4301289285298
 31
0
  0
LINE
  8
1
 62
7
 10
466.1466056108245
 20
546.4301289285298
 30
0
 11
449.7466056108244
 21
546.4301289285298
 31
0
  0
LINE
  8
1
 62
7
 10
446.9466056108244
 20
557.4301289285298
 30
0
 11
446.9466056108244
 21
547.256816716336
 31
0
  0
LINE
  8
1
 62
7
 10
468.9466056108244
 20
557.4301289285298
 30
0
 11
468.9466056108244
 21
547.256816716336
 31
0
  0
LINE
  8
1
 62
7
 10
442.4466056108244
 20
558.9301289285298
 30
0
 11
445.4466056108244
 21
558.9301289285298
 31
0
  0
LINE
  8
1
 62
7
 10
473.4466056108244
 20
558.9301289285298
 30
0
 11
470.4466056108244
 21
558.9301289285298
 31
0
  0
LINE
  8
1
 62
7
 10
439.9466056108244
 20
556.4301289285298
 30
0
 11
439.9466056108244
 21
538.1801289285298
 31
0
  0
LINE
  8
1
 62
3
  6
DIVIDE
 10
510.9466056108245
 20
542.1801289285298
 30
0
 11
440.9466056108244
 21
542.1801289285298
 31
0
  0
LINE
  8
1
 62
3
  6
DIVIDE
 10
510.9466056108245
 20
533.6801289285298
 30
0
 11
510.9466056108245
 21
542.1801289285298
 31
0
  0
LINE
  8
1
 62
3
  6
DIVIDE
 10
440.9466056108244
 20
533.6801289285298
 30
0
 11
510.9466056108245
 21
533.6801289285298
 31
0
  0
LINE
  8
1
 62
3
  6
DIVIDE
 10
440.9466056108244
 20
542.1801289285298
 30
0
 11
440.9466056108244
 21
533.6801289285298
 31
0
  0
LINE
  8
1
 62
7
 10
439.0909431781216
 20
439.6801289285301
 30
0
 11
496.0625965310026
 21
439.6801289285301
 31
0
  0
LINE
  8
1
 62
7
 10
524.0466056108244
 20
544.1207278517715
 30
0
 11
520.0466056108244
 21
546.4301289285298
 31
0
  0
LINE
  8
1
 62
7
 10
528.0466056108244
 20
546.4301289285298
 30
0
 11
524.0466056108244
 21
544.1207278517715
 31
0
  0
LINE
  8
1
 62
7
 10
520.0466056108244
 20
546.4301289285298
 30
0
 11
520.0466056108244
 21
558.4301289285298
 31
0
  0
LINE
  8
1
 62
7
 10
528.0466056108244
 20
546.4301289285298
 30
0
 11
520.0466056108244
 21
546.4301289285298
 31
0
  0
LINE
  8
1
 62
7
 10
528.0466056108244
 20
558.4301289285298
 30
0
 11
528.0466056108244
 21
546.4301289285298
 31
0
  0
LINE
  8
1
 62
3
 10
532.0805802070399
 20
537.9301289285298
 30
0
 11
534.5466056108244
 21
537.9301289285298
 31
0
  0
LINE
  8
1
 62
7
 10
516.5466056108244
 20
536.9301289285298
 30
0
 11
534.5466056108244
 21
536.9301289285298
 31
0
  0
LINE
  8
1
 62
7
 10
516.5466056108244
 20
538.9301289285298
 30
0
 11
516.5466056108244
 21
536.9301289285298
 31
0
  0
LINE
  8
1
 62
7
 10
516.5466056108244
 20
538.9301289285298
 30
0
 11
513.5466056108244
 21
538.9301289285298
 31
0
  0
LINE
  8
1
 62
7
 10
516.0466056108244
 20
558.4301289285298
 30
0
 11
513.5466056108244
 21
555.9301289285298
 31
0
  0
LINE
  8
1
 62
7
 10
513.5466056108244
 20
538.4301289285298
 30
0
 11
513.5466056108244
 21
555.9301289285298
 31
0
  0
LINE
  8
1
 62
7
 10
534.5466056108244
 20
558.4301289285298
 30
0
 11
516.0466056108244
 21
558.4301289285298
 31
0
  0
LINE
  8
1
 62
7
 10
516.5466056108244
 20
419.4301289285299
 30
0
 11
534.5466056108244
 21
419.4301289285299
 31
0
  0
LINE
  8
1
 62
7
 10
516.5466056108244
 20
411.9301289285298
 30
0
 11
516.5466056108244
 21
440.93012892853
 31
0
  0
LINE
  8
1
 62
7
 10
514.5466056108244
 20
433.9301289285298
 30
0
 11
516.5466056108244
 21
433.9301289285298
 31
0
  0
LINE
  8
1
 62
7
 10
514.5466056108244
 20
411.9301289285298
 30
0
 11
516.5466056108244
 21
411.9301289285298
 31
0
  0
LINE
  8
1
 62
7
 10
514.5466056108244
 20
411.9301289285298
 30
0
 11
514.5466056108244
 21
433.9301289285298
 31
0
  0
LINE
  8
1
 62
7
 10
519.4214239348214
 20
431.1801289285298
 30
0
 11
519.4464999584191
 21
432.2709359550219
 31
0
  0
LINE
  8
1
 62
7
 10
520.0306778939385
 20
431.1801289285298
 30
0
 11
520.1487288932938
 21
432.3212885889641
 31
0
  0
LINE
  8
1
 62
7
 10
520.8349471208137
 20
431.1801289285298
 30
0
 11
520.944482328355
 21
432.2389692680957
 31
0
  0
LINE
  8
1
 62
7
 10
521.8306778939384
 20
431.1801289285298
 30
0
 11
521.9487288932937
 21
432.321288588964
 31
0
  0
LINE
  8
1
 62
7
 10
522.6349471208139
 20
431.1801289285298
 30
0
 11
522.7444823283552
 21
432.2389692680956
 31
0
  0
LINE
  8
1
 62
7
 10
523.6306778939386
 20
431.1801289285298
 30
0
 11
523.7487288932937
 21
432.321288588964
 31
0
  0
LINE
  8
1
 62
7
 10
524.4349471208138
 20
431.1801289285298
 30
0
 11
524.5444823283551
 21
432.2389692680956
 31
0
  0
LINE
  8
1
 62
7
 10
525.4306778939385
 20
431.1801289285298
 30
0
 11
525.5487288932939
 21
432.321288588964
 31
0
  0
LINE
  8
1
 62
7
 10
526.2349471208138
 20
431.1801289285298
 30
0
 11
526.3444823283551
 21
432.2389692680957
 31
0
  0
LINE
  8
1
 62
7
 10
527.2306778939385
 20
431.1801289285298
 30
0
 11
527.3487288932938
 21
432.321288588964
 31
0
  0
LINE
  8
1
 62
7
 10
528.0349471208137
 20
431.1801289285298
 30
0
 11
528.144482328355
 21
432.2389692680956
 31
0
  0
LINE
  8
1
 62
7
 10
528.1212125741836
 20
431.1801289285298
 30
0
 11
528.1467112632299
 21
432.2893219020378
 31
0
  0
LINE
  8
1
 62
7
 10
519.246499958419
 20
423.5709359550219
 30
0
 11
519.2719986474651
 21
424.6801289285298
 31
0
  0
LINE
  8
1
 62
7
 10
519.2487288932937
 20
423.621288588964
 30
0
 11
519.358264100835
 21
424.6801289285298
 31
0
  0
LINE
  8
1
 62
7
 10
520.0444823283551
 20
423.5389692680956
 30
0
 11
520.1625333277102
 21
424.6801289285298
 31
0
  0
LINE
  8
1
 62
7
 10
521.0487288932939
 20
423.621288588964
 30
0
 11
521.1582641008351
 21
424.6801289285298
 31
0
  0
LINE
  8
1
 62
7
 10
521.8444823283551
 20
423.5389692680956
 30
0
 11
521.9625333277102
 21
424.6801289285298
 31
0
  0
LINE
  8
1
 62
7
 10
522.8487288932938
 20
423.621288588964
 30
0
 11
522.9582641008351
 21
424.6801289285298
 31
0
  0
LINE
  8
1
 62
7
 10
523.644482328355
 20
423.5389692680956
 30
0
 11
523.7625333277103
 21
424.6801289285298
 31
0
  0
LINE
  8
1
 62
7
 10
524.6487288932938
 20
423.621288588964
 30
0
 11
524.7582641008353
 21
424.6801289285298
 31
0
  0
LINE
  8
1
 62
7
 10
525.4444823283552
 20
423.5389692680956
 30
0
 11
525.5625333277103
 21
424.6801289285298
 31
0
  0
LINE
  8
1
 62
7
 10
526.4487288932937
 20
423.621288588964
 30
0
 11
526.558264100835
 21
424.6801289285298
 31
0
  0
LINE
  8
1
 62
7
 10
527.2444823283552
 20
423.5389692680956
 30
0
 11
527.3625333277103
 21
424.6801289285298
 31
0
  0
LINE
  8
1
 62
7
 10
527.9467112632299
 20
423.5893219020377
 30
0
 11
527.9717872868273
 21
424.6801289285298
 31
0
  0
LINE
  8
1
 62
7
 10
528.3466056108243
 20
431.1801289285299
 30
0
 11
516.5466056108244
 21
431.1801289285299
 31
0
  0
LINE
  8
1
 62
7
 10
516.5466056108244
 20
424.6801289285299
 30
0
 11
528.3466056108243
 21
424.6801289285299
 31
0
  0
LINE
  8
1
 62
7
 10
534.5466056108244
 20
431.1801289285299
 30
0
 11
534.5466056108244
 21
442.9301289285299
 31
0
  0
LINE
  8
1
 62
7
 10
537.3466056108243
 20
431.1801289285299
 30
0
 11
534.3466056108243
 21
431.1801289285299
 31
0
  0
LINE
  8
1
 62
7
 10
537.3466056108243
 20
424.6801289285299
 30
0
 11
537.3466056108243
 21
431.1801289285299
 31
0
  0
LINE
  8
1
 62
7
 10
534.3466056108243
 20
424.6801289285299
 30
0
 11
537.3466056108243
 21
424.6801289285299
 31
0
  0
LINE
  8
1
 62
7
 10
534.3466056108243
 20
432.9301289285299
 30
0
 11
534.3466056108243
 21
422.9301289285299
 31
0
  0
LINE
  8
1
 62
7
 10
528.3466056108243
 20
422.9301289285299
 30
0
 11
528.3466056108243
 21
432.9301289285299
 31
0
  0
LINE
  8
1
 62
7
 10
519.0466056108244
 20
431.4301289285299
 30
0
 11
519.0466056108244
 21
432.9301289285299
 31
0
  0
LINE
  8
1
 62
7
 10
519.0466056108244
 20
432.9301289285299
 30
0
 11
534.5466056108244
 21
432.9301289285299
 31
0
  0
LINE
  8
1
 62
7
 10
519.0466056108244
 20
422.9301289285299
 30
0
 11
534.5466056108244
 21
422.9301289285299
 31
0
  0
LINE
  8
1
 62
7
 10
519.0466056108244
 20
424.4301289285299
 30
0
 11
519.0466056108244
 21
422.9301289285299
 31
0
  0
LINE
  8
1
 62
7
 10
516.5466056108244
 20
431.4301289285299
 30
0
 11
519.0466056108244
 21
431.4301289285299
 31
0
  0
LINE
  8
1
 62
7
 10
516.5466056108244
 20
424.4301289285299
 30
0
 11
519.0466056108244
 21
424.4301289285299
 31
0
  0
LINE
  8
1
 62
3
 10
532.0805802070399
 20
439.9301289285301
 30
0
 11
534.5466056108244
 21
439.9301289285301
 31
0
  0
LINE
  8
1
 62
3
 10
516.5466056108244
 20
440.93012892853
 30
0
 11
513.5239558800142
 21
440.93012892853
 31
0
  0
LINE
  8
1
 62
7
 10
513.5466056108244
 20
421.9301289285299
 30
0
 11
514.5466056108244
 21
420.9301289285299
 31
0
  0
LINE
  8
1
 62
7
 10
513.5466056108244
 20
421.9301289285299
 30
0
 11
513.5466056108244
 21
439.4301289285299
 31
0
  0
LINE
  8
1
 62
7
 10
513.5466056108244
 20
438.9301289285299
 30
0
 11
516.5466056108244
 21
438.9301289285299
 31
0
  0
LINE
  8
1
 62
7
 10
534.5466056108244
 20
553.4301289285298
 30
0
 11
537.5466056108244
 21
553.4301289285298
 31
0
  0
LINE
  8
1
 62
7
 10
537.5466056108244
 20
546.4301289285298
 30
0
 11
534.5466056108244
 21
546.4301289285298
 31
0
  0
LINE
  8
1
 62
7
 10
537.5466056108244
 20
424.4301289285299
 30
0
 11
534.5466056108244
 21
424.4301289285299
 31
0
  0
LINE
  8
1
 62
7
 10
534.5466056108244
 20
431.4301289285299
 30
0
 11
537.5466056108244
 21
431.4301289285299
 31
0
  0
LINE
  8
1
 62
7
 10
534.5466056108244
 20
536.4301289285298
 30
0
 11
532.9466056108245
 21
536.4301289285298
 31
0
  0
LINE
  8
1
 62
7
 10
534.5466056108244
 20
558.4301289285298
 30
0
 11
537.5466056108244
 21
558.4301289285298
 31
0
  0
LINE
  8
1
 62
7
 10
534.5466056108244
 20
530.9301289285298
 30
0
 11
534.5466056108244
 21
558.4301289285298
 31
0
  0
LINE
  8
1
 62
7
 10
534.5466056108244
 20
530.9301289285298
 30
0
 11
537.5466056108244
 21
530.9301289285298
 31
0
  0
LINE
  8
1
 62
7
 10
537.5466056108244
 20
441.4301289285301
 30
0
 11
573.1903289759457
 21
441.4301289285301
 31
0
  0
LINE
  8
1
 62
7
 10
534.5466056108244
 20
442.9301289285299
 30
0
 11
537.5466056108244
 21
442.9301289285299
 31
0
  0
LINE
  8
1
 62
7
 10
534.5466056108244
 20
419.4301289285299
 30
0
 11
534.5466056108244
 21
424.6801289285299
 31
0
  0
LINE
  8
1
 62
7
 10
534.5466056108244
 20
419.4301289285299
 30
0
 11
537.5466056108244
 21
419.4301289285299
 31
0
  0
LINE
  8
1
 62
3
 10
537.5466056108244
 20
564.9301289285298
 30
0
 11
563.9466056108245
 21
530.8301289285299
 31
0
  0
LINE
  8
1
 62
3
 10
537.5466056108244
 20
530.8301289285299
 30
0
 11
563.9466056108245
 21
564.9301289285298
 31
0
  0
LINE
  8
1
 62
7
 10
537.5466056108244
 20
530.8301289285299
 30
0
 11
565.9466056108245
 21
530.8301289285299
 31
0
  0
LINE
  8
1
 62
7
 10
537.5466056108244
 20
564.9301289285298
 30
0
 11
537.5466056108244
 21
530.8301289285299
 31
0
  0
LINE
  8
1
 62
7
 10
563.9466056108245
 20
564.9301289285298
 30
0
 11
563.9466056108245
 21
530.8301289285299
 31
0
  0
LINE
  8
1
 62
7
 10
565.9466056108245
 20
536.53012892853
 30
0
 11
565.9466056108245
 21
530.8301289285299
 31
0
  0
LINE
  8
1
 62
7
 10
563.9466056108245
 20
564.9301289285298
 30
0
 11
537.5466056108244
 21
564.9301289285298
 31
0
  0
LINE
  8
1
 62
7
 10
565.9466056108245
 20
536.53012892853
 30
0
 11
573.9466056108245
 21
544.53012892853
 31
0
  0
LINE
  8
1
 62
7
 10
573.9466056108245
 20
536.4301289285298
 30
0
 11
573.9466056108245
 21
555.9301289285298
 31
0
  0
LINE
  8
1
 62
7
 10
571.4466056108245
 20
558.4301289285298
 30
0
 11
573.9466056108245
 21
555.9301289285298
 31
0
  0
LINE
  8
1
 62
7
 10
571.4466056108245
 20
558.4301289285298
 30
0
 11
563.9466056108245
 21
558.4301289285298
 31
0
  0
LINE
  8
1
 62
3
 10
537.5466056108244
 20
412.9301289285299
 30
0
 11
563.9466056108245
 21
441.4301289285301
 31
0
  0
LINE
  8
1
 62
3
 10
563.9466056108245
 20
412.9301289285299
 30
0
 11
537.5466056108244
 21
441.4301289285301
 31
0
  0
LINE
  8
1
 62
7
 10
537.5466056108244
 20
441.3301289285299
 30
0
 11
563.9466056108245
 21
441.3301289285299
 31
0
  0
LINE
  8
1
 62
7
 10
537.5466056108244
 20
412.9301289285299
 30
0
 11
563.9466056108245
 21
412.9301289285299
 31
0
  0
LINE
  8
1
 62
7
 10
537.5466056108244
 20
442.9301289285299
 30
0
 11
537.5466056108244
 21
412.9301289285299
 31
0
  0
LINE
  8
1
 62
7
 10
565.9466056108245
 20
441.3301289285299
 30
0
 11
565.9466056108245
 21
441.4301289285301
 31
0
  0
LINE
  8
1
 62
7
 10
573.9466056108245
 20
421.9301289285299
 30
0
 11
571.4466056108245
 21
419.4301289285299
 31
0
  0
LINE
  8
1
 62
7
 10
573.9466056108245
 20
433.3301289285298
 30
0
 11
565.9466056108245
 21
441.3301289285299
 31
0
  0
LINE
  8
1
 62
7
 10
573.9466056108245
 20
421.9301289285299
 30
0
 11
573.9466056108245
 21
440.6069385067822
 31
0
  0
LINE
  8
1
 62
7
 10
563.9466056108245
 20
441.3301289285299
 30
0
 11
565.9466056108245
 21
441.3301289285299
 31
0
  0
LINE
  8
1
 62
7
 10
563.9466056108245
 20
412.9301289285299
 30
0
 11
563.9466056108245
 21
441.4301289285301
 31
0
  0
LINE
  8
1
 62
7
 10
563.9466056108245
 20
419.4301289285299
 30
0
 11
571.4466056108245
 21
419.4301289285299
 31
0
  0
LINE
  8
1
 62
7
 10
509.1249760985534
 20
436.485364826344
 30
0
 11
508.8691762073158
 21
438.3701743207278
 31
0
  0
LINE
  8
1
 62
7
 10
564.277672783388
 20
444.8998660438151
 30
0
 11
512.6783217018754
 21
442.9051235420768
 31
0
  0
LINE
  8
1
 62
7
 10
577.4379778577709
 20
457.3619974725617
 30
0
 11
494.6965080675494
 21
446.1326084885669
 31
0
  0
LINE
  8
1
 62
7
 10
583.5362722459634
 20
426.4547100069608
 30
0
 11
585.9060552436686
 21
449.1512764552986
 31
0
  0
LINE
  8
1
 62
3
 10
513.5239558800142
 20
536.9301289285298
 30
0
 11
516.5466056108244
 21
536.9301289285298
 31
0
  0
LINE
  8
1
 62
3
 10
512.9466056108245
 20
537.9301289285298
 30
0
 11
513.5239558800142
 21
536.9301289285298
 31
0
  0
LINE
  8
1
 62
3
  6
DIVIDE
 10
544.9466056108245
 20
516.9301289285298
 30
0
 11
544.9466056108245
 21
530.4301289285298
 31
0
  0
LINE
  8
1
 62
3
  6
DIVIDE
 10
548.9466056108245
 20
530.4301289285298
 30
0
 11
548.9466056108245
 21
516.9301289285298
 31
0
  0
LINE
  8
1
 62
3
  6
DIVIDE
 10
554.9466056108245
 20
516.9301289285298
 30
0
 11
554.9466056108245
 21
530.4301289285298
 31
0
  0
LINE
  8
1
 62
3
  6
DIVIDE
 10
558.9466056108245
 20
530.4301289285298
 30
0
 11
558.9466056108245
 21
516.9301289285298
 31
0
  0
LINE
  8
1
 62
3
  6
DIVIDE
 10
537.9466056108245
 20
516.9301289285298
 30
0
 11
565.9466056108245
 21
516.9301289285298
 31
0
  0
LINE
  8
1
 62
7
 10
585.9466056108245
 20
530.4301289285298
 30
0
 11
531.9466056108245
 21
530.4301289285298
 31
0
  0
LINE
  8
1
 62
7
 10
512.8022680435272
 20
538.1801289285298
 30
0
 11
439.0909431781216
 21
538.1801289285298
 31
0
  0
LINE
  8
1
 62
7
 10
512.8022680435272
 20
538.1801289285298
 30
0
 11
512.9466056108245
 21
537.9301289285298
 31
0
  0
LINE
  8
1
 62
7
 10
532.0805802070399
 20
537.9301289285298
 30
0
 11
512.9466056108245
 21
537.9301289285298
 31
0
  0
LINE
  8
1
 62
7
 10
532.9466056108245
 20
536.4301289285298
 30
0
 11
532.0805802070399
 21
537.9301289285298
 31
0
  0
LINE
  8
1
 62
7
 10
584.9466056108245
 20
536.4301289285298
 30
0
 11
585.9466056108245
 21
535.4301289285298
 31
0
  0
LINE
  8
1
 62
7
 10
584.9466056108245
 20
536.4301289285298
 30
0
 11
565.9466056108245
 21
536.4301289285298
 31
0
  0
LINE
  8
1
 62
7
 10
585.9466056108245
 20
524.9301289285298
 30
0
 11
585.9466056108245
 21
535.4301289285298
 31
0
  0
LINE
  8
1
 62
7
 10
585.9466056108245
 20
524.9301289285298
 30
0
 11
586.9466056108245
 21
523.9301289285298
 31
0
  0
LINE
  8
1
 62
7
 10
586.9466056108245
 20
453.9301289285301
 30
0
 11
586.9466056108245
 21
523.9301289285298
 31
0
  0
LINE
  8
1
 62
7
 10
534.5466056108244
 20
440.9301289285301
 30
0
 11
516.5466056108244
 21
440.93012892853
 31
0
  0
LINE
  8
1
 62
3
 10
513.5239558800142
 20
440.93012892853
 30
0
 11
512.9466056108245
 21
439.9301289285301
 31
0
  0
LINE
  8
1
 62
3
  6
DIVIDE
 10
565.9466056108245
 20
516.9301289285298
 30
0
 11
565.9466056108245
 21
460.9301289285299
 31
0
  0
LINE
  8
1
 62
3
  6
DIVIDE
 10
565.9466056108245
 20
460.9301289285299
 30
0
 11
537.9466056108245
 21
460.9301289285299
 31
0
  0
LINE
  8
1
 62
3
  6
DIVIDE
 10
537.9466056108245
 20
460.9301289285299
 30
0
 11
537.9466056108245
 21
516.9301289285298
 31
0
  0
LINE
  8
1
 62
7
 10
512.9466056108245
 20
439.9301289285301
 30
0
 11
512.8022680435272
 21
439.6801289285301
 31
0
  0
LINE
  8
1
 62
7
 10
512.9466056108245
 20
439.9301289285301
 30
0
 11
532.0805802070399
 21
439.9301289285301
 31
0
  0
LINE
  8
1
 62
7
 10
532.0805802070399
 20
439.9301289285301
 30
0
 11
532.9466056108245
 21
441.4301289285301
 31
0
  0
LINE
  8
1
 62
7
 10
585.9466056108245
 20
442.4301289285301
 30
0
 11
585.117747701378
 21
441.6012710190838
 31
0
  0
LINE
  8
1
 62
7
 10
532.9466056108245
 20
441.4301289285301
 30
0
 11
534.5466056108244
 21
441.4301289285301
 31
0
  0
LINE
  8
1
 62
7
 10
585.9466056108245
 20
442.4301289285301
 30
0
 11
585.9466056108245
 21
452.9301289285301
 31
0
  0
LINE
  8
1
 62
7
 10
586.9466056108245
 20
453.9301289285301
 30
0
 11
585.9466056108245
 21
452.9301289285301
 31
0
  0
LINE
  8
1
 62
7
 10
586.9466056108245
 20
457.9301289285299
 30
0
 11
513.9466056108245
 21
457.9301289285299
 31
0
  0
LINE
  8
1
 62
7
 10
586.9466056108245
 20
461.4301289285301
 30
0
 11
511.9466056108245
 21
461.4301289285301
 31
0
  0
LINE
  8
1
 62
7
 10
427.8466056108244
 20
433.7395300052884
 30
0
 11
431.8466056108244
 21
431.4301289285299
 31
0
  0
LINE
  8
1
 62
7
 10
423.8466056108244
 20
431.4301289285299
 30
0
 11
427.8466056108244
 21
433.7395300052884
 31
0
  0
LINE
  8
1
 62
7
 10
431.8466056108244
 20
431.4301289285299
 30
0
 11
431.8466056108244
 21
419.4301289285299
 31
0
  0
LINE
  8
1
 62
7
 10
423.8466056108244
 20
431.4301289285299
 30
0
 11
431.8466056108244
 21
431.4301289285299
 31
0
  0
LINE
  8
1
 62
7
 10
423.8466056108244
 20
419.4301289285299
 30
0
 11
423.8466056108244
 21
431.4301289285299
 31
0
  0
LINE
  8
1
 62
3
 10
419.8126310146088
 20
439.9301289285301
 30
0
 11
417.3466056108244
 21
439.9301289285301
 31
0
  0
LINE
  8
1
 62
7
 10
435.3466056108244
 20
440.9301289285301
 30
0
 11
417.3466056108244
 21
440.9301289285301
 31
0
  0
LINE
  8
1
 62
7
 10
435.3466056108244
 20
438.9301289285299
 30
0
 11
435.3466056108244
 21
440.9301289285301
 31
0
  0
LINE
  8
1
 62
7
 10
435.3466056108244
 20
438.9301289285299
 30
0
 11
438.3466056108244
 21
438.9301289285299
 31
0
  0
LINE
  8
1
 62
7
 10
435.8466056108244
 20
419.4301289285299
 30
0
 11
438.3466056108244
 21
421.9301289285299
 31
0
  0
LINE
  8
1
 62
7
 10
438.3466056108244
 20
439.4301289285299
 30
0
 11
438.3466056108244
 21
421.9301289285299
 31
0
  0
LINE
  8
1
 62
7
 10
417.3466056108244
 20
419.4301289285299
 30
0
 11
435.8466056108244
 21
419.4301289285299
 31
0
  0
LINE
  8
1
 62
7
 10
435.3466056108244
 20
558.4301289285298
 30
0
 11
417.3466056108244
 21
558.4301289285298
 31
0
  0
LINE
  8
1
 62
7
 10
435.3466056108244
 20
565.9301289285298
 30
0
 11
435.3466056108244
 21
536.9301289285298
 31
0
  0
LINE
  8
1
 62
7
 10
437.3466056108244
 20
543.9301289285298
 30
0
 11
435.3466056108244
 21
543.9301289285298
 31
0
  0
LINE
  8
1
 62
7
 10
437.3466056108244
 20
565.9301289285298
 30
0
 11
435.3466056108244
 21
565.9301289285298
 31
0
  0
LINE
  8
1
 62
7
 10
437.3466056108244
 20
565.9301289285298
 30
0
 11
437.3466056108244
 21
543.9301289285298
 31
0
  0
LINE
  8
1
 62
7
 10
432.4717872868274
 20
546.6801289285298
 30
0
 11
432.4467112632298
 21
545.589321902038
 31
0
  0
LINE
  8
1
 62
7
 10
431.8625333277103
 20
546.6801289285298
 30
0
 11
431.7444823283551
 21
545.5389692680957
 31
0
  0
LINE
  8
1
 62
7
 10
431.0582641008351
 20
546.6801289285298
 30
0
 11
430.9487288932938
 21
545.6212885889642
 31
0
  0
LINE
  8
1
 62
7
 10
430.0625333277103
 20
546.6801289285298
 30
0
 11
429.944482328355
 21
545.5389692680959
 31
0
  0
LINE
  8
1
 62
7
 10
429.2582641008351
 20
546.6801289285298
 30
0
 11
429.1487288932938
 21
545.6212885889642
 31
0
  0
LINE
  8
1
 62
7
 10
428.2625333277102
 20
546.6801289285298
 30
0
 11
428.144482328355
 21
545.5389692680959
 31
0
  0
LINE
  8
1
 62
7
 10
427.458264100835
 20
546.6801289285298
 30
0
 11
427.3487288932938
 21
545.6212885889642
 31
0
  0
LINE
  8
1
 62
7
 10
426.4625333277102
 20
546.6801289285298
 30
0
 11
426.344482328355
 21
545.5389692680959
 31
0
  0
LINE
  8
1
 62
7
 10
425.658264100835
 20
546.6801289285298
 30
0
 11
425.5487288932937
 21
545.6212885889642
 31
0
  0
LINE
  8
1
 62
7
 10
424.6625333277103
 20
546.6801289285298
 30
0
 11
424.544482328355
 21
545.5389692680959
 31
0
  0
LINE
  8
1
 62
7
 10
423.8582641008351
 20
546.6801289285298
 30
0
 11
423.7487288932938
 21
545.6212885889642
 31
0
  0
LINE
  8
1
 62
7
 10
423.7719986474651
 20
546.6801289285298
 30
0
 11
423.746499958419
 21
545.570935955022
 31
0
  0
LINE
  8
1
 62
7
 10
432.6467112632298
 20
554.2893219020378
 30
0
 11
432.6212125741836
 21
553.1801289285298
 31
0
  0
LINE
  8
1
 62
7
 10
432.644482328355
 20
554.2389692680957
 30
0
 11
432.5349471208137
 21
553.1801289285298
 31
0
  0
LINE
  8
1
 62
7
 10
431.8487288932938
 20
554.3212885889642
 30
0
 11
431.7306778939385
 21
553.1801289285298
 31
0
  0
LINE
  8
1
 62
7
 10
430.844482328355
 20
554.2389692680957
 30
0
 11
430.7349471208137
 21
553.1801289285298
 31
0
  0
LINE
  8
1
 62
7
 10
430.0487288932937
 20
554.3212885889642
 30
0
 11
429.9306778939385
 21
553.1801289285298
 31
0
  0
LINE
  8
1
 62
7
 10
429.044482328355
 20
554.2389692680957
 30
0
 11
428.9349471208137
 21
553.1801289285298
 31
0
  0
LINE
  8
1
 62
7
 10
428.2487288932937
 20
554.3212885889642
 30
0
 11
428.1306778939385
 21
553.1801289285298
 31
0
  0
LINE
  8
1
 62
7
 10
427.2444823283549
 20
554.2389692680957
 30
0
 11
427.1349471208137
 21
553.1801289285298
 31
0
  0
LINE
  8
1
 62
7
 10
426.4487288932937
 20
554.3212885889642
 30
0
 11
426.3306778939384
 21
553.1801289285298
 31
0
  0
LINE
  8
1
 62
7
 10
425.444482328355
 20
554.2389692680957
 30
0
 11
425.3349471208137
 21
553.1801289285298
 31
0
  0
LINE
  8
1
 62
7
 10
424.6487288932938
 20
554.3212885889642
 30
0
 11
424.5306778939385
 21
553.1801289285298
 31
0
  0
LINE
  8
1
 62
7
 10
423.9464999584189
 20
554.2709359550221
 30
0
 11
423.9214239348214
 21
553.1801289285298
 31
0
  0
LINE
  8
1
 62
7
 10
423.5466056108244
 20
546.6801289285298
 30
0
 11
435.3466056108244
 21
546.6801289285298
 31
0
  0
LINE
  8
1
 62
7
 10
435.3466056108244
 20
553.1801289285298
 30
0
 11
423.5466056108244
 21
553.1801289285298
 31
0
  0
LINE
  8
1
 62
7
 10
417.3466056108244
 20
546.6801289285298
 30
0
 11
417.3466056108244
 21
534.9301289285298
 31
0
  0
LINE
  8
1
 62
7
 10
414.5466056108244
 20
546.6801289285298
 30
0
 11
417.5466056108244
 21
546.6801289285298
 31
0
  0
LINE
  8
1
 62
7
 10
414.5466056108244
 20
553.1801289285298
 30
0
 11
414.5466056108244
 21
546.6801289285298
 31
0
  0
LINE
  8
1
 62
7
 10
417.5466056108244
 20
553.1801289285298
 30
0
 11
414.5466056108244
 21
553.1801289285298
 31
0
  0
LINE
  8
1
 62
7
 10
417.5466056108244
 20
544.9301289285298
 30
0
 11
417.5466056108244
 21
554.9301289285298
 31
0
  0
LINE
  8
1
 62
7
 10
423.5466056108244
 20
554.9301289285298
 30
0
 11
423.5466056108244
 21
544.9301289285298
 31
0
  0
LINE
  8
1
 62
7
 10
432.8466056108244
 20
546.4301289285298
 30
0
 11
432.8466056108244
 21
544.9301289285298
 31
0
  0
LINE
  8
1
 62
7
 10
432.8466056108244
 20
544.9301289285298
 30
0
 11
417.3466056108244
 21
544.9301289285298
 31
0
  0
LINE
  8
1
 62
7
 10
432.8466056108244
 20
554.9301289285298
 30
0
 11
417.3466056108244
 21
554.9301289285298
 31
0
  0
LINE
  8
1
 62
7
 10
432.8466056108244
 20
553.4301289285298
 30
0
 11
432.8466056108244
 21
554.9301289285298
 31
0
  0
LINE
  8
1
 62
7
 10
435.3466056108244
 20
546.4301289285298
 30
0
 11
432.8466056108244
 21
546.4301289285298
 31
0
  0
LINE
  8
1
 62
7
 10
435.3466056108244
 20
553.4301289285298
 30
0
 11
432.8466056108244
 21
553.4301289285298
 31
0
  0
LINE
  8
1
 62
3
 10
419.8126310146088
 20
537.9301289285298
 30
0
 11
417.3466056108244
 21
537.9301289285298
 31
0
  0
LINE
  8
1
 62
3
 10
435.3466056108244
 20
536.9301289285298
 30
0
 11
438.3692553416346
 21
536.9301289285298
 31
0
  0
LINE
  8
1
 62
7
 10
438.3466056108244
 20
555.9301289285298
 30
0
 11
437.3466056108244
 21
556.9301289285298
 31
0
  0
LINE
  8
1
 62
7
 10
438.3466056108244
 20
555.9301289285298
 30
0
 11
438.3466056108244
 21
538.4301289285298
 31
0
  0
LINE
  8
1
 62
7
 10
438.3466056108244
 20
538.9301289285298
 30
0
 11
435.3466056108244
 21
538.9301289285298
 31
0
  0
LINE
  8
1
 62
7
 10
417.3466056108244
 20
424.4301289285299
 30
0
 11
414.3466056108244
 21
424.4301289285299
 31
0
  0
LINE
  8
1
 62
7
 10
414.3466056108244
 20
431.4301289285299
 30
0
 11
417.3466056108244
 21
431.4301289285299
 31
0
  0
LINE
  8
1
 62
7
 10
414.3466056108244
 20
553.4301289285298
 30
0
 11
417.3466056108244
 21
553.4301289285298
 31
0
  0
LINE
  8
1
 62
7
 10
417.3466056108244
 20
546.4301289285298
 30
0
 11
414.3466056108244
 21
546.4301289285298
 31
0
  0
LINE
  8
1
 62
7
 10
417.3466056108244
 20
441.4301289285301
 30
0
 11
418.9466056108244
 21
441.4301289285301
 31
0
  0
LINE
  8
1
 62
7
 10
417.3466056108244
 20
419.4301289285299
 30
0
 11
414.3466056108244
 21
419.4301289285299
 31
0
  0
LINE
  8
1
 62
7
 10
417.3466056108244
 20
446.9301289285299
 30
0
 11
417.3466056108244
 21
419.4301289285299
 31
0
  0
LINE
  8
1
 62
7
 10
417.3466056108244
 20
446.9301289285299
 30
0
 11
414.3466056108244
 21
446.9301289285299
 31
0
  0
LINE
  8
1
 62
7
 10
414.3466056108244
 20
536.4301289285298
 30
0
 11
378.9575572339223
 21
536.4301289285298
 31
0
  0
LINE
  8
1
 62
7
 10
417.3466056108244
 20
534.9301289285298
 30
0
 11
414.3466056108244
 21
534.9301289285298
 31
0
  0
LINE
  8
1
 62
7
 10
417.3466056108244
 20
558.4301289285298
 30
0
 11
417.3466056108244
 21
553.1801289285298
 31
0
  0
LINE
  8
1
 62
7
 10
417.3466056108244
 20
558.4301289285298
 30
0
 11
414.3466056108244
 21
558.4301289285298
 31
0
  0
LINE
  8
1
 62
7
 10
276.857045860071
 20
545.4529461847359
 30
0
 11
279.8730330015358
 21
550.6767891487274
 31
0
  0
LINE
  8
1
 62
7
 10
299.5861453202061
 20
517.2334656678341
 30
0
 11
304.8099882841976
 21
520.249452809299
 31
0
  0
LINE
  8
1
 62
7
 10
305.1603825993752
 20
481.4301289285299
 30
0
 11
311.192356882305
 21
481.4301289285299
 31
0
  0
LINE
  8
1
 62
7
 10
292.086145320206
 20
447.6364111324591
 30
0
 11
297.3099882841976
 21
444.6204239909942
 31
0
  0
LINE
  8
1
 62
7
 10
263.8666648033045
 20
424.9073116723241
 30
0
 11
266.8826519447692
 21
419.6834687083325
 31
0
  0
LINE
  8
1
 62
7
 10
228.063328064
 20
419.3330743931547
 30
0
 11
228.063328064
 21
413.301100110225
 31
0
  0
LINE
  8
1
 62
7
 10
194.2696102679292
 20
432.407311672324
 30
0
 11
191.2536231264644
 21
427.1834687083325
 31
0
  0
LINE
  8
1
 62
7
 10
171.5405108077942
 20
460.6267921892256
 30
0
 11
166.3166678438026
 21
457.6108050477608
 31
0
  0
LINE
  8
1
 62
7
 10
165.9662735286249
 20
496.4301289285299
 30
0
 11
159.9342992456952
 21
496.4301289285299
 31
0
  0
LINE
  8
1
 62
7
 10
179.0405108077943
 20
530.2238467246008
 30
0
 11
173.8166678438027
 21
533.2398338660656
 31
0
  0
LINE
  8
1
 62
7
 10
263.8666648033045
 20
552.9529461847359
 30
0
 11
266.8826519447692
 21
558.1767891487274
 31
0
  0
LINE
  8
1
 62
7
 10
292.0861453202061
 20
530.2238467246008
 30
0
 11
297.3099882841976
 21
533.2398338660656
 31
0
  0
LINE
  8
1
 62
7
 10
305.1603825993752
 20
496.4301289285298
 30
0
 11
311.192356882305
 21
496.4301289285299
 31
0
  0
LINE
  8
1
 62
7
 10
299.586145320206
 20
460.6267921892256
 30
0
 11
304.8099882841976
 21
457.6108050477607
 31
0
  0
LINE
  8
1
 62
7
 10
276.857045860071
 20
432.407311672324
 30
0
 11
279.8730330015358
 21
427.1834687083325
 31
0
  0
LINE
  8
1
 62
7
 10
243.063328064
 20
419.3330743931547
 30
0
 11
243.063328064
 21
413.301100110225
 31
0
  0
LINE
  8
1
 62
7
 10
207.2599913246957
 20
424.907311672324
 30
0
 11
204.2440041832309
 21
419.6834687083325
 31
0
  0
LINE
  8
1
 62
7
 10
179.0405108077942
 20
447.6364111324591
 30
0
 11
173.8166678438026
 21
444.6204239909942
 31
0
  0
LINE
  8
1
 62
7
 10
165.9662735286249
 20
481.4301289285299
 30
0
 11
159.9342992456952
 21
481.4301289285299
 31
0
  0
LINE
  8
1
 62
7
 10
171.5405108077942
 20
517.2334656678344
 30
0
 11
166.3166678438027
 21
520.2494528092992
 31
0
  0
LINE
  8
1
 62
7
 10
207.2599913246958
 20
552.9529461847359
 30
0
 11
204.244004183231
 21
558.1767891487274
 31
0
  0
LINE
  8
1
 62
7
 10
194.2696102679292
 20
545.4529461847359
 30
0
 11
191.2536231264644
 21
550.6767891487274
 31
0
  0
LINE
  8
1
 62
7
 10
228.0633280640001
 20
558.5271834639053
 30
0
 11
228.0633280640001
 21
564.559157746835
 31
0
  0
LINE
  8
1
 62
7
 10
243.0633280640001
 20
558.5271834639053
 30
0
 11
243.0633280640001
 21
564.559157746835
 31
0
  0
LINE
  8
1
 62
7
 10
289.7914799343716
 20
450.6932876182394
 30
0
 11
295.7914799343716
 21
461.0855924636527
 31
0
  0
LINE
  8
1
 62
7
 10
265.4101155813178
 20
478.6262813512366
 30
0
 11
295.7914799343716
 21
461.0855924636527
 31
0
  0
LINE
  8
1
 62
7
 10
289.7914799343716
 20
450.6932876182394
 30
0
 11
259.4101155813178
 21
468.2339765058233
 31
0
  0
LINE
  8
1
 62
7
 10
175.3351761936286
 20
461.0855924636528
 30
0
 11
181.3351761936286
 21
450.6932876182395
 31
0
  0
LINE
  8
1
 62
7
 10
175.3351761936286
 20
461.0855924636528
 30
0
 11
205.7165405466826
 21
478.6262813512366
 31
0
  0
LINE
  8
1
 62
7
 10
211.7165405466826
 20
468.2339765058233
 30
0
 11
181.3351761936286
 21
450.6932876182395
 31
0
  0
LINE
  8
1
 62
7
 10
241.5633280640001
 20
555.0115067036976
 30
0
 11
229.5633280640001
 21
555.0115067036976
 31
0
  0
LINE
  8
1
 62
3
 10
414.3466056108244
 20
412.9301289285299
 30
0
 11
387.9466056108244
 21
447.0301289285299
 31
0
  0
LINE
  8
1
 62
3
 10
414.3466056108244
 20
447.0301289285299
 30
0
 11
387.9466056108244
 21
412.9301289285299
 31
0
  0
LINE
  8
1
 62
7
 10
414.3466056108244
 20
447.0301289285299
 30
0
 11
385.9466056108244
 21
447.0301289285299
 31
0
  0
LINE
  8
1
 62
7
 10
414.3466056108244
 20
412.9301289285299
 30
0
 11
414.3466056108244
 21
447.0301289285299
 31
0
  0
LINE
  8
1
 62
7
 10
387.9466056108244
 20
412.9301289285299
 30
0
 11
387.9466056108244
 21
447.0301289285299
 31
0
  0
LINE
  8
1
 62
7
 10
385.9466056108244
 20
441.3301289285299
 30
0
 11
385.9466056108244
 21
447.0301289285299
 31
0
  0
LINE
  8
1
 62
7
 10
387.9466056108244
 20
412.9301289285299
 30
0
 11
414.3466056108244
 21
412.9301289285299
 31
0
  0
LINE
  8
1
 62
7
 10
385.9466056108244
 20
441.3301289285299
 30
0
 11
377.9466056108244
 21
433.3301289285298
 31
0
  0
LINE
  8
1
 62
7
 10
377.9466056108244
 20
441.4301289285301
 30
0
 11
377.9466056108244
 21
421.9301289285299
 31
0
  0
LINE
  8
1
 62
7
 10
380.4466056108244
 20
419.4301289285299
 30
0
 11
377.9466056108244
 21
421.9301289285299
 31
0
  0
LINE
  8
1
 62
7
 10
380.4466056108244
 20
419.4301289285299
 30
0
 11
387.9466056108244
 21
419.4301289285299
 31
0
  0
LINE
  8
1
 62
3
 10
414.3466056108244
 20
564.9301289285298
 30
0
 11
387.9466056108244
 21
536.4301289285298
 31
0
  0
LINE
  8
1
 62
3
 10
387.9466056108244
 20
564.9301289285298
 30
0
 11
414.3466056108244
 21
536.4301289285298
 31
0
  0
LINE
  8
1
 62
7
 10
414.3466056108244
 20
536.53012892853
 30
0
 11
387.9466056108244
 21
536.53012892853
 31
0
  0
LINE
  8
1
 62
7
 10
414.3466056108244
 20
564.9301289285298
 30
0
 11
387.9466056108244
 21
564.9301289285298
 31
0
  0
LINE
  8
1
 62
7
 10
414.3466056108244
 20
534.9301289285298
 30
0
 11
414.3466056108244
 21
564.9301289285298
 31
0
  0
LINE
  8
1
 62
7
 10
367.324599055591
 20
536.4301289285298
 30
0
 11
366.9466056108244
 21
536.4301289285298
 31
0
  0
LINE
  8
1
 62
7
 10
385.9466056108244
 20
536.53012892853
 30
0
 11
385.9466056108244
 21
536.4301289285298
 31
0
  0
LINE
  8
1
 62
7
 10
377.9466056108244
 20
555.9301289285298
 30
0
 11
380.4466056108244
 21
558.4301289285298
 31
0
  0
LINE
  8
1
 62
7
 10
377.9466056108244
 20
544.53012892853
 30
0
 11
385.9466056108244
 21
536.53012892853
 31
0
  0
LINE
  8
1
 62
7
 10
377.9466056108244
 20
555.9301289285298
 30
0
 11
377.9466056108244
 21
537.89719565407
 31
0
  0
LINE
  8
1
 62
7
 10
387.9466056108244
 20
536.53012892853
 30
0
 11
385.9466056108244
 21
536.53012892853
 31
0
  0
LINE
  8
1
 62
7
 10
387.9466056108244
 20
564.9301289285298
 30
0
 11
387.9466056108244
 21
536.4301289285298
 31
0
  0
LINE
  8
1
 62
7
 10
387.9466056108244
 20
558.4301289285298
 30
0
 11
380.4466056108244
 21
558.4301289285298
 31
0
  0
LINE
  8
1
 62
7
 10
443.5901108961657
 20
536.0626971751107
 30
0
 11
443.7017936862044
 21
534.1638903474196
 31
0
  0
LINE
  8
1
 62
7
 10
387.9319170308648
 20
531.9597635549184
 30
0
 11
439.5587151183346
 21
529.93183956566
 31
0
  0
LINE
  8
1
 62
7
 10
373.9343554544033
 20
520.4460057273735
 30
0
 11
457.2429150286555
 21
525.3458441239642
 31
0
  0
LINE
  8
1
 62
7
 10
370.0068995914376
 20
551.703400106477
 30
0
 11
366.0596568244746
 21
529.2274290587403
 31
0
  0
LINE
  8
1
 62
7
 10
273.3700370712211
 20
517.6860457812981
 30
0
 11
268.5033823210545
 21
514.8762813512366
 31
0
  0
LINE
  8
1
 62
7
 10
191.7566190567794
 20
507.2937409358849
 30
0
 11
196.623273806946
 21
504.4839765058233
 31
0
  0
LINE
  8
1
 62
7
 10
197.5173905747392
 20
517.5354892752072
 30
0
 11
202.1518636454322
 21
514.8597750002904
 31
0
  0
LINE
  8
1
 62
7
 10
279.359265553261
 20
507.576197131686
 30
0
 11
274.7247924825682
 21
504.9004828567694
 31
0
  0
LINE
  8
1
 62
7
 10
196.4018636454322
 20
504.9004828567694
 30
0
 11
191.7673905747392
 21
507.576197131686
 31
0
  0
LINE
  8
1
 62
7
 10
268.9747924825682
 20
514.8597750002904
 30
0
 11
273.609265553261
 21
517.5354892752072
 31
0
  0
LINE
  8
1
 62
7
 10
202.1518636454322
 20
514.8597750002904
 30
0
 11
196.4018636454322
 21
504.9004828567694
 31
0
  0
LINE
  8
1
 62
7
 10
274.7247924825682
 20
504.9004828567694
 30
0
 11
268.9747924825682
 21
514.8597750002904
 31
0
  0
LINE
  8
1
 62
3
 10
438.3692553416346
 20
440.9301289285301
 30
0
 11
435.3466056108244
 21
440.9301289285301
 31
0
  0
LINE
  8
1
 62
3
 10
438.9466056108244
 20
439.9301289285301
 30
0
 11
438.3692553416346
 21
440.9301289285301
 31
0
  0
LINE
  8
1
 62
3
  6
DIVIDE
 10
406.9466056108244
 20
460.9301289285299
 30
0
 11
406.9466056108244
 21
447.4301289285301
 31
0
  0
LINE
  8
1
 62
3
  6
DIVIDE
 10
402.9466056108242
 20
447.4301289285301
 30
0
 11
402.9466056108242
 21
460.9301289285299
 31
0
  0
LINE
  8
1
 62
3
  6
DIVIDE
 10
396.9466056108244
 20
460.9301289285299
 30
0
 11
396.9466056108244
 21
447.4301289285301
 31
0
  0
LINE
  8
1
 62
3
  6
DIVIDE
 10
392.9466056108244
 20
447.4301289285301
 30
0
 11
392.9466056108244
 21
460.9301289285299
 31
0
  0
LINE
  8
1
 62
3
  6
DIVIDE
 10
413.9466056108244
 20
460.9301289285299
 30
0
 11
385.9466056108244
 21
460.9301289285299
 31
0
  0
LINE
  8
1
 62
7
 10
365.9466056108244
 20
447.4301289285301
 30
0
 11
419.9466056108244
 21
447.4301289285301
 31
0
  0
LINE
  8
1
 62
7
 10
439.0909431781216
 20
439.6801289285301
 30
0
 11
438.9466056108244
 21
439.9301289285301
 31
0
  0
LINE
  8
1
 62
7
 10
419.8126310146088
 20
439.9301289285301
 30
0
 11
438.9466056108244
 21
439.9301289285301
 31
0
  0
LINE
  8
1
 62
7
 10
418.9466056108244
 20
441.4301289285301
 30
0
 11
419.8126310146088
 21
439.9301289285301
 31
0
  0
LINE
  8
1
 62
7
 10
366.9466056108244
 20
441.4301289285301
 30
0
 11
365.9466056108244
 21
442.4301289285301
 31
0
  0
LINE
  8
1
 62
7
 10
366.9466056108244
 20
441.4301289285301
 30
0
 11
385.9466056108244
 21
441.4301289285301
 31
0
  0
LINE
  8
1
 62
7
 10
365.9466056108244
 20
452.9301289285301
 30
0
 11
365.9466056108244
 21
442.4301289285301
 31
0
  0
LINE
  8
1
 62
7
 10
365.9466056108244
 20
452.9301289285301
 30
0
 11
364.9466056108244
 21
453.9301289285301
 31
0
  0
LINE
  8
1
 62
7
 10
205.7165405466826
 20
478.6262813512366
 30
0
 11
211.7165405466826
 21
468.2339765058233
 31
0
  0
LINE
  8
1
 62
7
 10
259.4101155813178
 20
468.2339765058233
 30
0
 11
265.4101155813178
 21
478.6262813512366
 31
0
  0
LINE
  8
1
 62
7
 10
241.5633280640001
 20
555.0115067036976
 30
0
 11
241.5633280640001
 21
519.9301289285298
 31
0
  0
LINE
  8
1
 62
7
 10
241.5633280640001
 20
519.9301289285298
 30
0
 11
229.5633280640001
 21
519.9301289285298
 31
0
  0
LINE
  8
1
 62
7
 10
229.5633280640001
 20
519.9301289285298
 30
0
 11
229.5633280640001
 21
555.0115067036976
 31
0
  0
LINE
  8
1
 62
7
 10
262.020841174646
 20
496.4301289285299
 30
0
 11
268.0633280640003
 21
496.4301289285299
 31
0
  0
LINE
  8
1
 62
7
 10
268.0633280640003
 20
496.4301289285299
 30
0
 11
268.0633280640001
 21
481.4301289285299
 31
0
  0
LINE
  8
1
 62
7
 10
268.0633280640001
 20
481.4301289285299
 30
0
 11
262.020841174646
 21
481.4301289285299
 31
0
  0
LINE
  8
1
 62
3
  6
DIVIDE
 10
198.623273806946
 20
507.948078120961
 30
0
 11
210.3765548191045
 21
501.16231816473
 31
0
  0
LINE
  8
1
 62
3
  6
DIVIDE
 10
237.5633280640001
 20
447.43012892853
 30
0
 11
237.5633280640001
 21
461.001648840992
 31
0
  0
LINE
  8
1
 62
7
 10
268.5033823210545
 20
514.8762813512366
 30
0
 11
274.5033823210545
 21
504.4839765058233
 31
0
  0
LINE
  8
1
 62
7
 10
274.5033823210545
 20
504.4839765058233
 30
0
 11
279.3700370712211
 21
507.2937409358849
 31
0
  0
LINE
  8
1
 62
7
 10
196.623273806946
 20
504.4839765058233
 30
0
 11
202.623273806946
 21
514.8762813512366
 31
0
  0
LINE
  8
1
 62
7
 10
202.623273806946
 20
514.8762813512366
 30
0
 11
197.7566190567794
 21
517.6860457812981
 31
0
  0
LINE
  8
1
 62
7
 10
241.5633280640001
 20
447.43012892853
 30
0
 11
229.5633280640001
 21
447.43012892853
 31
0
  0
LINE
  8
1
 62
7
 10
229.5633280640001
 20
447.43012892853
 30
0
 11
229.5633280640001
 21
441.8106000684064
 31
0
  0
LINE
  8
1
 62
3
  6
DIVIDE
 10
212.3765548191045
 20
504.6264197798678
 30
0
 11
200.623273806946
 21
511.4121797360988
 31
0
  0
LINE
  8
1
 62
3
  6
DIVIDE
 10
233.5633280640001
 20
461.001648840992
 30
0
 11
233.5633280640001
 21
447.43012892853
 31
0
  0
LINE
  8
1
 62
3
  6
DIVIDE
 10
270.5033823210542
 20
511.4121797360988
 30
0
 11
258.7501013088958
 21
504.6264197798678
 31
0
  0
LINE
  8
1
 62
3
  6
DIVIDE
 10
260.7501013088958
 20
501.16231816473
 30
0
 11
272.5033823210542
 21
507.948078120961
 31
0
  0
LINE
  8
1
 62
7
 10
417.3466056108244
 20
536.9301289285298
 30
0
 11
435.3466056108244
 21
536.9301289285298
 31
0
  0
LINE
  8
1
 62
3
 10
438.3692553416346
 20
536.9301289285298
 30
0
 11
438.9466056108244
 21
537.9301289285298
 31
0
  0
LINE
  8
1
 62
3
  6
DIVIDE
 10
385.9466056108244
 20
460.9301289285299
 30
0
 11
385.9466056108244
 21
516.9301289285298
 31
0
  0
LINE
  8
1
 62
3
  6
DIVIDE
 10
385.9466056108244
 20
516.9301289285298
 30
0
 11
413.9466056108244
 21
516.9301289285298
 31
0
  0
LINE
  8
1
 62
3
  6
DIVIDE
 10
413.9466056108244
 20
516.9301289285298
 30
0
 11
413.9466056108244
 21
460.9301289285299
 31
0
  0
LINE
  8
1
 62
7
 10
364.9466056108244
 20
516.4301289285297
 30
0
 11
439.9466056108244
 21
516.4301289285297
 31
0
  0
LINE
  8
1
 62
7
 10
438.9466056108244
 20
537.9301289285298
 30
0
 11
439.0909431781216
 21
538.1801289285298
 31
0
  0
LINE
  8
1
 62
7
 10
438.9466056108244
 20
537.9301289285298
 30
0
 11
419.8126310146088
 21
537.9301289285298
 31
0
  0
LINE
  8
1
 62
7
 10
419.8126310146088
 20
537.9301289285298
 30
0
 11
418.9466056108244
 21
536.4301289285298
 31
0
  0
LINE
  8
1
 62
7
 10
365.9466056108244
 20
535.4301289285298
 30
0
 11
366.9466056108244
 21
536.4301289285298
 31
0
  0
LINE
  8
1
 62
7
 10
418.9466056108244
 20
536.4301289285298
 30
0
 11
417.3466056108244
 21
536.4301289285298
 31
0
  0
LINE
  8
1
 62
7
 10
365.9466056108244
 20
535.4301289285298
 30
0
 11
365.9466056108244
 21
524.9301289285298
 31
0
  0
LINE
  8
1
 62
7
 10
364.9466056108244
 20
523.9301289285298
 30
0
 11
365.9466056108244
 21
524.9301289285298
 31
0
  0
LINE
  8
1
 62
7
 10
364.9466056108244
 20
523.9301289285298
 30
0
 11
364.9466056108244
 21
453.9301289285301
 31
0
  0
LINE
  8
1
 62
7
 10
364.9466056108244
 20
519.9301289285298
 30
0
 11
437.9466056108244
 21
519.9301289285298
 31
0
  0
LINE
  8
1
 62
7
 10
229.8133280640001
 20
441.6787003786966
 30
0
 11
229.8133280640001
 21
447.0301289285299
 31
0
  0
LINE
  8
1
 62
7
 10
229.8133280640001
 20
447.0301289285299
 30
0
 11
241.3133280640001
 21
447.0301289285299
 31
0
  0
LINE
  8
1
 62
7
 10
241.3133280640001
 20
447.0301289285299
 30
0
 11
241.3133280640001
 21
441.6787003786966
 31
0
  0
LINE
  8
1
 62
7
 10
241.5633280640001
 20
441.8106000684066
 30
0
 11
241.5633280640001
 21
447.43012892853
 31
0
  0
LINE
  8
1
 62
7
 10
475.9466056108244
 20
556.4301289285298
 30
0
 11
473.4466056108244
 21
558.9301289285298
 31
0
  0
LINE
  8
1
 62
7
 10
449.7466056108244
 20
546.4301289285298
 30
0
 11
449.3466056108244
 21
546.03012892853
 31
0
  0
LINE
  8
1
 62
7
 10
449.3466056108244
 20
546.03012892853
 30
0
 11
447.0466056108244
 21
546.03012892853
 31
0
  0
LINE
  8
1
 62
7
 10
446.9466056108244
 20
548.9301289285298
 30
0
 11
446.5466056108244
 21
548.53012892853
 31
0
  0
LINE
  8
1
 62
7
 10
446.5466056108244
 20
548.53012892853
 30
0
 11
446.5466056108244
 21
546.53012892853
 31
0
  0
LINE
  8
1
 62
7
 10
466.5466056108245
 20
546.03012892853
 30
0
 11
466.1466056108245
 21
546.4301289285298
 31
0
  0
LINE
  8
1
 62
7
 10
468.8466056108245
 20
546.03012892853
 30
0
 11
466.5466056108245
 21
546.03012892853
 31
0
  0
LINE
  8
1
 62
7
 10
469.3466056108245
 20
548.53012892853
 30
0
 11
468.9466056108244
 21
548.9301289285298
 31
0
  0
LINE
  8
1
 62
7
 10
469.3466056108245
 20
546.53012892853
 30
0
 11
469.3466056108245
 21
548.53012892853
 31
0
  0
LINE
  8
1
 62
7
 10
445.4466056108244
 20
558.9301289285298
 30
0
 11
446.9466056108244
 21
557.4301289285298
 31
0
  0
LINE
  8
1
 62
7
 10
470.4466056108244
 20
558.9301289285298
 30
0
 11
468.9466056108244
 21
557.4301289285298
 31
0
  0
LINE
  8
1
 62
7
 10
449.7466056108244
 20
431.4301289285299
 30
0
 11
466.1466056108245
 21
431.4301289285299
 31
0
  0
LINE
  8
1
 62
7
 10
446.9466056108244
 20
430.6034411407238
 30
0
 11
446.9466056108244
 21
420.4301289285299
 31
0
  0
LINE
  8
1
 62
7
 10
468.9466056108244
 20
430.6034411407238
 30
0
 11
468.9466056108244
 21
420.4301289285299
 31
0
  0
LINE
  8
1
 62
7
 10
470.4466056108244
 20
418.9301289285299
 30
0
 11
473.4466056108244
 21
418.9301289285299
 31
0
  0
LINE
  8
1
 62
7
 10
473.4466056108244
 20
418.9301289285299
 30
0
 11
475.9466056108244
 21
421.4301289285299
 31
0
  0
LINE
  8
1
 62
7
 10
449.3466056108244
 20
431.8301289285299
 30
0
 11
449.7466056108244
 21
431.4301289285299
 31
0
  0
LINE
  8
1
 62
7
 10
447.0466056108244
 20
431.8301289285299
 30
0
 11
449.3466056108244
 21
431.8301289285299
 31
0
  0
LINE
  8
1
 62
7
 10
446.5466056108244
 20
429.3301289285299
 30
0
 11
446.9466056108244
 21
428.9301289285299
 31
0
  0
LINE
  8
1
 62
7
 10
446.5466056108244
 20
431.3301289285299
 30
0
 11
446.5466056108244
 21
429.3301289285299
 31
0
  0
LINE
  8
1
 62
7
 10
466.1466056108245
 20
431.4301289285299
 30
0
 11
466.5466056108245
 21
431.8301289285299
 31
0
  0
LINE
  8
1
 62
7
 10
466.5466056108245
 20
431.8301289285299
 30
0
 11
468.8466056108245
 21
431.8301289285299
 31
0
  0
LINE
  8
1
 62
7
 10
468.9466056108244
 20
428.9301289285299
 30
0
 11
469.3466056108245
 21
429.3301289285299
 31
0
  0
LINE
  8
1
 62
7
 10
469.3466056108245
 20
429.3301289285299
 30
0
 11
469.3466056108245
 21
431.3301289285299
 31
0
  0
LINE
  8
1
 62
7
 10
446.9466056108244
 20
420.4301289285299
 30
0
 11
445.4466056108244
 21
418.9301289285299
 31
0
  0
LINE
  8
1
 62
7
 10
468.9466056108244
 20
420.4301289285299
 30
0
 11
470.4466056108244
 21
418.9301289285299
 31
0
  0
LINE
  8
1
 62
7
 10
439.9466056108244
 20
421.4301289285299
 30
0
 11
442.4466056108244
 21
418.9301289285299
 31
0
  0
LINE
  8
1
 62
7
 10
439.9466056108244
 20
439.6801289285301
 30
0
 11
439.9466056108244
 21
421.4301289285299
 31
0
  0
LINE
  8
1
 62
7
 10
445.4466056108244
 20
418.9301289285299
 30
0
 11
442.4466056108244
 21
418.9301289285299
 31
0
  0
LINE
  8
1
 62
7
 10
511.9466056108245
 20
516.9301289285298
 30
0
 11
511.9466056108245
 21
460.9301289285299
 31
0
  0
LINE
  8
1
 62
7
 10
511.9466056108245
 20
460.9301289285299
 30
0
 11
439.9466056108244
 21
460.9301289285299
 31
0
  0
LINE
  8
1
 62
7
 10
439.9466056108244
 20
460.9301289285299
 30
0
 11
439.9466056108244
 21
516.9301289285298
 31
0
  0
LINE
  8
1
 62
7
 10
439.9466056108244
 20
516.9301289285298
 30
0
 11
511.9466056108245
 21
516.9301289285298
 31
0
  0
LINE
  8
1
 62
7
 10
439.9466056108244
 20
461.4301289285301
 30
0
 11
364.9466056108244
 21
461.4301289285301
 31
0
  0
LINE
  8
1
 62
7
 10
511.9466056108245
 20
516.4301289285297
 30
0
 11
586.9466056108245
 21
516.4301289285297
 31
0
  0
LINE
  8
1
 62
7
 10
508.9080483001944
 20
439.6801289285301
 30
0
 11
512.8022680435272
 21
439.6801289285301
 31
0
  0
LINE
  8
1
 62
3
  6
DASHDOT
 10
589.4466056108245
 20
488.9301289285299
 30
0
 11
586.9466056108245
 21
488.9301289285299
 31
0
  0
LINE
  8
1
 62
3
  6
DASHDOT
 10
364.9466056108244
 20
488.9301289285299
 30
0
 11
362.4466056108244
 21
488.9301289285299
 31
0
  0
LINE
  8
1
 62
3
  6
DASHDOT
 10
235.5633280640001
 20
491.4301289285299
 30
0
 11
235.5633280640001
 21
488.9301289285299
 31
0
  0
LINE
  8
1
 62
3
  6
DASHDOT
 10
233.0633280640001
 20
488.9301289285299
 30
0
 11
235.5633280640001
 21
488.9301289285299
 31
0
  0
LINE
  8
1
 62
3
  6
DASHDOT
 10
235.5633280640001
 20
486.4301289285299
 30
0
 11
235.5633280640001
 21
488.9301289285299
 31
0
  0
LINE
  8
1
 62
3
  6
DASHDOT
 10
238.0633280640001
 20
488.9301289285299
 30
0
 11
235.5633280640001
 21
488.9301289285299
 31
0
  0
ARC
  8
1
 62
7
 10
519.0466056108244
 20
432.2801289285299
 30
0
 40
0.400000000000091
 50
270
 51
90
  0
ARC
  8
1
 62
7
 10
518.8466056108243
 20
423.5801289285298
 30
0
 40
0.3999999999999473
 50
300.0000000000119
 51
59.99999999999626
  0
ARC
  8
1
 62
7
 10
528.5466056108244
 20
432.2801289285299
 30
0
 40
0.3999999999999473
 50
120.0000000000119
 51
239.9999999999963
  0
ARC
  8
1
 62
7
 10
528.3466056108243
 20
423.5801289285298
 30
0
 40
0.3999999999999773
 50
90
 51
270
  0
ARC
  8
1
 62
7
 10
494.9654754683637
 20
444.1507768768251
 30
0
 40
1.999999999999999
 50
97.72876585378637
 51
213.1018335526307
  0
ARC
  8
1
 62
7
 10
510.0440977900414
 20
453.9810947191156
 30
0
 40
19.9999999999992
 50
213.1018335526397
 51
260.7255304051678
  0
ARC
  8
1
 62
7
 10
507.1431444868115
 20
436.2163974255298
 30
0
 40
1.999999999992894
 50
260.7255304051695
 51
7.728765853782706
  0
ARC
  8
1
 62
7
 10
564.7412259701605
 20
432.9088227846554
 30
0
 40
11.99999999999955
 50
337.8260186659453
 51
92.21385426254045
  0
ARC
  8
1
 62
7
 10
578.4466056108245
 20
449.9301289285299
 30
0
 40
7.499999999999762
 50
354.03925883478
 51
97.72876585378639
  0
ARC
  8
1
 62
7
 10
512.8328394307996
 20
438.9081091223563
 30
0
 40
4.000000000000718
 50
92.21385426254118
 51
187.7287658537844
  0
ARC
  8
1
 62
7
 10
531.9466056108245
 20
580.4301289285298
 30
0
 40
49.99999999999997
 50
237.6719358778378
 51
270
  0
ARC
  8
1
 62
7
 10
513.9466056108245
 20
407.9301289285299
 30
0
 40
50
 50
90
 51
140.5800155329407
  0
ARC
  8
1
 62
7
 10
432.8466056108244
 20
545.5801289285299
 30
0
 40
0.400000000000091
 50
90
 51
270
  0
ARC
  8
1
 62
7
 10
433.0466056108244
 20
554.28012892853
 30
0
 40
0.4000000000000665
 50
119.9999999999926
 51
239.9999999999911
  0
ARC
  8
1
 62
7
 10
423.3466056108244
 20
545.5801289285299
 30
0
 40
0.3999999999998696
 50
300.0000000000089
 51
60.00000000000739
  0
ARC
  8
1
 62
7
 10
423.5466056108244
 20
554.28012892853
 30
0
 40
0.400000000000091
 50
270
 51
90
  0
ARC
  8
1
 62
7
 10
235.5633280640001
 20
488.9301289285299
 30
0
 40
75.99999999999997
 50
54.33659349067612
 51
65.66340650932399
  0
ARC
  8
1
 62
7
 10
235.5633280640001
 20
488.9301289285299
 30
0
 40
75.99999999999994
 50
24.33659349067603
 51
35.66340650932392
  0
ARC
  8
1
 62
7
 10
235.5633280640001
 20
488.9301289285299
 30
0
 40
75.99999999999993
 50
354.336593490676
 51
5.663406509323926
  0
ARC
  8
1
 62
7
 10
235.5633280640001
 20
488.9301289285299
 30
0
 40
75.99999999999994
 50
324.3365934906761
 51
335.6634065093239
  0
ARC
  8
1
 62
7
 10
235.5633280640001
 20
488.9301289285299
 30
0
 40
75.99999999999986
 50
294.336593490676
 51
305.663406509324
  0
ARC
  8
1
 62
7
 10
235.5633280640001
 20
488.9301289285299
 30
0
 40
75.99999999999996
 50
264.336593490676
 51
275.6634065093239
  0
ARC
  8
1
 62
7
 10
235.5633280640001
 20
488.9301289285299
 30
0
 40
75.99999999999989
 50
234.3365934906761
 51
245.6634065093239
  0
ARC
  8
1
 62
7
 10
235.5633280640001
 20
488.9301289285299
 30
0
 40
75.99999999999999
 50
204.3365934906761
 51
215.6634065093239
  0
ARC
  8
1
 62
7
 10
235.5633280640001
 20
488.9301289285299
 30
0
 40
75.99999999999996
 50
174.3365934906761
 51
185.663406509324
  0
ARC
  8
1
 62
7
 10
235.5633280640001
 20
488.9301289285299
 30
0
 40
75.99999999999993
 50
144.3365934906761
 51
155.6634065093238
  0
ARC
  8
1
 62
7
 10
235.5633280640001
 20
488.9301289285299
 30
0
 40
70.00000000000004
 50
66.15063982794101
 51
83.84936017205898
  0
ARC
  8
1
 62
7
 10
235.5633280640001
 20
488.9301289285299
 30
0
 40
70.00000000000003
 50
36.150639827941
 51
53.84936017205899
  0
ARC
  8
1
 62
7
 10
235.5633280640001
 20
488.9301289285299
 30
0
 40
69.99999999999984
 50
6.150639827941006
 51
23.84936017205888
  0
ARC
  8
1
 62
7
 10
235.5633280640001
 20
488.9301289285299
 30
0
 40
69.99999999999992
 50
336.1506398279411
 51
353.8493601720589
  0
ARC
  8
1
 62
7
 10
235.5633280640001
 20
488.9301289285299
 30
0
 40
69.99999999999993
 50
306.1506398279411
 51
323.8493601720591
  0
ARC
  8
1
 62
7
 10
235.5633280640001
 20
488.9301289285299
 30
0
 40
69.99999999999993
 50
276.150639827941
 51
293.8493601720591
  0
ARC
  8
1
 62
7
 10
235.5633280640001
 20
488.9301289285299
 30
0
 40
69.99999999999994
 50
246.150639827941
 51
263.8493601720589
  0
ARC
  8
1
 62
7
 10
235.5633280640001
 20
488.9301289285299
 30
0
 40
69.99999999999987
 50
216.150639827941
 51
233.8493601720589
  0
ARC
  8
1
 62
7
 10
235.5633280640001
 20
488.9301289285299
 30
0
 40
69.99999999999994
 50
186.150639827941
 51
203.8493601720589
  0
ARC
  8
1
 62
7
 10
235.5633280640001
 20
488.9301289285299
 30
0
 40
70
 50
156.1506398279409
 51
173.849360172059
  0
ARC
  8
1
 62
7
 10
235.5633280640001
 20
488.9301289285299
 30
0
 40
70
 50
126.150639827941
 51
143.8493601720589
  0
ARC
  8
1
 62
7
 10
235.5633280640001
 20
488.9301289285299
 30
0
 40
70.00000000000016
 50
96.15063982794102
 51
113.8493601720589
  0
ARC
  8
1
 62
7
 10
235.5633280640001
 20
488.9301289285299
 30
0
 40
75.99999999999999
 50
114.336593490676
 51
125.6634065093239
  0
ARC
  8
1
 62
7
 10
235.5633280640001
 20
488.9301289285299
 30
0
 40
76.0000000000002
 50
84.33659349067611
 51
95.66340650932391
  0
ARC
  8
1
 62
7
 10
235.5633280640001
 20
488.9301289285299
 30
0
 40
56.5000000000001
 50
96.09600213615789
 51
203.903997863842
  0
ARC
  8
1
 62
7
 10
235.5633280640001
 20
488.9301289285299
 30
0
 40
48.49999999999987
 50
97.10634339789131
 51
202.8936566021086
  0
ARC
  8
1
 62
7
 10
235.5633280640001
 20
488.9301289285299
 30
0
 40
47.59999999999997
 50
156.9381780821837
 51
202.7585797433469
  0
ARC
  8
1
 62
7
 10
235.5633280640001
 20
488.9301289285299
 30
0
 40
47.60000000000001
 50
276.9381780821837
 51
322.7585797433471
  0
ARC
  8
1
 62
7
 10
235.5633280640001
 20
488.9301289285299
 30
0
 40
48.49999999999997
 50
217.1063433978913
 51
322.8936566021088
  0
ARC
  8
1
 62
7
 10
235.5633280640001
 20
488.9301289285299
 30
0
 40
56.49999999999996
 50
216.0960021361579
 51
323.9039978638421
  0
ARC
  8
1
 62
7
 10
235.5633280640001
 20
488.9301289285299
 30
0
 40
48.49999999999999
 50
337.1063433978914
 51
82.89365660210868
  0
ARC
  8
1
 62
7
 10
235.5633280640001
 20
488.9301289285299
 30
0
 40
56.50000000000003
 50
336.0960021361579
 51
83.90399786384211
  0
ARC
  8
1
 62
7
 10
235.5633280640001
 20
488.9301289285299
 30
0
 40
47.60000000000007
 50
36.93817808218382
 51
82.75857974334699
  0
ARC
  8
1
 62
7
 10
373.9466056108242
 20
551.0115067036976
 30
0
 40
3.9999999999992
 50
333.8260186659356
 51
170.0392588347736
  0
ARC
  8
1
 62
7
 10
457.1254832752366
 20
527.3423935932457
 30
0
 40
1.999999999999809
 50
273.3661079584243
 51
28.73917565727106
  0
ARC
  8
1
 62
7
 10
441.3427663193231
 20
518.6875772757397
 30
0
 40
19.9999999999992
 50
28.73917565727939
 51
76.36287250980826
  0
ARC
  8
1
 62
7
 10
445.5866603654474
 20
536.1801289285296
 30
0
 40
1.999999999992841
 50
76.36287250981142
 51
183.3661079584256
  0
ARC
  8
1
 62
7
 10
388.3059459306294
 20
543.9539330710687
 30
0
 40
11.9999999999996
 50
153.8260186659464
 51
268.2138542625405
  0
ARC
  8
1
 62
7
 10
373.4466056108244
 20
527.9301289285298
 30
0
 40
7.499999999999948
 50
170.0392588347809
 51
273.7287658537853
  0
ARC
  8
1
 62
7
 10
439.7086947476411
 20
533.929026840582
 30
0
 40
4.000000000000659
 50
267.8511963671794
 51
3.366107958422489
  0
ARC
  8
1
 62
7
 10
235.5633280640001
 20
488.9301289285299
 30
0
 40
47.59999999999999
 50
97.24142025665302
 51
143.0618219178162
  0
ARC
  8
1
 62
7
 10
235.5633280640001
 20
488.9301289285299
 30
0
 40
47.60000000000007
 50
337.2414202566532
 51
23.0618219178163
  0
ARC
  8
1
 62
7
 10
235.5633280640001
 20
488.9301289285299
 30
0
 40
47.60000000000004
 50
217.241420256653
 51
263.0618219178163
  0
ARC
  8
1
 62
7
 10
419.9466056108244
 20
397.4301289285301
 30
0
 40
49.99999999999988
 50
57.67193587783795
 51
90
  0
ARC
  8
1
 62
7
 10
235.5633280640001
 20
488.9301289285299
 30
0
 40
34.99999999999983
 50
219.8708896061395
 51
320.1291103938606
  0
ARC
  8
1
 62
7
 10
235.5633280640001
 20
488.9301289285299
 30
0
 40
47.49999999999984
 50
217.2567473075369
 51
262.7432526924632
  0
ARC
  8
1
 62
7
 10
235.5633280640001
 20
488.9301289285299
 30
0
 40
47.50000000000011
 50
337.2567473075368
 51
22.74325269246312
  0
ARC
  8
1
 62
7
 10
235.5633280640001
 20
488.9301289285299
 30
0
 40
35.00000000000002
 50
339.8708896061397
 51
80.12911039386046
  0
ARC
  8
1
 62
7
 10
235.5633280640001
 20
488.9301289285299
 30
0
 40
35.00000000000003
 50
99.87088960613953
 51
200.1291103938604
  0
ARC
  8
1
 62
7
 10
235.5633280640001
 20
488.9301289285299
 30
0
 40
47.49999999999998
 50
97.25674730753678
 51
142.7432526924632
  0
ARC
  8
1
 62
7
 10
235.5633280640001
 20
488.9301289285299
 30
0
 40
27.50000000000001
 50
15.82662013187234
 51
344.1733798681277
  0
ARC
  8
1
 62
7
 10
235.5633280640001
 20
488.9301289285299
 30
0
 40
47.49999999999982
 50
157.2567473075368
 51
202.7432526924633
  0
ARC
  8
1
 62
7
 10
235.5633280640001
 20
488.9301289285299
 30
0
 40
47.5
 50
37.25674730753655
 51
82.74325269246322
  0
ARC
  8
1
 62
7
 10
235.5633280640001
 20
488.9301289285299
 30
0
 40
47.49999999999992
 50
277.2567473075368
 51
322.7432526924634
  0
ARC
  8
1
 62
7
 10
235.5633280640001
 20
488.9301289285299
 30
0
 40
35.99999999999969
 50
219.5940682268606
 51
320.4059317731397
  0
ARC
  8
1
 62
7
 10
235.5633280640001
 20
488.9301289285299
 30
0
 40
35.9999999999999
 50
339.5940682268608
 51
80.40593177313953
  0
ARC
  8
1
 62
7
 10
235.5633280640001
 20
488.9301289285299
 30
0
 40
35.99999999999993
 50
99.59406822686046
 51
200.4059317731396
  0
ARC
  8
1
 62
7
 10
437.9466056108244
 20
569.9301289285298
 30
0
 40
50
 50
270
 51
320.5800155329408
  0
ARC
  8
1
 62
7
 10
235.5633280640001
 20
488.9301289285299
 30
0
 40
46.49999999999975
 50
97.41367380152578
 51
142.5863261984742
  0
ARC
  8
1
 62
7
 10
235.5633280640001
 20
488.9301289285299
 30
0
 40
46.49999999999979
 50
157.4136738015257
 51
202.5863261984742
  0
ARC
  8
1
 62
7
 10
235.5633280640001
 20
488.9301289285299
 30
0
 40
46.49999999999974
 50
217.4136738015258
 51
262.5863261984745
  0
ARC
  8
1
 62
7
 10
235.5633280640001
 20
488.9301289285299
 30
0
 40
46.49999999999984
 50
277.413673801526
 51
322.5863261984743
  0
ARC
  8
1
 62
7
 10
235.5633280640001
 20
488.9301289285299
 30
0
 40
46.4999999999998
 50
337.4136738015259
 51
22.58632619847426
  0
ARC
  8
1
 62
7
 10
235.5633280640001
 20
488.9301289285299
 30
0
 40
46.49999999999988
 50
37.41367380152582
 51
82.58632619847424
  0
ARC
  8
1
 62
7
 10
579.5578991084462
 20
426.8700979926846
 30
0
 40
3.999999999999248
 50
157.8260186659377
 51
354.0392588347741
  0
CIRCLE
  8
1
 62
7
 10
520.5466056108244
 20
432.2801289285299
 30
0
 40
0.3999999999998636
  0
CIRCLE
  8
1
 62
7
 10
519.6466056108245
 20
423.5801289285298
 30
0
 40
0.400000000000091
  0
CIRCLE
  8
1
 62
7
 10
522.3466056108243
 20
432.2801289285299
 30
0
 40
0.3999999999998636
  0
CIRCLE
  8
1
 62
7
 10
521.4466056108245
 20
423.5801289285298
 30
0
 40
0.400000000000091
  0
CIRCLE
  8
1
 62
7
 10
524.1466056108245
 20
432.2801289285299
 30
0
 40
0.400000000000091
  0
CIRCLE
  8
1
 62
7
 10
523.2466056108244
 20
423.5801289285298
 30
0
 40
0.400000000000091
  0
CIRCLE
  8
1
 62
7
 10
525.9466056108245
 20
432.2801289285299
 30
0
 40
0.400000000000091
  0
CIRCLE
  8
1
 62
7
 10
525.0466056108244
 20
423.5801289285298
 30
0
 40
0.3999999999998636
  0
CIRCLE
  8
1
 62
7
 10
527.7466056108244
 20
432.2801289285299
 30
0
 40
0.400000000000091
  0
CIRCLE
  8
1
 62
7
 10
526.8466056108243
 20
423.5801289285298
 30
0
 40
0.3999999999998636
  0
CIRCLE
  8
1
 62
7
 10
578.4466056108245
 20
449.9301289285299
 30
0
 40
3.5
  0
CIRCLE
  8
1
 62
7
 10
431.3466056108244
 20
545.5801289285299
 30
0
 40
0.4000000000000341
  0
CIRCLE
  8
1
 62
7
 10
432.2466056108244
 20
554.28012892853
 30
0
 40
0.3999999999998636
  0
CIRCLE
  8
1
 62
7
 10
429.5466056108244
 20
545.5801289285299
 30
0
 40
0.4000000000000341
  0
CIRCLE
  8
1
 62
7
 10
430.4466056108244
 20
554.28012892853
 30
0
 40
0.3999999999999204
  0
CIRCLE
  8
1
 62
7
 10
427.7466056108244
 20
545.5801289285299
 30
0
 40
0.3999999999998636
  0
CIRCLE
  8
1
 62
7
 10
428.6466056108244
 20
554.28012892853
 30
0
 40
0.3999999999999773
  0
CIRCLE
  8
1
 62
7
 10
425.9466056108244
 20
545.5801289285299
 30
0
 40
0.3999999999999204
  0
CIRCLE
  8
1
 62
7
 10
426.8466056108244
 20
554.28012892853
 30
0
 40
0.4000000000000341
  0
CIRCLE
  8
1
 62
7
 10
424.1466056108244
 20
545.5801289285299
 30
0
 40
0.3999999999999773
  0
CIRCLE
  8
1
 62
7
 10
425.0466056108244
 20
554.28012892853
 30
0
 40
0.4000000000000341
  0
CIRCLE
  8
1
 62
7
 10
373.4466056108244
 20
527.9301289285298
 30
0
 40
3.5
  0
CIRCLE
  8
1
 62
7
 10
235.5633280640001
 20
488.9301289285299
 30
0
 40
66.99999999999997
  0
CIRCLE
  8
1
 62
7
 10
235.5633280640001
 20
488.9301289285299
 30
0
 40
69.49999999999997
  0
POLYLINE
  8
1
 62
7
 66
1
  0
VERTEX
  8
1
 10
514.5466056108244
 20
424.9301289285298
 30
0
 42
-0.03802146544834942
  0
VERTEX
  8
1
 10
514.0258955516528
 20
425.8532058516068
 30
0
 42
-0.0446249071053693
  0
VERTEX
  8
1
 10
513.6945346049072
 20
426.7762827746836
 30
0
 42
-0.04961113396151079
  0
VERTEX
  8
1
 10
513.5525227705876
 20
427.6993596977605
 30
0
 42
-0.05117004438647291
  0
VERTEX
  8
1
 10
513.5998600486943
 20
428.6224366208376
 30
0
 42
-0.04862347727484746
  0
VERTEX
  8
1
 10
513.8365464392267
 20
429.5455135439144
 30
0
 42
-0.04305110278379323
  0
VERTEX
  8
1
 10
514.2625819421853
 20
430.4685904669914
 30
0
  0
VERTEX
  8
1
 10
514.5466056108244
 20
430.9301289285298
 30
0
  0
SEQEND
  8
1
  0
POLYLINE
  8
1
 62
7
 66
1
  0
VERTEX
  8
1
 10
437.3466056108244
 20
552.9301289285298
 30
0
 42
-0.038021465448378
  0
VERTEX
  8
1
 10
437.867315669996
 20
552.0070520054529
 30
0
 42
-0.04462490710533812
  0
VERTEX
  8
1
 10
438.1986766167415
 20
551.083975082376
 30
0
 42
-0.04961113396156293
  0
VERTEX
  8
1
 10
438.3406884510611
 20
550.160898159299
 30
0
 42
-0.05117004438624043
  0
VERTEX
  8
1
 10
438.2933511729546
 20
549.2378212362222
 30
0
 42
-0.04862347727469501
  0
VERTEX
  8
1
 10
438.056664782422
 20
548.3147443131452
 30
0
 42
-0.04305110278376598
  0
VERTEX
  8
1
 10
437.6306292794635
 20
547.3916673900683
 30
0
  0
VERTEX
  8
1
 10
437.3466056108244
 20
546.9301289285298
 30
0
  0
SEQEND
  8
1
  0
ARC
  8
1
 62
3
  6
DIVIDE
 10
504.8466056108245
 20
431.3301289285297
 30
0
 40
0.5
 50
0
 51
90
  0
ARC
  8
1
 62
3
  6
DIVIDE
 10
483.0466056108244
 20
431.3301289285297
 30
0
 40
0.5
 50
90
 51
180
  0
ARC
  8
1
 62
3
  6
DIVIDE
 10
504.8466056108245
 20
546.53012892853
 30
0
 40
0.5
 50
270
 51
0
  0
ARC
  8
1
 62
3
  6
DIVIDE
 10
483.0466056108244
 20
546.53012892853
 30
0
 40
0.5
 50
180
 51
270
  0
ARC
  8
1
 62
7
 10
447.0466056108244
 20
546.53012892853
 30
0
 40
0.5
 50
180
 51
270
  0
ARC
  8
1
 62
7
 10
468.8466056108245
 20
546.53012892853
 30
0
 40
0.5
 50
270
 51
0
  0
ARC
  8
1
 62
7
 10
447.0466056108244
 20
431.3301289285299
 30
0
 40
0.5
 50
90
 51
180
  0
ARC
  8
1
 62
7
 10
468.8466056108245
 20
431.3301289285299
 30
0
 40
0.5
 50
0
 51
90
  0
TEXT
  8
1
 62
7
 10
208.6118902500474
 20
612.1016558911449
 30
0
 40
10
  1
OD 558
 41
0.9
  7
SIMPLEX
 72
1
 11
235.6118902500474
 21
612.1016558911449
 31
0
  0
ENDSEC
  0
EOF
