  0
SECTION
  2
HEADER
  9
$ACADVER
  1
AC1009
  9
$INSBASE
 10
0
 20
0
  9
$EXTMIN
 10
253.9999999999999
 20
153.049905287833
  9
$EXTMAX
 10
584.8259286628197
 20
336.941305473311
  9
$LIMMIN
 10
253.9999999999999
 20
153.049905287833
  9
$LIMMAX
 10
584.8259286628197
 20
336.941305473311
  9
$VIEWCTR
 10
10
 20
10
  9
$VIEWSIZE
 40
10
  9
$SNAPMODE
 70
0
  9
$SNAPUNIT
 10
1
 20
1
  9
$SNAPBASE
 10
0
 20
0
  9
$SNAPANG
 50
0
  9
$SNAPSTYLE
 70
0
  9
$SNAPISOPAIR
 70
0
  9
$GRIDMODE
 70
0
  9
$GRIDUNIT
 10
0
 20
0
  9
$ORTHOMODE
 70
0
  9
$REGENMODE
 70
1
  9
$FILLMODE
 70
1
  9
$QTEXTMODE
 70
0
  9
$DRAGMODE
 70
2
  9
$LTSCALE
 40
1
  9
$OSMODE
 70
0
  9
$ATTMODE
 70
1
  9
$TEXTSIZE
 40
3.5
  9
$TRACEWID
 40
0.5
  9
$TEXTSTYLE
  7
STANDARD
  9
$CLAYER
  8
0
  9
$CELTYPE
  6
BYLAYER
  9
$CECOLOR
 62
256
  9
$DIMSCALE
 40
1
  9
$DIMASZ
 40
0.18
  9
$DIMEXO
 40
0.0625
  9
$DIMDLI
 40
0.38
  9
$DIMRND
 40
0
  9
$DIMDLE
 40
0
  9
$DIMEXE
 40
0.18
  9
$DIMTP
 40
0
  9
$DIMTM
 40
0
  9
$DIMTXT
 40
0.18
  9
$DIMCEN
 40
0.09
  9
$DIMTSZ
 40
0
  9
$DIMTOL
 70
0
  9
$DIMLIM
 70
0
  9
$DIMTIH
 70
1
  9
$DIMTOH
 70
1
  9
$DIMSE1
 70
0
  9
$DIMSE2
 70
0
  9
$DIMTAD
 70
0
  9
$DIMZIN
 70
0
  9
$DIMBLK
  1

  9
$DIMASO
 70
1
  9
$DIMSHO
 70
1
  9
$DIMPOST
  1

  9
$DIMAPOST
  1

  9
$DIMALT
 70
0
  9
$DIMALTD
 70
2
  9
$DIMALTF
 40
25.4
  9
$DIMLFAC
 40
1
  9
$DIMTOFL
 70
0
  9
$DIMTVP
 40
0
  9
$DIMTIX
 70
0
  9
$DIMSOXD
 70
0
  9
$DIMSAH
 70
0
  9
$DIMBLK1
  1

  9
$DIMBLK2
  1

  9
$DIMSTYLE
  2
*UNNAMED
  9
$DIMCLRD
 70
0
  9
$DIMCLRE
 70
0
  9
$DIMCLRT
 70
0
  9
$DIMTFAC
 40
1
  9
$DIMGAP
 40
0.09
  9
$LUNITS
 70
2
  9
$LUPREC
 70
4
  9
$AXISMODE
 70
0
  9
$AXISUNIT
 10
0
 20
0
  9
$SKETCHINC
 40
0.1
  9
$FILLETRAD
 40
2
  9
$AUNITS
 70
0
  9
$AUPREC
 70
0
  9
$MENU
  1
ACAD
  9
$ELEVATION
 40
0
  9
$THICKNESS
 40
0
  9
$VIEWDIR
 10
0
 20
0
 30
1
  9
$LIMCHECK
 70
0
  9
$BLIPMODE
 70
1
  9
$CHAMFERA
 40
0
  9
$CHAMFERB
 40
0
  9
$FASTZOOM
 70
1
  9
$SKPOLY
 70
0
  9
$ANGBASE
 50
0
  9
$ANGDIR
 70
0
  9
$PDMODE
 70
0
  9
$PDSIZE
 40
0
  9
$PLINEWID
 40
0
  9
$COORDS
 70
2
  0
ENDSEC
  0
SECTION
  2
TABLES
  0
TABLE
  2
DIMSTYLE
 70
0
  0
ENDTAB
  0
TABLE
  2
LTYPE
 70
9
  0
LTYPE
  2
CONTINUOUS
 70
64
  3
Solid line
 72
65
 73
0
 40
0
  0
LTYPE
  2
BORDER
 70
64
  3
__ __ . __ __ .
 72
65
 73
6
 40
15.23540460947196
 49
4.352972745563418
 49
-2.176486372781709
 49
4.352972745563418
 49
-2.176486372781709
 49
0
 49
-2.176486372781709
  0
LTYPE
  2
CENTER
 70
64
  3
____ _ ____ _
 72
65
 73
4
 40
17.41189098225367
 49
10.88243186390855
 49
-2.176486372781709
 49
2.176486372781709
 49
-2.176486372781709
  0
LTYPE
  2
DASHDOT
 70
64
  3
__ . __ . __ .
 72
65
 73
4
 40
8.705945491126837
 49
4.352972745563418
 49
-2.176486372781709
 49
0
 49
-2.176486372781709
  0
LTYPE
  2
DASHED
 70
64
  3
__ __ __ __ __
 72
65
 73
2
 40
6.529459118345128
 49
4.352972745563418
 49
-2.176486372781709
  0
LTYPE
  2
DIVIDE
 70
64
  3
__ . . __ . . 
 72
65
 73
6
 40
10.88243186390855
 49
4.352972745563418
 49
-2.176486372781709
 49
0
 49
-2.176486372781709
 49
0
 49
-2.176486372781709
  0
LTYPE
  2
DOT
 70
64
  3
..............
 72
65
 73
4
 40
4.352972745563418
 49
0
 49
-2.176486372781709
 49
0
 49
-2.176486372781709
  0
LTYPE
  2
HIDDEN
 70
64
  3
_ _ _ _ _ _ _
 72
65
 73
2
 40
3.264729559172564
 49
2.176486372781709
 49
-1.088243186390855
  0
LTYPE
  2
PHANTOM
 70
64
  3
_____ _ _ _____ _ _ 
 72
65
 73
6
 40
21.76486372781709
 49
10.88243186390855
 49
-2.176486372781709
 49
2.176486372781709
 49
-2.176486372781709
 49
2.176486372781709
 49
-2.176486372781709
  0
ENDTAB
  0
TABLE
  2
LAYER
 70
3
  0
LAYER
  2
1
 70
0
 62
7
  6
CONTINUOUS
  0
LAYER
  2
0
 70
0
 62
7
  6
CONTINUOUS
  0
ENDTAB
  0
TABLE
  2
STYLE
 70
4
  0
STYLE
  2
STANDARD
 70
0
 40
0
 41
1
 50
0
 71
0
 42
3.5
  3
txt
  4

  0
STYLE
  2
SIMPLEX
 70
0
 40
0
 41
1
 50
0
 71
0
 42
3.5
  3
simplex
  4

  0
STYLE
  2
COMPLEX
 70
0
 40
0
 41
1
 50
0
 71
0
 42
3.5
  3
complex
  4

  0
STYLE
  2
ITALIC
 70
0
 40
0
 41
1
 50
0
 71
0
 42
3.5
  3
italic
  4

  0
ENDTAB
  0
TABLE
  2
VIEW
 70
0
  0
ENDTAB
  0
ENDSEC
  0
SECTION
  2
BLOCKS
  0
ENDSEC
  0
SECTION
  2
ENTITIES
  0
LINE
  8
1
 62
3
  6
DASHDOT
 10
560.8259286628197
 20
183.7500000000001
 30
0
 11
560.8259286628197
 21
153.049905287833
 31
0
  0
LINE
  8
1
 62
3
  6
DASHDOT
 10
542.8259286628197
 20
183.7500000000001
 30
0
 11
542.8259286628197
 21
153.049905287833
 31
0
  0
LINE
  8
1
 62
3
  6
DIVIDE
 10
578.8259286628197
 20
180.7500000000001
 30
0
 11
578.8259286628197
 21
162.5
 31
0
  0
LINE
  8
1
 62
3
  6
DIVIDE
 10
576.3259286628197
 20
160
 30
0
 11
573.3259286628197
 21
160
 31
0
  0
LINE
  8
1
 62
3
  6
DIVIDE
 10
571.8259286628197
 20
161.5
 30
0
 11
573.3259286628197
 21
160
 31
0
  0
LINE
  8
1
 62
3
  6
DIVIDE
 10
571.8259286628197
 20
161.5
 30
0
 11
571.8259286628197
 21
172.5
 31
0
  0
LINE
  8
1
 62
3
  6
DIVIDE
 10
571.8259286628197
 20
172.5
 30
0
 11
549.8259286628197
 21
172.5
 31
0
  0
LINE
  8
1
 62
3
  6
DIVIDE
 10
549.8259286628197
 20
172.5
 30
0
 11
549.8259286628197
 21
161.5
 31
0
  0
LINE
  8
1
 62
3
  6
DIVIDE
 10
548.3259286628197
 20
160
 30
0
 11
549.8259286628197
 21
161.5
 31
0
  0
LINE
  8
1
 62
3
  6
DIVIDE
 10
548.3259286628197
 20
160
 30
0
 11
545.3259286628197
 21
160
 31
0
  0
LINE
  8
1
 62
3
  6
DIVIDE
 10
542.8259286628197
 20
162.5
 30
0
 11
545.3259286628197
 21
160
 31
0
  0
LINE
  8
1
 62
3
  6
DIVIDE
 10
542.8259286628197
 20
162.5
 30
0
 11
542.8259286628197
 21
180.7500000000001
 31
0
  0
LINE
  8
1
 62
3
  6
DIVIDE
 10
542.8259286628197
 20
279.2499999999999
 30
0
 11
542.8259286628197
 21
297.5
 31
0
  0
LINE
  8
1
 62
3
  6
DIVIDE
 10
545.3259286628197
 20
300
 30
0
 11
542.8259286628197
 21
297.5
 31
0
  0
LINE
  8
1
 62
3
  6
DIVIDE
 10
549.8259286628197
 20
298.5
 30
0
 11
548.3259286628197
 21
300
 31
0
  0
LINE
  8
1
 62
3
  6
DIVIDE
 10
545.3259286628197
 20
300
 30
0
 11
548.3259286628197
 21
300
 31
0
  0
LINE
  8
1
 62
3
  6
DIVIDE
 10
549.8259286628197
 20
298.5
 30
0
 11
549.8259286628197
 21
287.5
 31
0
  0
LINE
  8
1
 62
3
  6
DIVIDE
 10
549.8259286628197
 20
287.5
 30
0
 11
571.8259286628197
 21
287.5
 31
0
  0
LINE
  8
1
 62
3
  6
DIVIDE
 10
571.8259286628197
 20
287.5
 30
0
 11
571.8259286628197
 21
298.5
 31
0
  0
LINE
  8
1
 62
3
  6
DIVIDE
 10
573.3259286628197
 20
300
 30
0
 11
571.8259286628197
 21
298.5
 31
0
  0
LINE
  8
1
 62
3
  6
DIVIDE
 10
573.3259286628197
 20
300
 30
0
 11
576.3259286628197
 21
300
 31
0
  0
LINE
  8
1
 62
3
  6
DIVIDE
 10
578.8259286628197
 20
297.5
 30
0
 11
578.8259286628197
 21
279.2499999999999
 31
0
  0
LINE
  8
1
 62
7
 10
290.7135355814319
 20
245.7538475772934
 30
0
 11
296.713535581432
 21
256.1461524227067
 31
0
  0
LINE
  8
1
 62
7
 10
363.286464418568
 20
256.1461524227068
 30
0
 11
369.2864644185681
 21
245.7538475772934
 31
0
  0
LINE
  8
1
 62
3
  6
DASHDOT
 10
560.8259286628197
 20
306.950094712167
 30
0
 11
560.8259286628197
 21
276.2499999999999
 31
0
  0
LINE
  8
1
 62
3
  6
DASHDOT
 10
330
 20
240
 30
0
 11
330
 21
220
 31
0
  0
LINE
  8
1
 62
7
 10
508.6450891563341
 20
286
 30
0
 11
508.4259286628198
 21
287.2429209224459
 31
0
  0
LINE
  8
1
 62
7
 10
510.4083589634187
 20
296
 30
0
 11
508.6450891563341
 21
286
 31
0
  0
LINE
  8
1
 62
7
 10
512.1716287705033
 20
286
 30
0
 11
510.4083589634187
 21
296
 31
0
  0
LINE
  8
1
 62
7
 10
513.9348985775879
 20
296
 30
0
 11
512.1716287705033
 21
286
 31
0
  0
LINE
  8
1
 62
7
 10
515.6981683846725
 20
286
 30
0
 11
513.9348985775879
 21
296
 31
0
  0
LINE
  8
1
 62
7
 10
517.4614381917571
 20
296
 30
0
 11
515.6981683846725
 21
286
 31
0
  0
LINE
  8
1
 62
7
 10
517.7259286628198
 20
294.5
 30
0
 11
517.4614381917571
 21
296
 31
0
  0
LINE
  8
1
 62
3
  6
DASHDOT
 10
579.8259286628197
 20
230
 30
0
 11
584.8259286628197
 21
230
 31
0
  0
LINE
  8
1
 62
3
 10
472.8259286628199
 20
306
 30
0
 11
499.22592866282
 21
277.4999999999998
 31
0
  0
LINE
  8
1
 62
3
 10
499.2259286628199
 20
306
 30
0
 11
472.8259286628199
 21
277.4999999999999
 31
0
  0
LINE
  8
1
 62
7
 10
499.2259286628199
 20
306
 30
0
 11
499.22592866282
 21
277.4999999999998
 31
0
  0
LINE
  8
1
 62
7
 10
499.2259286628199
 20
306
 30
0
 11
472.8259286628199
 21
306
 31
0
  0
LINE
  8
1
 62
7
 10
472.8259286628199
 20
277.4999999999999
 30
0
 11
472.8259286628199
 21
306
 31
0
  0
LINE
  8
1
 62
3
 10
499.2259286628199
 20
154
 30
0
 11
472.8259286628199
 21
188.1
 31
0
  0
LINE
  8
1
 62
3
 10
499.2259286628199
 20
188.1
 30
0
 11
472.8259286628199
 21
154
 31
0
  0
LINE
  8
1
 62
7
 10
472.8259286628199
 20
154
 30
0
 11
499.2259286628199
 21
154
 31
0
  0
LINE
  8
1
 62
7
 10
472.8259286628199
 20
188.1
 30
0
 11
472.8259286628199
 21
154
 31
0
  0
LINE
  8
1
 62
7
 10
579.8259286628197
 20
202.5
 30
0
 11
449.8259286628199
 21
202.5
 31
0
  0
LINE
  8
1
 62
3
  6
DASHDOT
 10
340
 20
230
 30
0
 11
320
 21
230
 31
0
  0
LINE
  8
1
 62
7
 10
361.3193238807695
 20
299.2466602201976
 30
0
 11
358.3033367393046
 21
294.0228172562061
 31
0
  0
LINE
  8
1
 62
7
 10
391.7466602201978
 20
274.3097049375357
 30
0
 11
386.5228172562063
 21
271.2937177960709
 31
0
  0
LINE
  8
1
 62
7
 10
405.6290288183052
 20
237.4999999999998
 30
0
 11
399.5970545353755
 21
237.4999999999998
 31
0
  0
LINE
  8
1
 62
7
 10
399.2466602201977
 20
198.6806761192306
 30
0
 11
394.0228172562061
 21
201.6966632606954
 31
0
  0
LINE
  8
1
 62
7
 10
374.3097049375358
 20
168.2533397798023
 30
0
 11
371.293717796071
 21
173.4771827437938
 31
0
  0
LINE
  8
1
 62
7
 10
337.4999999999999
 20
154.3709711816949
 30
0
 11
337.4999999999999
 21
160.4029454646246
 31
0
  0
LINE
  8
1
 62
7
 10
298.6806761192306
 20
160.7533397798024
 30
0
 11
301.6966632606955
 21
165.9771827437939
 31
0
  0
LINE
  8
1
 62
7
 10
268.2533397798023
 20
185.6902950624642
 30
0
 11
273.477182743794
 21
188.706282203929
 31
0
  0
LINE
  8
1
 62
7
 10
254.370971181695
 20
222.5
 30
0
 11
260.4029454646247
 21
222.5
 31
0
  0
LINE
  8
1
 62
7
 10
260.7533397798025
 20
261.3193238807692
 30
0
 11
265.977182743794
 21
258.3033367393044
 31
0
  0
LINE
  8
1
 62
7
 10
285.6902950624642
 20
291.7466602201975
 30
0
 11
288.7062822039291
 21
286.5228172562059
 31
0
  0
LINE
  8
1
 62
7
 10
374.3097049375361
 20
291.7466602201976
 30
0
 11
371.2937177960712
 21
286.5228172562061
 31
0
  0
LINE
  8
1
 62
7
 10
399.2466602201978
 20
261.3193238807691
 30
0
 11
394.0228172562063
 21
258.3033367393043
 31
0
  0
LINE
  8
1
 62
7
 10
405.6290288183052
 20
222.4999999999998
 30
0
 11
399.5970545353755
 21
222.4999999999998
 31
0
  0
LINE
  8
1
 62
7
 10
391.7466602201976
 20
185.690295062464
 30
0
 11
386.5228172562061
 21
188.7062822039288
 31
0
  0
LINE
  8
1
 62
7
 10
361.3193238807692
 20
160.7533397798023
 30
0
 11
358.3033367393043
 21
165.9771827437938
 31
0
  0
LINE
  8
1
 62
7
 10
322.4999999999999
 20
154.3709711816949
 30
0
 11
322.4999999999999
 21
160.4029454646246
 31
0
  0
LINE
  8
1
 62
7
 10
285.690295062464
 20
168.2533397798024
 30
0
 11
288.7062822039289
 21
173.4771827437939
 31
0
  0
LINE
  8
1
 62
7
 10
260.7533397798023
 20
198.6806761192308
 30
0
 11
265.977182743794
 21
201.6966632606956
 31
0
  0
LINE
  8
1
 62
7
 10
254.370971181695
 20
237.5
 30
0
 11
260.4029454646247
 21
237.5
 31
0
  0
LINE
  8
1
 62
7
 10
268.2533397798025
 20
274.3097049375357
 30
0
 11
273.4771827437941
 21
271.2937177960709
 31
0
  0
LINE
  8
1
 62
7
 10
298.6806761192308
 20
299.2466602201975
 30
0
 11
301.6966632606957
 21
294.0228172562059
 31
0
  0
LINE
  8
1
 62
7
 10
337.5
 20
305.629028818305
 30
0
 11
337.5
 21
299.5970545353753
 31
0
  0
LINE
  8
1
 62
7
 10
322.5
 20
305.629028818305
 30
0
 11
322.5
 21
299.5970545353753
 31
0
  0
LINE
  8
1
 62
7
 10
359.8467875173175
 20
219.6961524227067
 30
0
 11
390.22503747142
 21
202.1572616341958
 31
0
  0
LINE
  8
1
 62
7
 10
306.1532124826826
 20
209.3038475772932
 30
0
 11
275.77496252858
 21
191.7649567887826
 31
0
  0
LINE
  8
1
 62
7
 10
384.22503747142
 20
191.7649567887825
 30
0
 11
353.8467875173178
 21
209.3038475772935
 31
0
  0
LINE
  8
1
 62
7
 10
269.77496252858
 20
202.1572616341959
 30
0
 11
300.1532124826825
 21
219.6961524227064
 31
0
  0
LINE
  8
1
 62
7
 10
390.22503747142
 20
202.1572616341958
 30
0
 11
384.22503747142
 21
191.7649567887825
 31
0
  0
LINE
  8
1
 62
7
 10
275.77496252858
 20
191.7649567887826
 30
0
 11
269.77496252858
 21
202.1572616341959
 31
0
  0
LINE
  8
1
 62
7
 10
360.2910244250211
 20
219.43967212446
 30
0
 11
354.2910244250213
 21
209.047367279047
 31
0
  0
LINE
  8
1
 62
7
 10
305.708975574979
 20
209.0473672790466
 30
0
 11
299.708975574979
 21
219.4396721244599
 31
0
  0
LINE
  8
1
 62
7
 10
324
 20
261
 30
0
 11
324
 21
296.0777815770215
 31
0
  0
LINE
  8
1
 62
7
 10
336
 20
296.0777815770215
 30
0
 11
336
 21
261
 31
0
  0
LINE
  8
1
 62
7
 10
324
 20
296.0777815770215
 30
0
 11
336
 21
296.0777815770215
 31
0
  0
LINE
  8
1
 62
7
 10
324
 20
261.5129605964932
 30
0
 11
336
 21
261.5129605964932
 31
0
  0
LINE
  8
1
 62
7
 10
286.193290992779
 20
248.363612007355
 30
0
 11
291.0599457429456
 21
245.5538475772934
 31
0
  0
LINE
  8
1
 62
7
 10
367.8067090072208
 20
258.7559168527683
 30
0
 11
362.9400542570538
 21
255.9461524227069
 31
0
  0
LINE
  8
1
 62
7
 10
336.0000000000006
 20
182.8804711398766
 30
0
 11
336
 21
188.5000000000001
 31
0
  0
LINE
  8
1
 62
7
 10
578.8259286628197
 20
265.9999999999999
 30
0
 11
578.8259286628197
 21
279.2499999999999
 31
0
  0
LINE
  8
1
 62
7
 10
449.8259286628199
 20
257.5
 30
0
 11
579.8259286628197
 21
257.5
 31
0
  0
LINE
  8
1
 62
3
  6
DIVIDE
 10
526.8259286628197
 20
274.7499999999998
 30
0
 11
576.8259286628197
 21
274.7499999999998
 31
0
  0
LINE
  8
1
 62
3
  6
DIVIDE
 10
526.8259286628197
 20
283.2500000000001
 30
0
 11
526.8259286628197
 21
274.7499999999998
 31
0
  0
LINE
  8
1
 62
3
  6
DIVIDE
 10
576.8259286628197
 20
283.2500000000001
 30
0
 11
526.8259286628197
 21
283.2500000000001
 31
0
  0
LINE
  8
1
 62
3
  6
DIVIDE
 10
576.8259286628197
 20
274.7499999999998
 30
0
 11
576.8259286628197
 21
283.2500000000001
 31
0
  0
LINE
  8
1
 62
7
 10
522.2259286628198
 20
293
 30
0
 11
522.2259286628198
 21
307
 31
0
  0
LINE
  8
1
 62
7
 10
522.2259286628198
 20
307
 30
0
 11
520.2259286628198
 21
307
 31
0
  0
LINE
  8
1
 62
7
 10
522.2259286628198
 20
285
 30
0
 11
522.2259286628198
 21
288.7532144108631
 31
0
  0
LINE
  8
1
 62
7
 10
520.2259286628198
 20
285
 30
0
 11
522.2259286628198
 21
285
 31
0
  0
LINE
  8
1
 62
7
 10
520.2259286628198
 20
287.5
 30
0
 11
508.4259286628198
 21
287.5
 31
0
  0
LINE
  8
1
 62
7
 10
520.2259286628198
 20
294.5
 30
0
 11
508.4259286628198
 21
294.5
 31
0
  0
LINE
  8
1
 62
3
 10
520.2259286628198
 20
277.9999999999999
 30
0
 11
523.2485783936302
 21
277.9999999999999
 31
0
  0
LINE
  8
1
 62
3
 10
520.2259286628198
 20
278.9999999999999
 30
0
 11
505.2259286628199
 21
278.9999999999999
 31
0
  0
LINE
  8
1
 62
7
 10
520.2259286628198
 20
307
 30
0
 11
520.2259286628198
 21
277.9999999999999
 31
0
  0
LINE
  8
1
 62
7
 10
517.7259286628198
 20
287.5
 30
0
 11
517.7259286628198
 21
286
 31
0
  0
LINE
  8
1
 62
7
 10
520.2259286628198
 20
288.7532144108631
 30
0
 11
523.2259286628198
 21
288.7532144108631
 31
0
  0
LINE
  8
1
 62
7
 10
520.2259286628198
 20
293
 30
0
 11
523.2259286628198
 21
293
 31
0
  0
LINE
  8
1
 62
7
 10
508.4259286628198
 20
296
 30
0
 11
508.4259286628198
 21
286
 31
0
  0
LINE
  8
1
 62
7
 10
502.2259286628198
 20
294.5
 30
0
 11
499.22592866282
 21
294.5
 31
0
  0
LINE
  8
1
 62
7
 10
502.2259286628198
 20
287.5
 30
0
 11
499.22592866282
 21
287.5
 31
0
  0
LINE
  8
1
 62
7
 10
502.2259286628198
 20
296
 30
0
 11
517.7259286628198
 21
296
 31
0
  0
LINE
  8
1
 62
7
 10
517.7259286628198
 20
296
 30
0
 11
517.7259286628198
 21
294.5
 31
0
  0
LINE
  8
1
 62
7
 10
517.7259286628198
 20
286
 30
0
 11
502.2259286628198
 21
286
 31
0
  0
LINE
  8
1
 62
7
 10
523.2259286628198
 20
162
 30
0
 11
521.7259286628198
 21
160.5
 31
0
  0
LINE
  8
1
 62
7
 10
523.2259286628198
 20
297
 30
0
 11
522.2259286628198
 21
298
 31
0
  0
LINE
  8
1
 62
7
 10
505.2259286628199
 20
277.9999999999999
 30
0
 11
520.2259286628198
 21
277.9999999999999
 31
0
  0
LINE
  8
1
 62
7
 10
523.2259286628198
 20
278.9999999999999
 30
0
 11
520.2259286628198
 21
278.9999999999999
 31
0
  0
LINE
  8
1
 62
7
 10
505.2259286628199
 20
278.9999999999999
 30
0
 11
504.6919540666043
 21
278.9999999999999
 31
0
  0
LINE
  8
1
 62
3
 10
505.2259286628199
 20
181.0000000000001
 30
0
 11
523.2259286628198
 21
180.9999999999999
 31
0
  0
LINE
  8
1
 62
7
 10
523.2259286628198
 20
180.9999999999999
 30
0
 11
523.8259286628199
 21
180.9999999999999
 31
0
  0
LINE
  8
1
 62
3
 10
505.2259286628199
 20
182
 30
0
 11
504.1146037974146
 21
182
 31
0
  0
LINE
  8
1
 62
7
 10
512.7259286628198
 20
174.8094010767585
 30
0
 11
516.7259286628198
 21
172.5
 31
0
  0
LINE
  8
1
 62
7
 10
508.7259286628198
 20
172.5
 30
0
 11
512.7259286628198
 21
174.8094010767585
 31
0
  0
LINE
  8
1
 62
7
 10
516.7259286628198
 20
172.5
 30
0
 11
516.7259286628198
 21
160.5
 31
0
  0
LINE
  8
1
 62
7
 10
508.7259286628198
 20
172.5
 30
0
 11
516.7259286628198
 21
172.5
 31
0
  0
LINE
  8
1
 62
7
 10
508.7259286628198
 20
160.5
 30
0
 11
508.7259286628198
 21
172.5
 31
0
  0
LINE
  8
1
 62
7
 10
505.2259286628199
 20
180
 30
0
 11
505.2259286628199
 21
182
 31
0
  0
LINE
  8
1
 62
7
 10
505.2259286628199
 20
180
 30
0
 11
502.2259286628199
 21
180
 31
0
  0
LINE
  8
1
 62
7
 10
523.2259286628198
 20
162
 30
0
 11
523.2259286628198
 21
182.0000000000001
 31
0
  0
LINE
  8
1
 62
7
 10
499.2259286628199
 20
160.5
 30
0
 11
521.7259286628198
 21
160.5
 31
0
  0
LINE
  8
1
 62
7
 10
505.2259286628199
 20
280
 30
0
 11
505.2259286628199
 21
277.9999999999999
 31
0
  0
LINE
  8
1
 62
7
 10
523.2259286628198
 20
297
 30
0
 11
523.2259286628198
 21
277.9999999999999
 31
0
  0
LINE
  8
1
 62
7
 10
499.2259286628199
 20
299.5
 30
0
 11
520.2259286628198
 21
299.5
 31
0
  0
LINE
  8
1
 62
7
 10
502.2259286628198
 20
280
 30
0
 11
505.2259286628199
 21
280
 31
0
  0
LINE
  8
1
 62
7
 10
503.8259286628199
 20
277.4999999999999
 30
0
 11
463.8626322053071
 21
277.4999999999999
 31
0
  0
LINE
  8
1
 62
7
 10
502.2259286628199
 20
277.4999999999999
 30
0
 11
502.2259286628197
 21
299.5
 31
0
  0
LINE
  8
1
 62
7
 10
502.2259286628199
 20
182.5
 30
0
 11
503.8259286628199
 21
182.4999999999999
 31
0
  0
LINE
  8
1
 62
7
 10
499.2259286628199
 20
188.1
 30
0
 11
499.2259286628199
 21
154
 31
0
  0
LINE
  8
1
 62
7
 10
502.2259286628199
 20
188.1
 30
0
 11
470.8259286628199
 21
188.0999999999999
 31
0
  0
LINE
  8
1
 62
7
 10
502.2259286628199
 20
160.5000000000001
 30
0
 11
502.2259286628199
 21
188.1
 31
0
  0
LINE
  8
1
 62
7
 10
465.3259286628199
 20
160.5000000000001
 30
0
 11
462.8259286628199
 21
163.0000000000001
 31
0
  0
LINE
  8
1
 62
7
 10
462.8259286628199
 20
173.5000000000001
 30
0
 11
470.8259286628199
 21
181.5000000000001
 31
0
  0
LINE
  8
1
 62
7
 10
470.8259286628199
 20
181.5000000000001
 30
0
 11
470.8259286628199
 21
188.0999999999999
 31
0
  0
LINE
  8
1
 62
7
 10
462.8259286628199
 20
182.5000000000001
 30
0
 11
462.8259286628199
 21
163.0000000000001
 31
0
  0
LINE
  8
1
 62
7
 10
465.3259286628199
 20
160.5000000000001
 30
0
 11
472.8259286628199
 21
160.5000000000001
 31
0
  0
LINE
  8
1
 62
7
 10
462.8259286628199
 20
297
 30
0
 11
465.3259286628199
 21
299.5
 31
0
  0
LINE
  8
1
 62
7
 10
470.8259286628199
 20
278.5
 30
0
 11
462.8259286628199
 21
286.5
 31
0
  0
LINE
  8
1
 62
7
 10
470.8259286628199
 20
277.4999999999999
 30
0
 11
470.8259286628199
 21
278.5
 31
0
  0
LINE
  8
1
 62
7
 10
462.8259286628199
 20
297
 30
0
 11
462.8259286628199
 21
279.0484280565951
 31
0
  0
LINE
  8
1
 62
7
 10
472.8259286628199
 20
299.5
 30
0
 11
465.3259286628199
 21
299.5
 31
0
  0
LINE
  8
1
 62
7
 10
452.2504642471541
 20
277.4999999999999
 30
0
 11
450.8259286628199
 21
277.4999999999999
 31
0
  0
LINE
  8
1
 62
7
 10
528.4690442432492
 20
277.1359287527943
 30
0
 11
528.5808180033762
 21
275.2371272779097
 31
0
  0
LINE
  8
1
 62
7
 10
472.8362669426181
 20
272.9385638453076
 30
0
 11
524.4379421942067
 21
271.0048780096442
 31
0
  0
LINE
  8
1
 62
7
 10
458.7666564363224
 20
261.5129605964932
 30
0
 11
542.1223617953649
 21
266.4197298081549
 31
0
  0
LINE
  8
1
 62
7
 10
455.0356252552102
 20
292.7944090804097
 30
0
 11
450.9472747694382
 21
270.343676568852
 31
0
  0
LINE
  8
1
 62
3
  6
DASHDOT
 10
542.8259286628197
 20
306.950094712167
 30
0
 11
542.8259286628197
 21
276.2499999999999
 31
0
  0
LINE
  8
1
 62
7
 10
553.8259286628197
 20
161.5
 30
0
 11
555.3259286628197
 21
160
 31
0
  0
LINE
  8
1
 62
7
 10
530.3259286628197
 20
160
 30
0
 11
531.8259286628197
 21
161.5
 31
0
  0
LINE
  8
1
 62
7
 10
524.8259286628197
 20
162.5
 30
0
 11
527.3259286628197
 21
160
 31
0
  0
LINE
  8
1
 62
7
 10
558.3259286628197
 20
160
 30
0
 11
555.3259286628197
 21
160
 31
0
  0
LINE
  8
1
 62
7
 10
553.8259286628197
 20
161.5
 30
0
 11
553.8259286628197
 21
172.5
 31
0
  0
LINE
  8
1
 62
7
 10
553.8259286628197
 20
172.5
 30
0
 11
531.8259286628197
 21
172.5
 31
0
  0
LINE
  8
1
 62
7
 10
531.8259286628197
 20
172.5
 30
0
 11
531.8259286628197
 21
161.5
 31
0
  0
LINE
  8
1
 62
7
 10
560.8259286628197
 20
180.7500000000001
 30
0
 11
560.8259286628197
 21
162.5
 31
0
  0
LINE
  8
1
 62
7
 10
530.3259286628197
 20
160
 30
0
 11
527.3259286628197
 21
160
 31
0
  0
LINE
  8
1
 62
7
 10
524.8259286628197
 20
162.5
 30
0
 11
524.8259286628197
 21
180.7500000000001
 31
0
  0
LINE
  8
1
 62
7
 10
555.3259286628197
 20
300
 30
0
 11
553.8259286628197
 21
298.5
 31
0
  0
LINE
  8
1
 62
7
 10
531.8259286628197
 20
298.5
 30
0
 11
530.3259286628197
 21
300
 31
0
  0
LINE
  8
1
 62
7
 10
527.3259286628197
 20
300
 30
0
 11
524.8259286628197
 21
297.5
 31
0
  0
LINE
  8
1
 62
7
 10
555.3259286628197
 20
300
 30
0
 11
558.3259286628197
 21
300
 31
0
  0
LINE
  8
1
 62
7
 10
553.8259286628197
 20
287.5
 30
0
 11
553.8259286628197
 21
298.5
 31
0
  0
LINE
  8
1
 62
7
 10
531.8259286628197
 20
287.5
 30
0
 11
553.8259286628197
 21
287.5
 31
0
  0
LINE
  8
1
 62
7
 10
531.8259286628197
 20
298.5
 30
0
 11
531.8259286628197
 21
287.5
 31
0
  0
LINE
  8
1
 62
7
 10
560.8259286628197
 20
297.5
 30
0
 11
560.8259286628197
 21
279.2499999999999
 31
0
  0
LINE
  8
1
 62
7
 10
527.3259286628197
 20
300
 30
0
 11
530.3259286628197
 21
300
 31
0
  0
LINE
  8
1
 62
7
 10
524.8259286628197
 20
279.2499999999999
 30
0
 11
524.8259286628197
 21
297.5
 31
0
  0
LINE
  8
1
 62
7
 10
362.9400542570538
 20
255.9461524227069
 30
0
 11
368.9400542570539
 21
245.5538475772937
 31
0
  0
LINE
  8
1
 62
7
 10
368.9400542570539
 20
245.5538475772937
 30
0
 11
373.8067090072207
 21
248.3636120073551
 31
0
  0
LINE
  8
1
 62
7
 10
291.0599457429456
 20
245.5538475772934
 30
0
 11
297.0599457429456
 21
255.9461524227062
 31
0
  0
LINE
  8
1
 62
7
 10
297.0599457429456
 20
255.9461524227062
 30
0
 11
292.193290992779
 21
258.7559168527682
 31
0
  0
LINE
  8
1
 62
7
 10
336
 20
188.5000000000001
 30
0
 11
324
 21
188.5000000000001
 31
0
  0
LINE
  8
1
 62
7
 10
324
 20
188.5000000000001
 30
0
 11
324
 21
182.8804711398767
 31
0
  0
LINE
  8
1
 62
7
 10
337.5000000000002
 20
203.5424868893542
 30
0
 11
337.5000000000003
 21
197.5000000000001
 31
0
  0
LINE
  8
1
 62
7
 10
337.5000000000003
 20
197.5000000000001
 30
0
 11
322.5000000000002
 21
197.4999999999999
 31
0
  0
LINE
  8
1
 62
7
 10
322.5000000000002
 20
197.4999999999999
 30
0
 11
322.5000000000002
 21
203.542486889354
 31
0
  0
LINE
  8
1
 62
7
 10
300.1532124826825
 20
219.6961524227064
 30
0
 11
306.1532124826826
 21
209.3038475772932
 31
0
  0
LINE
  8
1
 62
7
 10
353.8467875173178
 20
209.3038475772935
 30
0
 11
359.8467875173175
 21
219.6961524227067
 31
0
  0
LINE
  8
1
 62
7
 10
336
 20
261
 30
0
 11
324
 21
261
 31
0
  0
LINE
  8
1
 62
7
 10
449.8259286628199
 20
264.9999999999999
 30
0
 11
449.8259286628199
 21
195.0000000000001
 31
0
  0
LINE
  8
1
 62
7
 10
450.8259286628199
 20
194.0000000000001
 30
0
 11
449.8259286628199
 21
195.0000000000001
 31
0
  0
LINE
  8
1
 62
7
 10
450.8259286628199
 20
194.0000000000001
 30
0
 11
450.8259286628199
 21
182.5000000000001
 31
0
  0
LINE
  8
1
 62
7
 10
450.8259286628199
 20
182.5000000000001
 30
0
 11
470.8259286628199
 21
182.5000000000002
 31
0
  0
LINE
  8
1
 62
7
 10
503.8259286628199
 20
182.4999999999999
 30
0
 11
504.6919540666043
 21
181.0000000000001
 31
0
  0
LINE
  8
1
 62
7
 10
504.6919540666043
 20
181.0000000000001
 30
0
 11
505.2259286628199
 21
181.0000000000001
 31
0
  0
LINE
  8
1
 62
7
 10
523.9702662301172
 20
180.7500000000001
 30
0
 11
523.8259286628199
 21
180.9999999999999
 31
0
  0
LINE
  8
1
 62
7
 10
523.9702662301172
 20
180.7500000000001
 30
0
 11
578.8259286628197
 21
180.7500000000001
 31
0
  0
LINE
  8
1
 62
7
 10
579.8259286628197
 20
264.9999999999999
 30
0
 11
579.8259286628197
 21
195.0000000000001
 31
0
  0
LINE
  8
1
 62
7
 10
578.8259286628197
 20
180.7500000000001
 30
0
 11
578.8259286628197
 21
194.0000000000001
 31
0
  0
LINE
  8
1
 62
7
 10
578.8259286628197
 20
194.0000000000001
 30
0
 11
579.8259286628197
 21
195.0000000000001
 31
0
  0
LINE
  8
1
 62
7
 10
579.8259286628197
 20
197.5000000000001
 30
0
 11
449.8259286628199
 21
197.5000000000001
 31
0
  0
LINE
  8
1
 62
7
 10
450.8259286628199
 20
188.5000000000001
 30
0
 11
504.8259286628199
 21
188.5000000000001
 31
0
  0
LINE
  8
1
 62
7
 10
579.8259286628197
 20
264.9999999999999
 30
0
 11
578.8259286628197
 21
265.9999999999999
 31
0
  0
LINE
  8
1
 62
7
 10
504.6919540666043
 20
278.9999999999999
 30
0
 11
503.8259286628199
 21
277.4999999999999
 31
0
  0
LINE
  8
1
 62
7
 10
523.8259286628199
 20
278.9999999999999
 30
0
 11
523.2259286628198
 21
278.9999999999999
 31
0
  0
LINE
  8
1
 62
7
 10
523.8259286628199
 20
278.9999999999999
 30
0
 11
523.9702662301172
 21
279.2499999999999
 31
0
  0
LINE
  8
1
 62
7
 10
578.8259286628197
 20
279.2499999999999
 30
0
 11
523.9702662301172
 21
279.2499999999999
 31
0
  0
LINE
  8
1
 62
7
 10
449.8259286628199
 20
264.9999999999999
 30
0
 11
450.8259286628199
 21
265.9999999999999
 31
0
  0
LINE
  8
1
 62
7
 10
450.8259286628199
 20
277.4999999999999
 30
0
 11
450.8259286628199
 21
265.9999999999999
 31
0
  0
LINE
  8
1
 62
3
 10
523.8259286628199
 20
180.9999999999999
 30
0
 11
523.2485783936302
 21
182.0000000000001
 31
0
  0
LINE
  8
1
 62
7
 10
523.2485783936302
 20
182.0000000000001
 30
0
 11
505.2259286628199
 21
182
 31
0
  0
LINE
  8
1
 62
3
 10
523.2485783936302
 20
277.9999999999999
 30
0
 11
523.8259286628199
 21
278.9999999999999
 31
0
  0
LINE
  8
1
 62
7
 10
522.8259286628199
 20
261
 30
0
 11
449.8259286628199
 21
261
 31
0
  0
LINE
  8
1
 62
3
  6
DASHDOT
 10
444.8259286628199
 20
230
 30
0
 11
449.8259286628199
 21
230
 31
0
  0
LINE
  8
1
 62
3
 10
504.1146037974147
 20
277.9999999999999
 30
0
 11
505.2259286628199
 21
277.9999999999999
 31
0
  0
LINE
  8
1
 62
7
 10
336.0000000000001
 20
188.0999999999999
 30
0
 11
324
 21
188.0999999999999
 31
0
  0
LINE
  8
1
 62
3
  6
DIVIDE
 10
491.8259286628199
 20
202
 30
0
 11
491.8259286628199
 21
188.5000000000001
 31
0
  0
LINE
  8
1
 62
3
  6
DIVIDE
 10
487.8259286628199
 20
202
 30
0
 11
487.8259286628199
 21
188.5000000000001
 31
0
  0
LINE
  8
1
 62
3
  6
DIVIDE
 10
481.8259286628199
 20
188.5000000000001
 30
0
 11
481.8259286628199
 21
202
 31
0
  0
LINE
  8
1
 62
3
  6
DIVIDE
 10
477.8259286628199
 20
188.5000000000001
 30
0
 11
477.8259286628199
 21
202
 31
0
  0
LINE
  8
1
 62
3
  6
DIVIDE
 10
470.8259286628199
 20
258
 30
0
 11
498.8259286628199
 21
258
 31
0
  0
LINE
  8
1
 62
3
  6
DIVIDE
 10
498.8259286628199
 20
258
 30
0
 11
498.8259286628199
 21
202
 31
0
  0
LINE
  8
1
 62
3
  6
DIVIDE
 10
498.8259286628199
 20
202
 30
0
 11
470.8259286628199
 21
202
 31
0
  0
LINE
  8
1
 62
3
  6
DIVIDE
 10
470.8259286628199
 20
202
 30
0
 11
470.8259286628199
 21
258
 31
0
  0
LINE
  8
1
 62
3
  6
DIVIDE
 10
332
 20
197.5
 30
0
 11
332
 21
188.5000000000001
 31
0
  0
LINE
  8
1
 62
3
  6
DIVIDE
 10
328
 20
197.5
 30
0
 11
328
 21
188.5
 31
0
  0
LINE
  8
1
 62
3
  6
DIVIDE
 10
353.1867732448957
 20
245.6962908513378
 30
0
 11
364.9400542570542
 21
252.4820508075688
 31
0
  0
LINE
  8
1
 62
3
  6
DIVIDE
 10
355.1867732448957
 20
242.2321892362001
 30
0
 11
366.9400542570543
 21
249.0179491924312
 31
0
  0
LINE
  8
1
 62
3
  6
DIVIDE
 10
306.8132267551044
 20
245.6962908513379
 30
0
 11
295.0599457429457
 21
252.482050807569
 31
0
  0
LINE
  8
1
 62
3
  6
DIVIDE
 10
304.8132267551044
 20
242.2321892362001
 30
0
 11
293.0599457429459
 21
249.0179491924311
 31
0
  0
ARC
  8
1
 62
3
  6
DIVIDE
 10
576.3259286628197
 20
178.2500000000001
 30
0
 40
2.5
 50
0
 51
90
  0
ARC
  8
1
 62
3
  6
DIVIDE
 10
545.3259286628197
 20
178.2500000000001
 30
0
 40
2.5
 50
90
 51
180
  0
ARC
  8
1
 62
3
  6
DIVIDE
 10
545.3259286628197
 20
281.7499999999999
 30
0
 40
2.5
 50
180
 51
270
  0
ARC
  8
1
 62
3
  6
DIVIDE
 10
576.3259286628197
 20
281.7499999999999
 30
0
 40
2.5
 50
270
 51
0
  0
ARC
  8
1
 62
7
 10
330
 20
230
 30
0
 40
70.00000000000023
 50
66.15063982794091
 51
83.84936017205897
  0
ARC
  8
1
 62
7
 10
330
 20
230
 30
0
 40
70.00000000000023
 50
36.15063982794087
 51
53.84936017205887
  0
ARC
  8
1
 62
7
 10
330
 20
230
 30
0
 40
70.0000000000002
 50
6.150639827940858
 51
23.84936017205884
  0
ARC
  8
1
 62
7
 10
330
 20
230
 30
0
 40
70.00000000000023
 50
336.1506398279409
 51
353.8493601720589
  0
ARC
  8
1
 62
7
 10
330
 20
230
 30
0
 40
70.00000000000024
 50
306.150639827941
 51
323.8493601720588
  0
ARC
  8
1
 62
7
 10
330
 20
230
 30
0
 40
70.00000000000013
 50
276.1506398279409
 51
293.8493601720588
  0
ARC
  8
1
 62
7
 10
330
 20
230
 30
0
 40
70.00000000000019
 50
246.150639827941
 51
263.8493601720589
  0
ARC
  8
1
 62
7
 10
330
 20
230
 30
0
 40
70.00000000000007
 50
216.1506398279411
 51
233.8493601720589
  0
ARC
  8
1
 62
7
 10
330
 20
230
 30
0
 40
70.00000000000006
 50
186.150639827941
 51
203.849360172059
  0
ARC
  8
1
 62
7
 10
330
 20
230
 30
0
 40
70.00000000000006
 50
156.150639827941
 51
173.849360172059
  0
ARC
  8
1
 62
7
 10
330
 20
230
 30
0
 40
69.99999999999992
 50
126.1506398279411
 51
143.8493601720589
  0
ARC
  8
1
 62
7
 10
330
 20
230
 30
0
 40
76.0000000000003
 50
54.33659349067594
 51
65.66340650932374
  0
ARC
  8
1
 62
7
 10
330
 20
230
 30
0
 40
76.00000000000023
 50
24.33659349067593
 51
35.66340650932374
  0
ARC
  8
1
 62
7
 10
330
 20
230
 30
0
 40
76.00000000000027
 50
354.336593490676
 51
5.663406509323753
  0
ARC
  8
1
 62
7
 10
330
 20
230
 30
0
 40
76.00000000000024
 50
324.336593490676
 51
335.6634065093239
  0
ARC
  8
1
 62
7
 10
330
 20
230
 30
0
 40
76.0000000000002
 50
294.336593490676
 51
305.6634065093239
  0
ARC
  8
1
 62
7
 10
330
 20
230
 30
0
 40
76.00000000000017
 50
264.336593490676
 51
275.6634065093239
  0
ARC
  8
1
 62
7
 10
330
 20
230
 30
0
 40
76.00000000000026
 50
234.336593490676
 51
245.6634065093238
  0
ARC
  8
1
 62
7
 10
330
 20
230
 30
0
 40
76.00000000000021
 50
204.336593490676
 51
215.6634065093238
  0
ARC
  8
1
 62
7
 10
330
 20
230
 30
0
 40
76.00000000000006
 50
174.3365934906761
 51
185.6634065093239
  0
ARC
  8
1
 62
7
 10
330
 20
230
 30
0
 40
75.99999999999996
 50
144.3365934906761
 51
155.6634065093239
  0
ARC
  8
1
 62
7
 10
330
 20
230
 30
0
 40
76.00000000000003
 50
114.3365934906761
 51
125.6634065093239
  0
ARC
  8
1
 62
7
 10
330
 20
230
 30
0
 40
70.00000000000006
 50
96.15063982794104
 51
113.849360172059
  0
ARC
  8
1
 62
7
 10
330
 20
230
 30
0
 40
76.00000000000009
 50
84.33659349067609
 51
95.66340650932392
  0
ARC
  8
1
 62
7
 10
330
 20
230
 30
0
 40
47.50000000000011
 50
277.2567473075375
 51
322.7432526924628
  0
ARC
  8
1
 62
7
 10
330
 20
230
 30
0
 40
48.49999999999983
 50
217.1063433978913
 51
322.8936566021085
  0
ARC
  8
1
 62
7
 10
330
 20
230
 30
0
 40
56.49999999999988
 50
216.096002136158
 51
323.9039978638419
  0
ARC
  8
1
 62
7
 10
330
 20
230
 30
0
 40
56.49999999999993
 50
96.09600213615791
 51
203.9039978638421
  0
ARC
  8
1
 62
7
 10
330
 20
230
 30
0
 40
48.49999999999993
 50
97.10634339789131
 51
202.8936566021086
  0
ARC
  8
1
 62
7
 10
330
 20
230
 30
0
 40
47.50000000000011
 50
157.2567473075369
 51
202.7432526924638
  0
ARC
  8
1
 62
7
 10
330
 20
230
 30
0
 40
56.49999999999991
 50
336.0960021361578
 51
83.90399786384209
  0
ARC
  8
1
 62
7
 10
330
 20
230
 30
0
 40
48.49999999999991
 50
337.1063433978912
 51
82.89365660210868
  0
ARC
  8
1
 62
7
 10
330
 20
230
 30
0
 40
47.49999999999991
 50
37.25674730753681
 51
82.7432526924632
  0
CIRCLE
  8
1
 62
7
 10
330
 20
230
 30
0
 40
66.9999999999999
  0
ARC
  8
1
 62
7
 10
330
 20
230
 30
0
 40
47.4999999999998
 50
97.2567473075368
 51
142.7432526924634
  0
ARC
  8
1
 62
7
 10
330
 20
230
 30
0
 40
47.49999999999987
 50
217.2567473075373
 51
262.7432526924632
  0
ARC
  8
1
 62
7
 10
330
 20
230
 30
0
 40
47.49999999999991
 50
337.2567473075362
 51
22.74325269246334
  0
ARC
  8
1
 62
7
 10
330
 20
230
 30
0
 40
35.99999999999987
 50
99.59406822686086
 51
200.4059317731397
  0
ARC
  8
1
 62
7
 10
330
 20
230
 30
0
 40
35.99999999999989
 50
339.5940682268609
 51
80.40593177313953
  0
ARC
  8
1
 62
7
 10
330
 20
230
 30
0
 40
35.99999999999986
 50
219.5940682268609
 51
320.4059317731396
  0
ARC
  8
1
 62
7
 10
458.9709073316806
 20
292.0777815770215
 30
0
 40
3.999999999999958
 50
15.47320328233256
 51
93.36885295038341
  0
ARC
  8
1
 62
7
 10
458.3259286628199
 20
269
 30
0
 40
7.499999999999902
 50
169.679345931378
 51
273.3688529503831
  0
ARC
  8
1
 62
7
 10
526.2225320961692
 20
259.7607012050005
 30
0
 40
19.99999999999913
 50
28.74192064923764
 51
76.3656175017659
  0
ARC
  8
1
 62
7
 10
530.4655880841843
 20
277.2534561590616
 30
0
 40
1.999999999992826
 50
76.36561750176928
 51
183.3688529503818
  0
ARC
  8
1
 62
7
 10
542.0048343890975
 20
268.41627364909
 30
0
 40
1.999999999999946
 50
273.3688529503851
 51
28.74192064922774
  0
ARC
  8
1
 62
7
 10
473.2856313245158
 20
284.9301472124985
 30
0
 40
12.00000000000036
 50
150.65000173028
 51
267.8539413591383
  0
ARC
  8
1
 62
7
 10
458.9709073316806
 20
292.0777815770215
 30
0
 40
3.999999999999999
 50
93.36885295038341
 51
169.6793459313716
  0
ARC
  8
1
 62
7
 10
524.5877303215059
 20
275.002072465375
 30
0
 40
4.00000000000064
 50
267.8539413591391
 51
3.368852950382603
  0
ARC
  8
1
 62
7
 10
527.3259286628197
 20
178.2500000000001
 30
0
 40
2.5
 50
90
 51
180
  0
ARC
  8
1
 62
7
 10
558.3259286628197
 20
178.2500000000001
 30
0
 40
2.5
 50
0
 51
90
  0
ARC
  8
1
 62
7
 10
527.3259286628197
 20
281.7499999999999
 30
0
 40
2.5
 50
180
 51
270
  0
ARC
  8
1
 62
7
 10
558.3259286628197
 20
281.7499999999999
 30
0
 40
2.5
 50
270
 51
0
  0
ARC
  8
1
 62
7
 10
330
 20
230
 30
0
 40
27.49999999999996
 50
285.8266201318729
 51
254.1733798681281
  0
ARC
  8
1
 62
7
 10
330
 20
230
 30
0
 40
35.00000000000003
 50
99.87088960614
 51
200.1291103938609
  0
ARC
  8
1
 62
7
 10
330
 20
230
 30
0
 40
34.99999999999996
 50
219.87088960614
 51
320.1291103938611
  0
ARC
  8
1
 62
7
 10
330
 20
230
 30
0
 40
34.99999999999994
 50
339.8708896061396
 51
80.12911039386049
  0
ARC
  8
1
 62
7
 10
504.8259286628199
 20
138.5000000000001
 30
0
 40
49.99999999999988
 50
57.67193587783795
 51
90
  0
ARC
  8
1
 62
7
 10
522.8259286628199
 20
311
 30
0
 40
50
 50
270
 51
320.5800155329411
  0
ARC
  8
1
 62
3
  6
DIVIDE
 10
330
 20
230
 30
0
 40
28
 50
15.00000000000007
 51
44.99999999999996
  0
ARC
  8
1
 62
3
  6
DIVIDE
 10
330
 20
230
 30
0
 40
27.99999999999989
 50
134.9999999999999
 51
164.9999999999999
  0
CIRCLE
  8
1
 62
7
 10
330
 20
230
 30
0
 40
69.5
  0
CIRCLE
  8
1
 62
7
 10
458.3259286628199
 20
269
 30
0
 40
3.499999999999994
  0
ARC
  8
1
 62
3
  6
DIVIDE
 10
576.3259286628197
 20
162.5
 30
0
 40
2.5
 50
270
 51
0
  0
ARC
  8
1
 62
3
  6
DIVIDE
 10
576.3259286628197
 20
297.5
 30
0
 40
2.5
 50
0
 51
90
  0
ARC
  8
1
 62
7
 10
558.3259286628197
 20
162.5
 30
0
 40
2.5
 50
270
 51
0
  0
ARC
  8
1
 62
7
 10
558.3259286628197
 20
297.5
 30
0
 40
2.5
 50
0
 51
90
  0
TEXT
  8
1
 62
7
 10
319.347415244619
 20
331.941305473311
 30
0
 40
5
  1
OS 558
 41
0.9
  7
SIMPLEX
  0
ENDSEC
  0
EOF
