  0
SECTION
  2
HEADER
  9
$ACADVER
  1
AC1009
  9
$INSBASE
 10
0
 20
0
  9
$EXTMIN
 10
-1086.020045100445
 20
-51.31834090767398
  9
$EXTMAX
 10
391.9060718994772
 20
626.62699039589
  9
$LIMMIN
 10
-1086.020045100445
 20
-51.31834090767398
  9
$LIMMAX
 10
391.9060718994772
 20
626.62699039589
  9
$VIEWCTR
 10
10
 20
10
  9
$VIEWSIZE
 40
10
  9
$SNAPMODE
 70
0
  9
$SNAPUNIT
 10
1
 20
1
  9
$SNAPBASE
 10
0
 20
0
  9
$SNAPANG
 50
0
  9
$SNAPSTYLE
 70
0
  9
$SNAPISOPAIR
 70
0
  9
$GRIDMODE
 70
0
  9
$GRIDUNIT
 10
0
 20
0
  9
$ORTHOMODE
 70
0
  9
$REGENMODE
 70
1
  9
$FILLMODE
 70
1
  9
$QTEXTMODE
 70
0
  9
$DRAGMODE
 70
2
  9
$LTSCALE
 40
1
  9
$OSMODE
 70
0
  9
$ATTMODE
 70
1
  9
$TEXTSIZE
 40
3.5
  9
$TRACEWID
 40
0.5
  9
$TEXTSTYLE
  7
STANDARD
  9
$CLAYER
  8
0
  9
$CELTYPE
  6
BYLAYER
  9
$CECOLOR
 62
256
  9
$DIMSCALE
 40
1
  9
$DIMASZ
 40
0.18
  9
$DIMEXO
 40
0.0625
  9
$DIMDLI
 40
0.38
  9
$DIMRND
 40
0
  9
$DIMDLE
 40
0
  9
$DIMEXE
 40
0.18
  9
$DIMTP
 40
0
  9
$DIMTM
 40
0
  9
$DIMTXT
 40
0.18
  9
$DIMCEN
 40
0.09
  9
$DIMTSZ
 40
0
  9
$DIMTOL
 70
0
  9
$DIMLIM
 70
0
  9
$DIMTIH
 70
1
  9
$DIMTOH
 70
1
  9
$DIMSE1
 70
0
  9
$DIMSE2
 70
0
  9
$DIMTAD
 70
0
  9
$DIMZIN
 70
0
  9
$DIMBLK
  1

  9
$DIMASO
 70
1
  9
$DIMSHO
 70
1
  9
$DIMPOST
  1

  9
$DIMAPOST
  1

  9
$DIMALT
 70
0
  9
$DIMALTD
 70
2
  9
$DIMALTF
 40
25.4
  9
$DIMLFAC
 40
1
  9
$DIMTOFL
 70
0
  9
$DIMTVP
 40
0
  9
$DIMTIX
 70
0
  9
$DIMSOXD
 70
0
  9
$DIMSAH
 70
0
  9
$DIMBLK1
  1

  9
$DIMBLK2
  1

  9
$DIMSTYLE
  2
*UNNAMED
  9
$DIMCLRD
 70
0
  9
$DIMCLRE
 70
0
  9
$DIMCLRT
 70
0
  9
$DIMTFAC
 40
1
  9
$DIMGAP
 40
0.09
  9
$LUNITS
 70
2
  9
$LUPREC
 70
4
  9
$AXISMODE
 70
0
  9
$AXISUNIT
 10
0
 20
0
  9
$SKETCHINC
 40
0.1
  9
$FILLETRAD
 40
2
  9
$AUNITS
 70
0
  9
$AUPREC
 70
0
  9
$MENU
  1
ACAD
  9
$ELEVATION
 40
0
  9
$THICKNESS
 40
0
  9
$VIEWDIR
 10
0
 20
0
 30
1
  9
$LIMCHECK
 70
0
  9
$BLIPMODE
 70
1
  9
$CHAMFERA
 40
0
  9
$CHAMFERB
 40
0
  9
$FASTZOOM
 70
1
  9
$SKPOLY
 70
0
  9
$ANGBASE
 50
0
  9
$ANGDIR
 70
0
  9
$PDMODE
 70
0
  9
$PDSIZE
 40
0
  9
$PLINEWID
 40
0
  9
$COORDS
 70
2
  0
ENDSEC
  0
SECTION
  2
TABLES
  0
TABLE
  2
DIMSTYLE
 70
0
  0
ENDTAB
  0
TABLE
  2
LTYPE
 70
9
  0
LTYPE
  2
CONTINUOUS
 70
64
  3
Solid line
 72
65
 73
0
 40
0
  0
LTYPE
  2
BORDER
 70
64
  3
__ __ . __ __ .
 72
65
 73
6
 40
68.06238696710167
 49
19.44639627631477
 49
-9.723198138157382
 49
19.44639627631477
 49
-9.723198138157382
 49
0
 49
-9.723198138157382
  0
LTYPE
  2
CENTER
 70
64
  3
____ _ ____ _
 72
65
 73
4
 40
77.78558510525906
 49
48.61599069078692
 49
-9.723198138157382
 49
9.723198138157382
 49
-9.723198138157382
  0
LTYPE
  2
DASHDOT
 70
64
  3
__ . __ . __ .
 72
65
 73
4
 40
38.89279255262953
 49
19.44639627631477
 49
-9.723198138157382
 49
0
 49
-9.723198138157382
  0
LTYPE
  2
DASHED
 70
64
  3
__ __ __ __ __
 72
65
 73
2
 40
29.16959441447215
 49
19.44639627631477
 49
-9.723198138157382
  0
LTYPE
  2
DIVIDE
 70
64
  3
__ . . __ . . 
 72
65
 73
6
 40
48.61599069078692
 49
19.44639627631477
 49
-9.723198138157382
 49
0
 49
-9.723198138157382
 49
0
 49
-9.723198138157382
  0
LTYPE
  2
DOT
 70
64
  3
..............
 72
65
 73
4
 40
19.44639627631477
 49
0
 49
-9.723198138157382
 49
0
 49
-9.723198138157382
  0
LTYPE
  2
HIDDEN
 70
64
  3
_ _ _ _ _ _ _
 72
65
 73
2
 40
14.58479720723607
 49
9.723198138157382
 49
-4.861599069078691
  0
LTYPE
  2
PHANTOM
 70
64
  3
_____ _ _ _____ _ _ 
 72
65
 73
6
 40
97.23198138157383
 49
48.61599069078692
 49
-9.723198138157382
 49
9.723198138157382
 49
-9.723198138157382
 49
9.723198138157382
 49
-9.723198138157382
  0
ENDTAB
  0
TABLE
  2
LAYER
 70
3
  0
LAYER
  2
1
 70
0
 62
7
  6
CONTINUOUS
  0
LAYER
  2
0
 70
0
 62
7
  6
CONTINUOUS
  0
ENDTAB
  0
TABLE
  2
STYLE
 70
4
  0
STYLE
  2
STANDARD
 70
0
 40
0
 41
1
 50
0
 71
0
 42
3.5
  3
txt
  4

  0
STYLE
  2
SIMPLEX
 70
0
 40
0
 41
1
 50
0
 71
0
 42
3.5
  3
simplex
  4

  0
STYLE
  2
COMPLEX
 70
0
 40
0
 41
1
 50
0
 71
0
 42
3.5
  3
complex
  4

  0
STYLE
  2
ITALIC
 70
0
 40
0
 41
1
 50
0
 71
0
 42
3.5
  3
italic
  4

  0
ENDTAB
  0
TABLE
  2
VIEW
 70
0
  0
ENDTAB
  0
ENDSEC
  0
SECTION
  2
BLOCKS
  0
ENDSEC
  0
SECTION
  2
ENTITIES
  0
LINE
  8
1
 62
7
 10
-783.5840359324658
 20
345.9092644226542
 30
0
 11
-798.0871813292915
 21
333.7396804692672
 31
0
  0
LINE
  8
1
 62
7
 10
-797.0587211537932
 20
332.5140093602769
 30
0
 11
-782.5555757569674
 21
344.6835933136638
 31
0
  0
LINE
  8
1
 62
7
 10
-761.5537892408139
 20
286.981659092326
 30
0
 11
-780.4863009600762
 21
286.9816590923259
 31
0
  0
LINE
  8
1
 62
7
 10
-780.4863009600762
 20
285.3816590923261
 30
0
 11
-761.553789240814
 21
285.3816590923261
 31
0
  0
LINE
  8
1
 62
7
 10
-782.5555757569673
 20
227.6797248709881
 30
0
 11
-797.058721153793
 21
239.849308824375
 31
0
  0
LINE
  8
1
 62
7
 10
-798.0871813292914
 20
238.6236377153848
 30
0
 11
-783.5840359324658
 21
226.4540537619979
 31
0
  0
LINE
  8
1
 62
7
 10
-923.4560542684245
 20
226.4540537619979
 30
0
 11
-908.9529088715989
 21
238.6236377153848
 31
0
  0
LINE
  8
1
 62
7
 10
-909.9813690470973
 20
239.849308824375
 30
0
 11
-924.484514443923
 21
227.6797248709881
 31
0
  0
LINE
  8
1
 62
7
 10
-926.5537892408141
 20
286.9816590923259
 30
0
 11
-945.4863009600764
 21
286.981659092326
 31
0
  0
LINE
  8
1
 62
7
 10
-945.4863009600763
 20
285.3816590923261
 30
0
 11
-926.5537892408141
 21
285.3816590923261
 31
0
  0
LINE
  8
1
 62
7
 10
-924.4845144439229
 20
344.6835933136638
 30
0
 11
-909.9813690470971
 21
332.5140093602769
 31
0
  0
LINE
  8
1
 62
7
 10
-908.9529088715988
 20
333.7396804692672
 30
0
 11
-923.4560542684245
 21
345.9092644226542
 31
0
  0
LINE
  8
1
 62
7
 10
-823.8866886500365
 20
227.9322124934458
 30
0
 11
-805.875116737132
 21
197.3988715507652
 31
0
  0
LINE
  8
1
 62
7
 10
-800.4517429683116
 20
200.5305487583491
 30
0
 11
-817.8874063701085
 21
231.3970705106906
 31
0
  0
LINE
  8
1
 62
7
 10
-793.3775545157877
 20
260.6079485702455
 30
0
 11
-759.9534366997795
 21
248.795667667841
 31
0
  0
LINE
  8
1
 62
7
 10
-757.8118946677902
 20
254.6807490516499
 30
0
 11
-791.0090054653548
 21
267.1184481171018
 31
0
  0
LINE
  8
1
 62
7
 10
-791.0097601354293
 20
305.2499080204601
 30
0
 11
-757.8126126101197
 21
317.6857846714459
 31
0
  0
LINE
  8
1
 62
7
 10
-759.9549536323176
 20
323.5705752466012
 30
0
 11
-793.3802147386795
 21
311.7597140028112
 31
0
  0
LINE
  8
1
 62
7
 10
-817.8874063701085
 20
340.9662476739615
 30
0
 11
-800.4517429683116
 21
371.8327694263028
 31
0
  0
LINE
  8
1
 62
7
 10
-805.875116737132
 20
374.9644466338868
 30
0
 11
-823.8866886500365
 21
344.4311056912062
 31
0
  0
LINE
  8
1
 62
7
 10
-883.1534015508538
 20
344.4311056912062
 30
0
 11
-901.1649734637583
 21
374.9644466338868
 31
0
  0
LINE
  8
1
 62
7
 10
-906.5883472325787
 20
371.8327694263029
 30
0
 11
-889.1526838307818
 21
340.9662476739614
 31
0
  0
LINE
  8
1
 62
7
 10
-889.1526838307818
 20
231.3970705106905
 30
0
 11
-906.5883472325787
 21
200.5305487583492
 31
0
  0
LINE
  8
1
 62
7
 10
-901.1649734637583
 20
197.3988715507652
 30
0
 11
-883.1534015508538
 21
227.9322124934458
 31
0
  0
LINE
  8
1
 62
7
 10
-916.0310847355355
 20
267.1184481171018
 30
0
 11
-949.2281955331001
 21
254.6807490516499
 31
0
  0
LINE
  8
1
 62
7
 10
-947.0866535011109
 20
248.795667667841
 30
0
 11
-913.6625356851026
 21
260.6079485702455
 31
0
  0
LINE
  8
1
 62
7
 10
-938.7200440886966
 20
361.6025949459232
 30
0
 11
-977.3905422968409
 21
393.4358306519821
 31
0
  0
LINE
  8
1
 62
7
 10
-980.6546950757701
 20
389.5460791702562
 30
0
 11
-942.5885716569596
 21
356.9928173899179
 31
0
  0
LINE
  8
1
 62
7
 10
-937.634823758629
 20
426.795053097591
 30
0
 11
-912.9982397398767
 21
383.1856122325413
 31
0
  0
LINE
  8
1
 62
7
 10
-907.7863761502684
 20
386.1942718320271
 30
0
 11
-933.2371501198703
 21
429.3338178603739
 31
0
  0
LINE
  8
1
 62
7
 10
-884.4694687333911
 20
447.0839764752139
 30
0
 11
-876.2339597446141
 21
397.6782987005787
 31
0
  0
LINE
  8
1
 62
7
 10
-870.307387801482
 20
398.7229515927607
 30
0
 11
-879.4686985783876
 21
447.9655420204846
 31
0
  0
LINE
  8
1
 62
7
 10
-827.5711564531738
 20
447.9657057111651
 30
0
 11
-836.7300464215866
 21
398.7228449167126
 31
0
  0
LINE
  8
1
 62
7
 10
-830.8035981681591
 20
397.6774905453586
 30
0
 11
-822.5704564661263
 21
447.0837422236419
 31
0
  0
LINE
  8
1
 62
7
 10
-794.0397472939203
 20
383.1839867214998
 30
0
 11
-769.405191510445
 21
426.7947765393241
 31
0
  0
LINE
  8
1
 62
7
 10
-773.802663108627
 20
429.3338912466509
 30
0
 11
-799.2512547332192
 21
386.1932631914168
 31
0
  0
LINE
  8
1
 62
7
 10
-764.4500981708519
 20
356.9905705836765
 30
0
 11
-726.3854193007435
 21
389.5457936623028
 31
0
  0
LINE
  8
1
 62
7
 10
-729.6492625355506
 20
393.4358048823876
 30
0
 11
-768.3180800851845
 21
361.6008059976939
 31
0
  0
LINE
  8
1
 62
7
 10
-745.6035991799076
 20
322.2565546917615
 30
0
 11
-698.6999592697306
 21
339.8295706639857
 31
0
  0
LINE
  8
1
 62
7
 10
-700.436506477849
 20
344.601285633235
 30
0
 11
-747.661519865072
 21
327.9116866191206
 31
0
  0
LINE
  8
1
 62
7
 10
-689.6878844504432
 20
288.7204972413859
 30
0
 11
-739.7730600937877
 21
289.1893100512015
 31
0
  0
LINE
  8
1
 62
7
 10
-739.7734162440971
 20
283.1713739817986
 30
0
 11
-689.6880864910199
 21
283.6426177712763
 31
0
  0
LINE
  8
1
 62
7
 10
-698.6998389026047
 20
232.5334874994997
 30
0
 11
-745.6041654410155
 21
250.1041663894412
 31
0
  0
LINE
  8
1
 62
7
 10
-747.6627554698151
 20
244.449278083242
 30
0
 11
-700.4367658228011
 21
227.7619107341445
 31
0
  0
LINE
  8
1
 62
7
 10
-726.3853951251202
 20
182.817239014396
 30
0
 11
-764.4515185439304
 21
215.370500794734
 31
0
  0
LINE
  8
1
 62
7
 10
-768.3200461121938
 20
210.7607232387288
 30
0
 11
-729.6495479040494
 21
178.92748753267
 31
0
  0
LINE
  8
1
 62
7
 10
-769.4052664422611
 20
145.568265087061
 30
0
 11
-794.0418504610136
 21
189.1777059521107
 31
0
  0
LINE
  8
1
 62
7
 10
-799.2537140506219
 20
186.1690463526248
 30
0
 11
-773.80294008102
 21
143.0295003242782
 31
0
  0
LINE
  8
1
 62
7
 10
-822.5706214674992
 20
125.279341709438
 30
0
 11
-830.8061304562764
 21
174.6850194840732
 31
0
  0
LINE
  8
1
 62
7
 10
-836.7327023994083
 20
173.6403665918914
 30
0
 11
-827.5713916225026
 21
124.3977761641675
 31
0
  0
LINE
  8
1
 62
7
 10
-879.4689337477163
 20
124.397612473487
 30
0
 11
-870.3100437793038
 21
173.6404732679395
 31
0
  0
LINE
  8
1
 62
7
 10
-876.2364920327315
 20
174.685827639293
 30
0
 11
-884.469633734764
 21
125.2795759610102
 31
0
  0
LINE
  8
1
 62
7
 10
-933.237427092263
 20
143.0294269380011
 30
0
 11
-907.7888354676715
 21
186.170054993235
 31
0
  0
LINE
  8
1
 62
7
 10
-913.00034290697
 20
189.1793314631524
 30
0
 11
-937.6348986904451
 21
145.5685416453279
 31
0
  0
LINE
  8
1
 62
7
 10
-942.5899920300382
 20
215.3727476009755
 30
0
 11
-980.6546709001467
 21
182.817524522349
 31
0
  0
LINE
  8
1
 62
7
 10
-977.3908276653394
 20
178.9275133022643
 30
0
 11
-938.7220101157059
 21
210.7625121869583
 31
0
  0
LINE
  8
1
 62
7
 10
-961.4364910209824
 20
250.1067634928906
 30
0
 11
-1008.34013093116
 21
232.5337475206663
 31
0
  0
LINE
  8
1
 62
7
 10
-1006.603583723041
 20
227.7620325514168
 30
0
 11
-959.3785703358183
 21
244.4516315655316
 31
0
  0
LINE
  8
1
 62
7
 10
-967.2666739567931
 20
289.1919442028534
 30
0
 11
-1017.35200370987
 21
288.7207004133758
 31
0
  0
LINE
  8
1
 62
7
 10
-1017.352205750447
 20
283.6428209432661
 30
0
 11
-967.2670301071025
 21
283.1740081334509
 31
0
  0
LINE
  8
1
 62
7
 10
-959.3773347310749
 20
327.9140401014101
 30
0
 11
-1006.603324378089
 21
344.6014074505077
 31
0
  0
LINE
  8
1
 62
7
 10
-949.2274775907706
 20
317.6857846714458
 30
0
 11
-916.0303300654609
 21
305.2499080204601
 31
0
  0
LINE
  8
1
 62
7
 10
-1008.340251298286
 20
339.8298306851523
 30
0
 11
-961.4359247598744
 21
322.259151795211
 31
0
  0
LINE
  8
1
 62
7
 10
-913.6598754622108
 20
311.7597140028111
 30
0
 11
-947.0851365685728
 21
323.5705752466013
 31
0
  0
LINE
  8
1
 62
3
  6
DASHDOT
 10
-695.4816795052516
 20
444.2200246875194
 30
0
 11
-707.502494785423
 21
432.1992094073478
 31
0
  0
LINE
  8
1
 62
3
  6
DASHDOT
 10
-630.020045100445
 20
286.1816590923258
 30
0
 11
-647.0200451004453
 21
286.1816590923257
 31
0
  0
LINE
  8
1
 62
3
  6
DASHDOT
 10
-695.4816795052518
 20
128.1432934971324
 30
0
 11
-707.5024947854234
 21
140.1641087773038
 31
0
  0
LINE
  8
1
 62
3
  6
DASHDOT
 10
-853.5200451004454
 20
62.68165909232585
 30
0
 11
-853.5200451004455
 21
79.68165909232607
 31
0
  0
LINE
  8
1
 62
3
  6
DASHDOT
 10
-1011.558410695639
 20
128.1432934971327
 30
0
 11
-999.5375954154674
 21
140.1641087773041
 31
0
  0
LINE
  8
1
 62
3
  6
DASHDOT
 10
-1077.020045100445
 20
286.1816590923262
 30
0
 11
-1060.020045100445
 21
286.1816590923262
 31
0
  0
LINE
  8
1
 62
3
  6
DASHDOT
 10
-1011.558410695639
 20
444.2200246875195
 30
0
 11
-999.5375954154671
 21
432.1992094073481
 31
0
  0
LINE
  8
1
 62
3
  6
DASHDOT
 10
-828.5200451004452
 20
63.14009405169975
 30
0
 11
-828.5200451004452
 21
82.14009405169975
 31
0
  0
LINE
  8
1
 62
3
  6
DASHDOT
 10
-662.2769818706088
 20
206.9661885927519
 30
0
 11
-647.4949093504279
 21
200.8432536749112
 31
0
  0
LINE
  8
1
 62
3
  6
DASHDOT
 10
-1044.763108330282
 20
365.3971295919001
 30
0
 11
-1059.545180850462
 21
371.5200645097408
 31
0
  0
LINE
  8
1
 62
3
  6
DASHDOT
 10
-878.5200451004452
 20
509.2232241329523
 30
0
 11
-878.5200451004452
 21
490.2232241329523
 31
0
  0
LINE
  8
1
 62
3
  6
DASHDOT
 10
-853.5200451004452
 20
509.681659092326
 30
0
 11
-853.5200451004452
 21
492.681659092326
 31
0
  0
LINE
  8
1
 62
7
 10
-263.282108418689
 20
351.181659092326
 30
0
 11
-266.282108418689
 21
351.181659092326
 31
0
  0
LINE
  8
1
 62
7
 10
-345.3608771651686
 20
518.6816590923261
 30
0
 11
-345.3608771651686
 21
53.68165909232596
 31
0
  0
LINE
  8
1
 62
7
 10
-313.1842290686395
 20
53.68165909232596
 30
0
 11
-313.1842290686395
 21
518.6816590923261
 31
0
  0
LINE
  8
1
 62
7
 10
-390.2821084186889
 20
513.6816590923261
 30
0
 11
-417.2821084186889
 21
513.6816590923261
 31
0
  0
LINE
  8
1
 62
7
 10
-367.1679363896266
 20
479.435990280701
 30
0
 11
-388.3962804477513
 21
487.927327903951
 31
0
  0
LINE
  8
1
 62
7
 10
-417.2821084186889
 20
513.6816590923261
 30
0
 11
-417.2821084186889
 21
58.68165909232602
 31
0
  0
LINE
  8
1
 62
7
 10
-365.2821084186889
 20
95.71275797660672
 30
0
 11
-365.2821084186889
 21
476.6505602080453
 31
0
  0
LINE
  8
1
 62
7
 10
-388.3962804477513
 20
84.43599028070108
 30
0
 11
-367.1679363896266
 21
92.92732790395095
 31
0
  0
LINE
  8
1
 62
7
 10
-390.2821084186889
 20
513.6816590923261
 30
0
 11
-390.2821084186889
 21
58.68165909232602
 31
0
  0
LINE
  8
1
 62
7
 10
-417.2821084186889
 20
58.68165909232602
 30
0
 11
-390.2821084186889
 21
58.68165909232602
 31
0
  0
LINE
  8
1
 62
7
 10
-365.2821084186889
 20
460.181659092326
 30
0
 11
-358.3133417962571
 21
460.181659092326
 31
0
  0
LINE
  8
1
 62
7
 10
-358.3133417962571
 20
112.181659092326
 30
0
 11
-365.2821084186889
 21
112.181659092326
 31
0
  0
LINE
  8
1
 62
7
 10
-356.8239637064603
 20
110.8598525423553
 30
0
 11
-350.5983978431463
 21
58.82527219226745
 31
0
  0
LINE
  8
1
 62
7
 10
-347.6196416635528
 20
56.18165909232596
 30
0
 11
-345.3200086752773
 21
56.18165909232596
 31
0
  0
LINE
  8
1
 62
7
 10
-339.282108418689
 20
53.68165909232596
 30
0
 11
-345.3608771651686
 21
53.68165909232596
 31
0
  0
LINE
  8
1
 62
7
 10
-358.982108418689
 20
460.181659092326
 30
0
 11
-358.982108418689
 21
112.181659092326
 31
0
  0
LINE
  8
1
 62
7
 10
-350.5983978431463
 20
513.5380459923846
 30
0
 11
-356.8239637064603
 21
461.5034656422968
 31
0
  0
LINE
  8
1
 62
7
 10
-345.3608771651686
 20
516.1816590923261
 30
0
 11
-347.6196416635528
 21
516.1816590923261
 31
0
  0
LINE
  8
1
 62
7
 10
-345.3608771651686
 20
518.6816590923261
 30
0
 11
-339.282108418689
 21
518.6816590923261
 31
0
  0
LINE
  8
1
 62
7
 10
-339.282108418689
 20
518.6816590923261
 30
0
 11
-339.282108418689
 21
53.68165909232596
 31
0
  0
LINE
  8
1
 62
7
 10
-335.282108418689
 20
-51.31834090767398
 30
0
 11
-323.282108418689
 21
-51.31834090767398
 31
0
  0
LINE
  8
1
 62
7
 10
-319.282108418689
 20
54.68165909232596
 30
0
 11
-323.282108418689
 21
54.68165909232596
 31
0
  0
LINE
  8
1
 62
7
 10
-335.282108418689
 20
54.68165909232596
 30
0
 11
-339.282108418689
 21
54.68165909232596
 31
0
  0
LINE
  8
1
 62
7
 10
-335.282108418689
 20
518.6816590923261
 30
0
 11
-335.282108418689
 21
-51.31834090767398
 31
0
  0
LINE
  8
1
 62
7
 10
-323.282108418689
 20
518.6816590923261
 30
0
 11
-323.282108418689
 21
-51.31834090767398
 31
0
  0
LINE
  8
1
 62
7
 10
-339.282108418689
 20
517.6816590923261
 30
0
 11
-335.282108418689
 21
517.6816590923261
 31
0
  0
LINE
  8
1
 62
7
 10
-323.282108418689
 20
517.6816590923261
 30
0
 11
-319.282108418689
 21
517.6816590923261
 31
0
  0
LINE
  8
1
 62
7
 10
-335.282108418689
 20
518.6816590923261
 30
0
 11
-323.282108418689
 21
518.6816590923261
 31
0
  0
LINE
  8
1
 62
7
 10
-263.282108418689
 20
378.681659092326
 30
0
 11
-263.282108418689
 21
216.181659092326
 31
0
  0
LINE
  8
1
 62
7
 10
-266.282108418689
 20
222.181659092326
 30
0
 11
-263.282108418689
 21
222.181659092326
 31
0
  0
LINE
  8
1
 62
7
 10
-246.282108418689
 20
216.181659092326
 30
0
 11
-263.282108418689
 21
216.181659092326
 31
0
  0
LINE
  8
1
 62
7
 10
-246.282108418689
 20
356.181659092326
 30
0
 11
-246.282108418689
 21
216.181659092326
 31
0
  0
LINE
  8
1
 62
7
 10
-313.1842290686395
 20
53.68165909232596
 30
0
 11
-319.282108418689
 21
53.68165909232596
 31
0
  0
LINE
  8
1
 62
7
 10
-310.0326272642132
 20
56.18165909232596
 30
0
 11
-313.1800676023625
 21
56.18165909232596
 31
0
  0
LINE
  8
1
 62
7
 10
-274.282108418689
 20
149.5958913537831
 30
0
 11
-307.6833957122485
 21
57.82660873401176
 31
0
  0
LINE
  8
1
 62
7
 10
-266.282108418689
 20
192.681659092326
 30
0
 11
-266.282108418689
 21
379.681659092326
 31
0
  0
LINE
  8
1
 62
7
 10
-434.282108418689
 20
226.181659092326
 30
0
 11
-432.256047988712
 21
225.4442334029898
 31
0
  0
LINE
  8
1
 62
7
 10
-417.2821084186889
 20
112.181659092326
 30
0
 11
-424.2821084186889
 21
112.181659092326
 31
0
  0
LINE
  8
1
 62
7
 10
-424.2821084186889
 20
112.181659092326
 30
0
 11
-430.282108418689
 21
176.181659092326
 31
0
  0
LINE
  8
1
 62
7
 10
-434.282108418689
 20
346.181659092326
 30
0
 11
-434.282108418689
 21
226.181659092326
 31
0
  0
LINE
  8
1
 62
3
 10
-253.282108418689
 20
366.181659092326
 30
0
 11
-246.2821084186891
 21
371.181659092326
 31
0
  0
LINE
  8
1
 62
3
 10
-253.282108418689
 20
371.181659092326
 30
0
 11
-246.282108418689
 21
366.181659092326
 31
0
  0
LINE
  8
1
 62
7
 10
-253.282108418689
 20
366.181659092326
 30
0
 11
-246.282108418689
 21
366.181659092326
 31
0
  0
LINE
  8
1
 62
7
 10
-253.282108418689
 20
371.181659092326
 30
0
 11
-246.2821084186891
 21
371.181659092326
 31
0
  0
LINE
  8
1
 62
7
 10
-246.282108418689
 20
364.681659092326
 30
0
 11
-253.282108418689
 21
364.681659092326
 31
0
  0
LINE
  8
1
 62
7
 10
-257.282108418689
 20
363.681659092326
 30
0
 11
-254.282108418689
 21
363.681659092326
 31
0
  0
LINE
  8
1
 62
7
 10
-246.282108418689
 20
372.681659092326
 30
0
 11
-246.282108418689
 21
364.681659092326
 31
0
  0
LINE
  8
1
 62
7
 10
-253.282108418689
 20
372.681659092326
 30
0
 11
-246.282108418689
 21
372.681659092326
 31
0
  0
LINE
  8
1
 62
3
 10
-253.282108418689
 20
372.681659092326
 30
0
 11
-257.282108418689
 21
372.681659092326
 31
0
  0
LINE
  8
1
 62
3
 10
-253.282108418689
 20
364.681659092326
 30
0
 11
-257.282108418689
 21
364.681659092326
 31
0
  0
LINE
  8
1
 62
7
 10
-254.282108418689
 20
363.681659092326
 30
0
 11
-254.282108418689
 21
373.681659092326
 31
0
  0
LINE
  8
1
 62
7
 10
-254.282108418689
 20
373.681659092326
 30
0
 11
-257.282108418689
 21
373.681659092326
 31
0
  0
LINE
  8
1
 62
7
 10
-253.282108418689
 20
372.681659092326
 30
0
 11
-254.282108418689
 21
373.681659092326
 31
0
  0
LINE
  8
1
 62
7
 10
-253.282108418689
 20
364.681659092326
 30
0
 11
-253.282108418689
 21
372.681659092326
 31
0
  0
LINE
  8
1
 62
7
 10
-254.282108418689
 20
363.681659092326
 30
0
 11
-253.282108418689
 21
364.681659092326
 31
0
  0
LINE
  8
1
 62
7
 10
-263.282108418689
 20
356.181659092326
 30
0
 11
-246.282108418689
 21
356.181659092326
 31
0
  0
LINE
  8
1
 62
7
 10
-263.282108418689
 20
350.181659092326
 30
0
 11
-266.282108418689
 21
350.181659092326
 31
0
  0
LINE
  8
1
 62
3
  6
DASHDOT
 10
-236.282108418689
 20
286.181659092326
 30
0
 11
-246.282108418689
 21
286.181659092326
 31
0
  0
LINE
  8
1
 62
7
 10
-266.282108418689
 20
378.681659092326
 30
0
 11
-263.282108418689
 21
378.681659092326
 31
0
  0
LINE
  8
1
 62
7
 10
-257.282108418689
 20
376.031659092326
 30
0
 11
-257.282108418689
 21
361.331659092326
 31
0
  0
LINE
  8
1
 62
7
 10
-258.1770013359329
 20
378.481659092326
 30
0
 11
-262.3872155014451
 21
378.481659092326
 31
0
  0
LINE
  8
1
 62
7
 10
-258.1770013359329
 20
373.581659092326
 30
0
 11
-262.3872155014451
 21
373.581659092326
 31
0
  0
LINE
  8
1
 62
7
 10
-258.1770013359329
 20
363.781659092326
 30
0
 11
-262.3872155014451
 21
363.781659092326
 31
0
  0
LINE
  8
1
 62
7
 10
-258.1770013359329
 20
358.881659092326
 30
0
 11
-262.3872155014451
 21
358.881659092326
 31
0
  0
LINE
  8
1
 62
7
 10
-424.2821084186889
 20
460.181659092326
 30
0
 11
-417.2821084186889
 21
460.181659092326
 31
0
  0
LINE
  8
1
 62
7
 10
-430.282108418689
 20
396.181659092326
 30
0
 11
-424.2821084186889
 21
460.181659092326
 31
0
  0
LINE
  8
1
 62
7
 10
-432.256047988712
 20
346.9190847816622
 30
0
 11
-434.282108418689
 21
346.181659092326
 31
0
  0
LINE
  8
1
 62
7
 10
-430.282108418689
 20
396.181659092326
 30
0
 11
-430.282108418689
 21
176.181659092326
 31
0
  0
LINE
  8
1
 62
7
 10
-274.282108418689
 20
379.681659092326
 30
0
 11
-266.282108418689
 21
379.681659092326
 31
0
  0
LINE
  8
1
 62
7
 10
-319.282108418689
 20
518.6816590923261
 30
0
 11
-313.1842290686395
 21
518.6816590923261
 31
0
  0
LINE
  8
1
 62
7
 10
-313.1842290686395
 20
516.1816590923261
 30
0
 11
-310.0326272642132
 21
516.1816590923261
 31
0
  0
LINE
  8
1
 62
7
 10
-307.6833957122485
 20
514.5367094506403
 30
0
 11
-274.282108418689
 21
422.7674268308689
 31
0
  0
LINE
  8
1
 62
7
 10
-274.282108418689
 20
422.7674268308689
 30
0
 11
-274.282108418689
 21
149.5958913537831
 31
0
  0
LINE
  8
1
 62
7
 10
-319.282108418689
 20
518.6816590923261
 30
0
 11
-319.282108418689
 21
53.68165909232596
 31
0
  0
LINE
  8
1
 62
3
  6
DASHDOT
 10
-434.282108418689
 20
286.181659092326
 30
0
 11
-444.282108418689
 21
286.181659092326
 31
0
  0
LINE
  8
1
 62
7
 10
202.3061331736038
 20
354.4867448669313
 30
0
 11
276.994365086015
 21
483.8505572667146
 31
0
  0
LINE
  8
1
 62
7
 10
-899.5200451004452
 20
276.181659092326
 30
0
 11
-892.2498785625193
 21
276.181659092326
 31
0
  0
LINE
  8
1
 62
7
 10
-899.5200451004452
 20
296.181659092326
 30
0
 11
-899.5200451004452
 21
276.181659092326
 31
0
  0
LINE
  8
1
 62
7
 10
-892.2498785625194
 20
296.181659092326
 30
0
 11
-899.5200451004452
 21
296.181659092326
 31
0
  0
LINE
  8
1
 62
3
  6
DASHDOT
 10
-420.034793007474
 20
501.181659092326
 30
0
 11
-387.8476866107151
 21
501.181659092326
 31
0
  0
LINE
  8
1
 62
3
  6
DASHED
 10
-417.282108418689
 20
494.681659092326
 30
0
 11
-390.282108418689
 21
494.681659092326
 31
0
  0
LINE
  8
1
 62
3
  6
DASHED
 10
-417.282108418689
 20
507.681659092326
 30
0
 11
-390.282108418689
 21
507.681659092326
 31
0
  0
LINE
  8
1
 62
3
  6
DASHED
 10
-417.282108418689
 20
65.68165909232602
 30
0
 11
-403.782108418689
 21
65.68165909232602
 31
0
  0
LINE
  8
1
 62
3
  6
DASHED
 10
-417.282108418689
 20
76.68165909232602
 30
0
 11
-403.782108418689
 21
76.68165909232602
 31
0
  0
LINE
  8
1
 62
3
  6
DASHED
 10
-403.782108418689
 20
80.93165909232602
 30
0
 11
-403.782108418689
 21
61.43165909232602
 31
0
  0
LINE
  8
1
 62
3
  6
DASHED
 10
-390.282108418689
 20
80.93165909232602
 30
0
 11
-403.782108418689
 21
80.93165909232602
 31
0
  0
LINE
  8
1
 62
3
  6
DASHED
 10
-403.782108418689
 20
61.43165909232602
 30
0
 11
-390.282108418689
 21
61.43165909232602
 31
0
  0
LINE
  8
1
 62
3
  6
DASHDOT
 10
-421.7720112978851
 20
71.18165909232602
 30
0
 11
-385.656028060998
 21
71.18165909232602
 31
0
  0
LINE
  8
1
 62
3
  6
DASHDOT
 10
-340.8969750567761
 20
1.181659092326015
 30
0
 11
-317.6475341249251
 21
1.181659092326015
 31
0
  0
LINE
  8
1
 62
3
  6
DASHED
 10
-335.2821084186891
 20
-16.31834090767398
 30
0
 11
-323.2821084186891
 21
-16.31834090767398
 31
0
  0
LINE
  8
1
 62
3
  6
DASHED
 10
-335.2821084186891
 20
18.68165909232602
 30
0
 11
-323.2821084186891
 21
18.68165909232602
 31
0
  0
LINE
  8
1
 62
3
  6
DASHED
 10
-284.2821084186891
 20
234.681659092326
 30
0
 11
-284.2821084186891
 21
237.181659092326
 31
0
  0
LINE
  8
1
 62
3
  6
DASHED
 10
-299.2821084186891
 20
237.181659092326
 30
0
 11
-299.2821084186891
 21
248.681659092326
 31
0
  0
LINE
  8
1
 62
3
  6
DASHED
 10
-287.2821084186891
 20
248.681659092326
 30
0
 11
-287.2821084186891
 21
237.181659092326
 31
0
  0
LINE
  8
1
 62
3
  6
DASHED
 10
-284.2821084186891
 20
237.181659092326
 30
0
 11
-302.2821084186891
 21
237.181659092326
 31
0
  0
LINE
  8
1
 62
3
  6
DASHED
 10
-302.2821084186891
 20
237.181659092326
 30
0
 11
-302.2821084186891
 21
234.681659092326
 31
0
  0
LINE
  8
1
 62
3
  6
DASHED
 10
-247.8821084186891
 20
323.681659092326
 30
0
 11
-247.8821084186891
 21
248.681659092326
 31
0
  0
LINE
  8
1
 62
3
  6
DASHED
 10
-246.2821084186891
 20
247.081659092326
 30
0
 11
-247.8821084186891
 21
248.681659092326
 31
0
  0
LINE
  8
1
 62
3
  6
DASHED
 10
-347.8646841136448
 20
276.181659092326
 30
0
 11
-434.282108418689
 21
276.181659092326
 31
0
  0
LINE
  8
1
 62
3
  6
DASHED
 10
-431.282108418689
 20
246.181659092326
 30
0
 11
-434.282108418689
 21
243.181659092326
 31
0
  0
LINE
  8
1
 62
3
  6
DASHED
 10
-431.282108418689
 20
276.181659092326
 30
0
 11
-431.282108418689
 21
246.181659092326
 31
0
  0
LINE
  8
1
 62
3
  6
DASHED
 10
-331.282108418689
 20
246.181659092326
 30
0
 11
-431.282108418689
 21
246.181659092326
 31
0
  0
LINE
  8
1
 62
3
  6
DASHED
 10
-247.8821084186891
 20
248.681659092326
 30
0
 11
-331.282108418689
 21
248.681659092326
 31
0
  0
LINE
  8
1
 62
3
  6
DASHED
 10
-331.282108418689
 20
326.181659092326
 30
0
 11
-331.282108418689
 21
246.181659092326
 31
0
  0
LINE
  8
1
 62
3
  6
DASHED
 10
-331.282108418689
 20
323.681659092326
 30
0
 11
-247.8821084186891
 21
323.681659092326
 31
0
  0
LINE
  8
1
 62
3
  6
DASHED
 10
-247.8821084186891
 20
323.681659092326
 30
0
 11
-246.2821084186891
 21
325.281659092326
 31
0
  0
LINE
  8
1
 62
7
 10
391.9060718994772
 20
286.181659092326
 30
0
 11
391.9060718994772
 21
-35.31834090767398
 31
0
  0
LINE
  8
1
 62
7
 10
-73.09392810052282
 20
286.181659092326
 30
0
 11
-73.09392810052282
 21
-35.31834090767398
 31
0
  0
LINE
  8
1
 62
7
 10
302.9060718994772
 20
-51.31834090767398
 30
0
 11
375.9060718994772
 21
-51.31834090767398
 31
0
  0
LINE
  8
1
 62
7
 10
-57.09392810052282
 20
-51.31834090767398
 30
0
 11
15.90607189947718
 21
-51.31834090767398
 31
0
  0
LINE
  8
1
 62
7
 10
286.9060718994772
 20
-1.318340907673985
 30
0
 11
286.9060718994772
 21
-35.31834090767398
 31
0
  0
LINE
  8
1
 62
7
 10
66.90607189947718
 20
33.68165909232602
 30
0
 11
251.9060718994772
 21
33.68165909232602
 31
0
  0
LINE
  8
1
 62
7
 10
31.90607189947718
 20
-1.318340907673978
 30
0
 11
31.90607189947718
 21
-35.31834090767398
 31
0
  0
LINE
  8
1
 62
3
  6
DASHDOT
 10
359.9060718994772
 20
1.181659092326015
 30
0
 11
318.9060718994772
 21
1.181659092326018
 31
0
  0
LINE
  8
1
 62
3
  6
DASHDOT
 10
339.4060718994772
 20
21.68165909232602
 30
0
 11
339.4060718994772
 21
-19.31834090767398
 31
0
  0
LINE
  8
1
 62
3
  6
DASHDOT
 10
-0.09392810052281675
 20
1.181659092326015
 30
0
 11
-41.09392810052282
 21
1.181659092326018
 31
0
  0
LINE
  8
1
 62
3
  6
DASHDOT
 10
-20.59392810052282
 20
21.68165909232602
 30
0
 11
-20.59392810052282
 21
-19.31834090767398
 31
0
  0
LINE
  8
1
 62
7
 10
113.6786184387825
 20
233.181659092326
 30
0
 11
144.9060718994772
 21
233.181659092326
 31
0
  0
LINE
  8
1
 62
7
 10
144.9060718994772
 20
233.181659092326
 30
0
 11
144.9060718994772
 21
217.6999096987832
 31
0
  0
LINE
  8
1
 62
7
 10
157.9060718994772
 20
239.7909032782632
 30
0
 11
157.9060718994772
 21
216.1977323662556
 31
0
  0
LINE
  8
1
 62
7
 10
160.9060718994772
 20
239.7909032782632
 30
0
 11
160.9060718994772
 21
216.1977323662556
 31
0
  0
LINE
  8
1
 62
3
  6
DASHDOT
 10
99.58487216937141
 20
310.9604113379655
 30
0
 11
112.981125390785
 21
305.4115015686717
 31
0
  0
LINE
  8
1
 62
7
 10
144.9060718994772
 20
225.181659092326
 30
0
 11
142.9060718994772
 21
223.181659092326
 31
0
  0
LINE
  8
1
 62
7
 10
144.9060718994772
 20
227.181659092326
 30
0
 11
142.9060718994772
 21
225.181659092326
 31
0
  0
LINE
  8
1
 62
7
 10
144.9060718994772
 20
217.481659092326
 30
0
 11
142.9060718994772
 21
217.481659092326
 31
0
  0
LINE
  8
1
 62
7
 10
142.9060718994772
 20
217.481659092326
 30
0
 11
142.9060718994772
 21
232.881659092326
 31
0
  0
LINE
  8
1
 62
7
 10
142.9060718994772
 20
232.881659092326
 30
0
 11
144.9060718994772
 21
232.881659092326
 31
0
  0
LINE
  8
1
 62
7
 10
144.9060718994772
 20
232.881659092326
 30
0
 11
144.9060718994772
 21
217.481659092326
 31
0
  0
LINE
  8
1
 62
7
 10
142.9060718994772
 20
218.681659092326
 30
0
 11
135.4060718994772
 21
218.681659092326
 31
0
  0
LINE
  8
1
 62
7
 10
135.4060718994772
 20
218.681659092326
 30
0
 11
134.9060718994772
 21
219.5476844961105
 31
0
  0
LINE
  8
1
 62
7
 10
134.9060718994772
 20
219.5476844961105
 30
0
 11
134.9060718994772
 21
230.8156336885416
 31
0
  0
LINE
  8
1
 62
7
 10
134.9060718994772
 20
230.8156336885416
 30
0
 11
135.4060718994772
 21
231.681659092326
 31
0
  0
LINE
  8
1
 62
7
 10
135.4060718994772
 20
231.681659092326
 30
0
 11
142.9060718994772
 21
231.681659092326
 31
0
  0
LINE
  8
1
 62
7
 10
142.9060718994772
 20
231.681659092326
 30
0
 11
142.9060718994772
 21
218.681659092326
 31
0
  0
LINE
  8
1
 62
7
 10
135.4060718994772
 20
218.681659092326
 30
0
 11
135.4060718994772
 21
231.681659092326
 31
0
  0
LINE
  8
1
 62
7
 10
114.9337914470814
 20
233.181659092326
 30
0
 11
103.162156051905
 21
219.1527703194154
 31
0
  0
LINE
  8
1
 62
7
 10
96.20492252134341
 20
353.7232367854982
 30
0
 11
103.162156051905
 21
353.2105478652366
 31
0
  0
LINE
  8
1
 62
7
 10
103.162156051905
 20
353.2105478652366
 30
0
 11
114.4109392214194
 21
339.8047701106545
 31
0
  0
LINE
  8
1
 62
7
 10
103.162156051905
 20
219.1527703194154
 30
0
 11
96.20492252134341
 21
218.6400813991538
 31
0
  0
LINE
  8
1
 62
7
 10
88.68871392958022
 20
345.5205680826983
 30
0
 11
86.98436495353531
 21
335.8547247205706
 31
0
  0
LINE
  8
1
 62
7
 10
86.98436495353531
 20
335.8547247205706
 30
0
 11
94.5030563661166
 21
329.5457935293378
 31
0
  0
LINE
  8
1
 62
7
 10
94.5030563661166
 20
329.5457935293378
 30
0
 11
103.7260967547428
 21
332.9027057002328
 31
0
  0
LINE
  8
1
 62
7
 10
103.7260967547428
 20
332.9027057002328
 30
0
 11
105.4304457307877
 21
342.5685490623604
 31
0
  0
LINE
  8
1
 62
7
 10
105.4304457307877
 20
342.5685490623604
 30
0
 11
97.91175431820642
 21
348.8774802535932
 31
0
  0
LINE
  8
1
 62
7
 10
97.91175431820642
 20
348.8774802535932
 30
0
 11
88.68871392958022
 21
345.5205680826983
 31
0
  0
LINE
  8
1
 62
7
 10
96.1090050815053
 20
343.2104263818867
 30
0
 11
100.1625312609369
 21
339.8091140597582
 31
0
  0
LINE
  8
1
 62
7
 10
92.25227942338609
 20
338.6141597231729
 30
0
 11
96.30580560281771
 21
335.2128474010443
 31
0
  0
LINE
  8
1
 62
7
 10
86.98436495353531
 20
236.5085934640815
 30
0
 11
88.68871392958022
 21
226.8427501019538
 31
0
  0
LINE
  8
1
 62
7
 10
94.5030563661166
 20
242.8175246553142
 30
0
 11
86.98436495353531
 21
236.5085934640815
 31
0
  0
LINE
  8
1
 62
7
 10
103.7260967547428
 20
239.4606124844192
 30
0
 11
94.5030563661166
 21
242.8175246553142
 31
0
  0
LINE
  8
1
 62
7
 10
105.4304457307877
 20
229.7947691222916
 30
0
 11
103.7260967547428
 21
239.4606124844192
 31
0
  0
LINE
  8
1
 62
7
 10
97.91175431820642
 20
223.4858379310588
 30
0
 11
105.4304457307877
 21
229.7947691222916
 31
0
  0
LINE
  8
1
 62
7
 10
88.68871392958022
 20
226.8427501019538
 30
0
 11
97.91175431820642
 21
223.4858379310588
 31
0
  0
LINE
  8
1
 62
7
 10
67.09111732325363
 20
286.181659092326
 30
0
 11
71.99859461136538
 21
277.681659092326
 31
0
  0
LINE
  8
1
 62
7
 10
71.99859461136538
 20
277.681659092326
 30
0
 11
81.8135491875891
 21
277.681659092326
 31
0
  0
LINE
  8
1
 62
7
 10
81.8135491875891
 20
277.681659092326
 30
0
 11
86.7210264757008
 21
286.1816590923261
 31
0
  0
LINE
  8
1
 62
7
 10
86.7210264757008
 20
286.1816590923261
 30
0
 11
81.8135491875891
 21
294.681659092326
 31
0
  0
LINE
  8
1
 62
7
 10
81.8135491875891
 20
294.681659092326
 30
0
 11
71.99859461136538
 21
294.681659092326
 31
0
  0
LINE
  8
1
 62
7
 10
71.99859461136538
 20
294.681659092326
 30
0
 11
67.09111732325363
 21
286.181659092326
 31
0
  0
LINE
  8
1
 62
7
 10
215.6499877470494
 20
353.2105478652366
 30
0
 11
222.607221277611
 21
353.7232367854982
 31
0
  0
LINE
  8
1
 62
7
 10
204.4012045775351
 20
339.8047701106545
 30
0
 11
215.6499877470494
 21
353.2105478652366
 31
0
  0
LINE
  8
1
 62
7
 10
215.6499877470494
 20
219.1527703194154
 30
0
 11
204.4012045775349
 21
232.5585480739975
 31
0
  0
LINE
  8
1
 62
7
 10
222.607221277611
 20
218.6400813991538
 30
0
 11
215.6499877470494
 21
219.1527703194154
 31
0
  0
LINE
  8
1
 62
7
 10
230.1234298693742
 20
226.8427501019538
 30
0
 11
231.8277788454191
 21
236.5085934640815
 31
0
  0
LINE
  8
1
 62
7
 10
231.8277788454191
 20
236.5085934640815
 30
0
 11
224.3090874328378
 21
242.8175246553142
 31
0
  0
LINE
  8
1
 62
7
 10
224.3090874328378
 20
242.8175246553142
 30
0
 11
215.0860470442116
 21
239.4606124844192
 31
0
  0
LINE
  8
1
 62
7
 10
215.0860470442116
 20
239.4606124844192
 30
0
 11
213.3816980681667
 21
229.7947691222916
 31
0
  0
LINE
  8
1
 62
7
 10
213.3816980681667
 20
229.7947691222916
 30
0
 11
220.900389480748
 21
223.4858379310588
 31
0
  0
LINE
  8
1
 62
7
 10
220.900389480748
 20
223.4858379310588
 30
0
 11
230.1234298693742
 21
226.8427501019538
 31
0
  0
LINE
  8
1
 62
7
 10
246.8135491875889
 20
277.681659092326
 30
0
 11
251.7210264757009
 21
286.181659092326
 31
0
  0
LINE
  8
1
 62
7
 10
236.9985946113653
 20
277.681659092326
 30
0
 11
246.8135491875889
 21
277.681659092326
 31
0
  0
LINE
  8
1
 62
7
 10
232.0911173232536
 20
286.1816590923261
 30
0
 11
236.9985946113653
 21
277.681659092326
 31
0
  0
LINE
  8
1
 62
7
 10
236.9985946113653
 20
294.681659092326
 30
0
 11
232.0911173232536
 21
286.1816590923261
 31
0
  0
LINE
  8
1
 62
7
 10
246.8135491875889
 20
294.681659092326
 30
0
 11
236.9985946113653
 21
294.681659092326
 31
0
  0
LINE
  8
1
 62
7
 10
251.7210264757009
 20
286.181659092326
 30
0
 11
246.8135491875889
 21
294.681659092326
 31
0
  0
LINE
  8
1
 62
7
 10
231.8277788454191
 20
335.8547247205706
 30
0
 11
230.1234298693742
 21
345.5205680826983
 31
0
  0
LINE
  8
1
 62
7
 10
224.3090874328378
 20
329.5457935293378
 30
0
 11
231.8277788454191
 21
335.8547247205706
 31
0
  0
LINE
  8
1
 62
7
 10
215.0860470442116
 20
332.9027057002328
 30
0
 11
224.3090874328378
 21
329.5457935293378
 31
0
  0
LINE
  8
1
 62
7
 10
213.3816980681667
 20
342.5685490623604
 30
0
 11
215.0860470442116
 21
332.9027057002328
 31
0
  0
LINE
  8
1
 62
7
 10
220.900389480748
 20
348.8774802535932
 30
0
 11
213.3816980681667
 21
342.5685490623604
 31
0
  0
LINE
  8
1
 62
7
 10
230.1234298693742
 20
345.5205680826983
 30
0
 11
220.900389480748
 21
348.8774802535932
 31
0
  0
LINE
  8
1
 62
7
 10
174.4060718994772
 20
207.6896212795644
 30
0
 11
174.4060718994772
 21
181.181659092326
 31
0
  0
LINE
  8
1
 62
7
 10
177.4060718994772
 20
178.181659092326
 30
0
 11
178.1392671269396
 21
178.181659092326
 31
0
  0
LINE
  8
1
 62
7
 10
182.0784981389884
 20
174.8762518029937
 30
0
 11
202.2961784130453
 21
60.21608922989145
 31
0
  0
LINE
  8
1
 62
7
 10
177.3965543133417
 20
166.8762518029937
 30
0
 11
196.387331894972
 21
59.17420016388985
 31
0
  0
LINE
  8
1
 62
7
 10
145.3548204976617
 20
170.181659092326
 30
0
 11
173.4573233012928
 21
170.181659092326
 31
0
  0
LINE
  8
1
 62
7
 10
140.6728766720149
 20
178.181659092326
 30
0
 11
141.4060718994772
 21
178.181659092326
 31
0
  0
LINE
  8
1
 62
7
 10
144.4060718994772
 20
181.181659092326
 30
0
 11
144.4060718994772
 21
207.6896212795644
 31
0
  0
LINE
  8
1
 62
7
 10
122.4248119039824
 20
59.17420016388985
 30
0
 11
141.4155894856128
 21
166.8762518029937
 31
0
  0
LINE
  8
1
 62
7
 10
116.5159653859092
 20
60.21608922989145
 30
0
 11
136.733645659966
 21
174.8762518029937
 31
0
  0
LINE
  8
1
 62
7
 10
174.4060718994772
 20
391.181659092326
 30
0
 11
174.4060718994772
 21
364.6736969050876
 31
0
  0
LINE
  8
1
 62
7
 10
178.1392671269396
 20
394.181659092326
 30
0
 11
177.4060718994772
 21
394.181659092326
 31
0
  0
LINE
  8
1
 62
7
 10
173.4573233012928
 20
402.181659092326
 30
0
 11
145.3548204976617
 21
402.181659092326
 31
0
  0
LINE
  8
1
 62
7
 10
141.4060718994772
 20
394.181659092326
 30
0
 11
140.6728766720149
 21
394.181659092326
 31
0
  0
LINE
  8
1
 62
7
 10
144.4060718994772
 20
364.6736969050876
 30
0
 11
144.4060718994772
 21
391.181659092326
 31
0
  0
LINE
  8
1
 62
7
 10
136.733645659966
 20
397.4870663816583
 30
0
 11
116.5159653859092
 21
512.1472289547605
 31
0
  0
LINE
  8
1
 62
7
 10
141.4155894856128
 20
405.4870663816583
 30
0
 11
122.4248119039824
 21
513.1891180207622
 31
0
  0
LINE
  8
1
 62
7
 10
196.387331894972
 20
513.1891180207622
 30
0
 11
177.3965543133417
 21
405.4870663816583
 31
0
  0
LINE
  8
1
 62
7
 10
202.2961784130453
 20
512.1472289547605
 30
0
 11
182.0784981389884
 21
397.4870663816583
 31
0
  0
LINE
  8
1
 62
7
 10
276.994365086015
 20
88.51276091793736
 30
0
 11
202.3061331736038
 21
217.8765733177207
 31
0
  0
LINE
  8
1
 62
7
 10
197.1099807508972
 20
214.8765733177208
 30
0
 11
271.7982126633084
 21
85.51276091793736
 31
0
  0
LINE
  8
1
 62
7
 10
271.7982126633084
 20
486.8505572667146
 30
0
 11
197.1099807508972
 21
357.4867448669313
 31
0
  0
LINE
  8
1
 62
7
 10
337.5096681823081
 20
140.6512190080523
 30
0
 11
232.6401536447156
 21
228.6471899782865
 31
0
  0
LINE
  8
1
 62
7
 10
376.5430490377569
 20
210.3427959728791
 30
0
 11
247.3079729482611
 21
257.3805168925833
 31
0
  0
LINE
  8
1
 62
7
 10
342.8815470998429
 20
289.181659092326
 30
0
 11
252.4890771437356
 21
289.181659092326
 31
0
  0
LINE
  8
1
 62
7
 10
252.4890771437356
 20
283.1816590923261
 30
0
 11
342.8815470998427
 21
283.181659092326
 31
0
  0
LINE
  8
1
 62
7
 10
245.2558520883072
 20
251.7423611678681
 30
0
 11
374.490928177803
 21
204.7046402481637
 31
0
  0
LINE
  8
1
 62
7
 10
228.7834279865964
 20
224.0509233195726
 30
0
 11
333.6529425241889
 21
136.0549523493384
 31
0
  0
LINE
  8
1
 62
7
 10
247.3079729482611
 20
314.9828012920688
 30
0
 11
376.5430490377569
 21
362.0205222117729
 31
0
  0
LINE
  8
1
 62
7
 10
374.490928177803
 20
367.6586779364884
 30
0
 11
245.2558520883072
 21
320.6209570167839
 31
0
  0
LINE
  8
1
 62
7
 10
232.6401536447156
 20
343.7161282063655
 30
0
 11
337.5096681823081
 21
431.7120991765997
 31
0
  0
LINE
  8
1
 62
7
 10
333.6529425241889
 20
436.3083658353136
 30
0
 11
228.7834279865964
 21
348.3123948650794
 31
0
  0
LINE
  8
1
 62
7
 10
121.7021630480572
 20
357.4867448669313
 30
0
 11
47.01393113564598
 21
486.8505572667146
 31
0
  0
LINE
  8
1
 62
7
 10
41.81777871293951
 20
483.8505572667146
 30
0
 11
116.5060106253506
 21
354.4867448669313
 31
0
  0
LINE
  8
1
 62
7
 10
-57.73090523880239
 20
362.0205222117729
 30
0
 11
71.5041708506933
 21
314.9828012920688
 31
0
  0
LINE
  8
1
 62
7
 10
73.55629171064732
 20
320.6209570167839
 30
0
 11
-55.67878437884838
 21
367.6586779364884
 31
0
  0
LINE
  8
1
 62
7
 10
66.32306665521878
 20
289.181659092326
 30
0
 11
-24.06940330088833
 21
289.181659092326
 31
0
  0
LINE
  8
1
 62
7
 10
-24.06940330088838
 20
283.181659092326
 30
0
 11
66.32306665521878
 21
283.1816590923261
 31
0
  0
LINE
  8
1
 62
7
 10
71.5041708506933
 20
257.3805168925833
 30
0
 11
-57.73090523880239
 21
210.3427959728791
 31
0
  0
LINE
  8
1
 62
7
 10
-55.67878437884838
 20
204.7046402481637
 30
0
 11
73.55629171064732
 21
251.7423611678681
 31
0
  0
LINE
  8
1
 62
7
 10
116.5060106253506
 20
217.8765733177207
 30
0
 11
41.81777871293951
 21
88.51276091793736
 31
0
  0
LINE
  8
1
 62
7
 10
47.01393113564598
 20
85.51276091793736
 30
0
 11
121.7021630480572
 21
214.8765733177208
 31
0
  0
LINE
  8
1
 62
7
 10
90.02871581235797
 20
348.3123948650794
 30
0
 11
-14.84079872523438
 21
436.3083658353136
 31
0
  0
LINE
  8
1
 62
7
 10
-18.69752438335371
 20
431.7120991765997
 30
0
 11
86.17199015423881
 21
343.7161282063655
 31
0
  0
LINE
  8
1
 62
7
 10
-14.84079872523438
 20
136.0549523493384
 30
0
 11
90.02871581235797
 21
224.0509233195726
 31
0
  0
LINE
  8
1
 62
7
 10
86.17199015423881
 20
228.6471899782865
 30
0
 11
-18.69752438335371
 21
140.6512190080523
 31
0
  0
LINE
  8
1
 62
7
 10
219.5185062299667
 20
451.3392150437949
 30
0
 11
216.8034213610039
 21
450.8604560602459
 31
0
  0
LINE
  8
1
 62
7
 10
221.2906415637807
 20
449.2272414718371
 30
0
 11
219.5185062299667
 21
451.3392150437949
 31
0
  0
LINE
  8
1
 62
7
 10
220.3476920286317
 20
446.6365089163303
 30
0
 11
221.2906415637807
 21
449.2272414718371
 31
0
  0
LINE
  8
1
 62
7
 10
217.632607159669
 20
446.1577499327814
 30
0
 11
220.3476920286317
 21
446.6365089163303
 31
0
  0
LINE
  8
1
 62
7
 10
215.8604718258549
 20
448.269723504739
 30
0
 11
217.632607159669
 21
446.1577499327814
 31
0
  0
LINE
  8
1
 62
7
 10
216.8034213610039
 20
450.8604560602459
 30
0
 11
215.8604718258549
 21
448.269723504739
 31
0
  0
LINE
  8
1
 62
3
  6
DASHED
 10
-434.282108418689
 20
329.181659092326
 30
0
 11
-431.282108418689
 21
326.181659092326
 31
0
  0
LINE
  8
1
 62
3
  6
DASHED
 10
-431.282108418689
 20
326.181659092326
 30
0
 11
-431.282108418689
 21
296.181659092326
 31
0
  0
LINE
  8
1
 62
3
  6
DASHED
 10
-431.282108418689
 20
326.181659092326
 30
0
 11
-331.282108418689
 21
326.181659092326
 31
0
  0
LINE
  8
1
 62
3
  6
DASHED
 10
-434.282108418689
 20
296.181659092326
 30
0
 11
-347.8646841136448
 21
296.181659092326
 31
0
  0
LINE
  8
1
 62
7
 10
157.9060718994772
 20
229.181659092326
 30
0
 11
160.9060718994772
 21
229.181659092326
 31
0
  0
LINE
  8
1
 62
7
 10
160.9060718994772
 20
221.181659092326
 30
0
 11
157.9060718994772
 21
221.181659092326
 31
0
  0
LINE
  8
1
 62
3
 10
157.9060718994772
 20
228.381659092326
 30
0
 11
160.9060718994772
 21
228.381659092326
 31
0
  0
LINE
  8
1
 62
3
 10
160.9060718994772
 20
221.981659092326
 30
0
 11
157.9060718994772
 21
221.981659092326
 31
0
  0
LINE
  8
1
 62
3
  6
DASHDOT
 10
144.4060718994772
 20
286.181659092326
 30
0
 11
174.4060718994772
 21
286.181659092326
 31
0
  0
LINE
  8
1
 62
3
  6
DASHDOT
 10
159.4060718994772
 20
271.181659092326
 30
0
 11
159.4060718994772
 21
301.181659092326
 31
0
  0
LINE
  8
1
 62
7
 10
74.26032058841258
 20
289.1816590923262
 30
0
 11
79.55182321054178
 21
289.1816590923262
 31
0
  0
LINE
  8
1
 62
7
 10
74.26032058841253
 20
283.181659092326
 30
0
 11
79.55182321054178
 21
283.1816590923262
 31
0
  0
LINE
  8
1
 62
7
 10
92.25227942338591
 20
233.7491584614796
 30
0
 11
96.30580560281771
 21
237.1504707836077
 31
0
  0
LINE
  8
1
 62
7
 10
96.10900508150519
 20
229.1528918027655
 30
0
 11
100.1625312609369
 21
232.5542041248938
 31
0
  0
LINE
  8
1
 62
7
 10
222.5063381961367
 20
237.1504707836077
 30
0
 11
226.5598643755683
 21
233.7491584614792
 31
0
  0
LINE
  8
1
 62
7
 10
218.6496125380174
 20
232.5542041248938
 30
0
 11
222.7031387174493
 21
229.1528918027655
 31
0
  0
LINE
  8
1
 62
7
 10
239.2603205884126
 20
289.1816590923262
 30
0
 11
244.5518232105418
 21
289.1816590923262
 31
0
  0
LINE
  8
1
 62
7
 10
239.2603205884126
 20
283.1816590923262
 30
0
 11
244.5518232105419
 21
283.181659092326
 31
0
  0
LINE
  8
1
 62
7
 10
218.6496125380174
 20
339.8091140597582
 30
0
 11
222.7031387174491
 21
343.2104263818867
 31
0
  0
LINE
  8
1
 62
7
 10
222.5063381961367
 20
335.2128474010443
 30
0
 11
226.5598643755683
 21
338.6141597231729
 31
0
  0
LINE
  8
1
 62
7
 10
-710.0200451004452
 20
-51.31834090767398
 30
0
 11
-637.0200451004452
 21
-51.31834090767398
 31
0
  0
LINE
  8
1
 62
7
 10
-1070.020045100445
 20
-51.31834090767398
 30
0
 11
-997.020045100445
 21
-51.31834090767398
 31
0
  0
LINE
  8
1
 62
7
 10
-726.0200451004452
 20
-1.318340907673985
 30
0
 11
-726.0200451004452
 21
-35.31834090767398
 31
0
  0
LINE
  8
1
 62
7
 10
-946.020045100445
 20
33.68165909232602
 30
0
 11
-761.0200451004452
 21
33.68165909232602
 31
0
  0
LINE
  8
1
 62
7
 10
-981.020045100445
 20
-1.318340907673978
 30
0
 11
-981.020045100445
 21
-35.31834090767398
 31
0
  0
LINE
  8
1
 62
3
  6
DASHDOT
 10
-653.0200451004452
 20
1.181659092326015
 30
0
 11
-694.0200451004452
 21
1.181659092326018
 31
0
  0
LINE
  8
1
 62
3
  6
DASHDOT
 10
-673.5200451004452
 20
21.68165909232602
 30
0
 11
-673.5200451004452
 21
-19.31834090767398
 31
0
  0
LINE
  8
1
 62
3
  6
DASHDOT
 10
-1013.020045100445
 20
1.181659092326015
 30
0
 11
-1054.020045100445
 21
1.181659092326018
 31
0
  0
LINE
  8
1
 62
3
  6
DASHDOT
 10
-1033.520045100445
 20
21.68165909232602
 30
0
 11
-1033.520045100445
 21
-19.31834090767398
 31
0
  0
LINE
  8
1
 62
7
 10
-1086.020045100445
 20
286.181659092326
 30
0
 11
-1086.020045100445
 21
-35.31834090767398
 31
0
  0
LINE
  8
1
 62
7
 10
-621.0200451004452
 20
286.181659092326
 30
0
 11
-621.0200451004452
 21
-35.31834090767398
 31
0
  0
LINE
  8
1
 62
3
  6
DASHDOT
 10
-868.520045100445
 20
286.181659092326
 30
0
 11
-838.520045100445
 21
286.181659092326
 31
0
  0
LINE
  8
1
 62
3
  6
DASHDOT
 10
-853.520045100445
 20
271.181659092326
 30
0
 11
-853.520045100445
 21
301.181659092326
 31
0
  0
LINE
  8
1
 62
3
  6
DASHED
 10
-280.2821084186891
 20
234.681659092326
 30
0
 11
-306.2821084186891
 21
234.681659092326
 31
0
  0
LINE
  8
1
 62
7
 10
-266.282108418689
 20
192.681659092326
 30
0
 11
-274.282108418689
 21
192.681659092326
 31
0
  0
ARC
  8
1
 62
7
 10
-853.5200451004452
 20
286.181659092326
 30
0
 40
105.0000000000001
 50
124.0496815229861
 51
155.9503184770139
  0
ARC
  8
1
 62
7
 10
-853.5200451004452
 20
286.181659092326
 30
0
 40
104.9999999999999
 50
204.0478245058284
 51
235.9503184770139
  0
ARC
  8
1
 62
7
 10
-853.5200451004452
 20
286.181659092326
 30
0
 40
105
 50
244.0478245058285
 51
295.9521754941715
  0
ARC
  8
1
 62
7
 10
-853.5200451004452
 20
286.181659092326
 30
0
 40
105.0000000000001
 50
304.0496815229861
 51
335.9521754941716
  0
ARC
  8
1
 62
7
 10
-853.5200451004452
 20
286.181659092326
 30
0
 40
105
 50
344.0496815229862
 51
15.95217549417164
  0
ARC
  8
1
 62
7
 10
-853.5200451004452
 20
286.181659092326
 30
0
 40
104.9999999999999
 50
24.04968152298614
 51
55.95031847701391
  0
ARC
  8
1
 62
7
 10
-853.5200451004452
 20
286.181659092326
 30
0
 40
104.9999999999999
 50
164.0478245058284
 51
195.9503184770138
  0
ARC
  8
1
 62
7
 10
-853.5200451004452
 20
286.181659092326
 30
0
 40
105.0000000000001
 50
64.04782450582847
 51
115.9521754941715
  0
ARC
  8
1
 62
7
 10
-853.5200451004452
 20
286.181659092326
 30
0
 40
110
 50
63.52414084387996
 51
76.4745336534085
  0
ARC
  8
1
 62
7
 10
-853.5200451004452
 20
286.181659092326
 30
0
 40
110
 50
43.52414084387994
 51
56.47453365340847
  0
ARC
  8
1
 62
7
 10
-853.5200451004452
 20
286.181659092326
 30
0
 40
109.9999999999999
 50
223.5241408438799
 51
236.4745336534084
  0
ARC
  8
1
 62
7
 10
-853.5200451004452
 20
286.181659092326
 30
0
 40
110
 50
263.5241408438799
 51
276.4745336534085
  0
ARC
  8
1
 62
7
 10
-853.5200451004452
 20
286.181659092326
 30
0
 40
110
 50
283.5241408438799
 51
296.4745336534085
  0
ARC
  8
1
 62
7
 10
-853.5200451004452
 20
286.181659092326
 30
0
 40
110
 50
303.52414084388
 51
316.4745336534085
  0
ARC
  8
1
 62
7
 10
-853.5200451004452
 20
286.181659092326
 30
0
 40
110
 50
323.5241408438799
 51
336.4745336534085
  0
ARC
  8
1
 62
7
 10
-853.5200451004452
 20
286.181659092326
 30
0
 40
110.0000000000001
 50
343.5241408438799
 51
356.4745336534085
  0
ARC
  8
1
 62
7
 10
-853.5200451004452
 20
286.181659092326
 30
0
 40
109.9999999999999
 50
203.5241408438799
 51
216.4745336534085
  0
ARC
  8
1
 62
7
 10
-853.5200451004452
 20
286.181659092326
 30
0
 40
109.9999999999999
 50
183.5241408438799
 51
196.4745336534085
  0
ARC
  8
1
 62
7
 10
-853.5200451004452
 20
286.181659092326
 30
0
 40
109.9999999999999
 50
163.5241408438798
 51
176.4745336534084
  0
ARC
  8
1
 62
7
 10
-853.5200451004452
 20
286.181659092326
 30
0
 40
109.9999999999999
 50
143.5241408438799
 51
156.4745336534085
  0
ARC
  8
1
 62
7
 10
-853.5200451004452
 20
286.181659092326
 30
0
 40
110
 50
123.52414084388
 51
136.4745336534085
  0
ARC
  8
1
 62
7
 10
-853.5200451004452
 20
286.181659092326
 30
0
 40
168
 50
22.28498240959998
 51
37.7149471894138
  0
ARC
  8
1
 62
7
 10
-853.5200451004452
 20
286.181659092326
 30
0
 40
168
 50
2.284982409599955
 51
17.71494718941383
  0
ARC
  8
1
 62
7
 10
-853.5200451004452
 20
286.181659092326
 30
0
 40
167.9999999999999
 50
342.2849824096
 51
357.7149471894138
  0
ARC
  8
1
 62
7
 10
-853.5200451004452
 20
286.181659092326
 30
0
 40
167.9999999999999
 50
322.2849824096
 51
337.7149471894138
  0
ARC
  8
1
 62
7
 10
-853.5200451004452
 20
286.181659092326
 30
0
 40
168
 50
302.2849824096001
 51
317.7149471894139
  0
ARC
  8
1
 62
7
 10
-853.5200451004452
 20
286.181659092326
 30
0
 40
167.9999999999999
 50
282.2849824096
 51
297.7149471894139
  0
ARC
  8
1
 62
7
 10
-853.5200451004452
 20
286.181659092326
 30
0
 40
167.9999999999999
 50
262.2849824096001
 51
277.7149471894139
  0
ARC
  8
1
 62
7
 10
-853.5200451004452
 20
286.181659092326
 30
0
 40
167.9999999999999
 50
242.2849824096001
 51
257.7149471894138
  0
ARC
  8
1
 62
7
 10
-853.5200451004452
 20
286.181659092326
 30
0
 40
167.9999999999999
 50
222.2849824096001
 51
237.7149471894139
  0
ARC
  8
1
 62
7
 10
-853.5200451004452
 20
286.181659092326
 30
0
 40
168.0000000000001
 50
202.2849824096
 51
217.7149471894139
  0
ARC
  8
1
 62
7
 10
-853.5200451004452
 20
286.181659092326
 30
0
 40
168.0000000000006
 50
182.2849824096
 51
197.7149471894138
  0
ARC
  8
1
 62
7
 10
-853.5200451004452
 20
286.181659092326
 30
0
 40
168.0000000000003
 50
162.2849824096001
 51
177.7149471894138
  0
ARC
  8
1
 62
7
 10
-853.5200451004452
 20
286.181659092326
 30
0
 40
168
 50
142.2849824096
 51
157.7149471894139
  0
ARC
  8
1
 62
7
 10
-853.5200451004452
 20
286.181659092326
 30
0
 40
167.9999999999999
 50
122.2849824096
 51
137.7149471894139
  0
ARC
  8
1
 62
7
 10
-853.5200451004452
 20
286.181659092326
 30
0
 40
168
 50
102.2849824096
 51
117.7149471894138
  0
ARC
  8
1
 62
7
 10
-853.5200451004452
 20
286.181659092326
 30
0
 40
110.0000000000001
 50
103.52414084388
 51
116.4745336534085
  0
ARC
  8
1
 62
7
 10
-853.5200451004452
 20
286.181659092326
 30
0
 40
110.0000000000004
 50
243.5241408438799
 51
256.4745336534084
  0
ARC
  8
1
 62
7
 10
-853.5200451004452
 20
286.181659092326
 30
0
 40
168.0000000000001
 50
42.28498240959997
 51
57.71494718941381
  0
ARC
  8
1
 62
7
 10
-853.5200451004452
 20
286.181659092326
 30
0
 40
110
 50
3.524140843879956
 51
16.47453365340842
  0
ARC
  8
1
 62
7
 10
-853.5200451004452
 20
286.181659092326
 30
0
 40
168
 50
62.28498240959998
 51
77.71494718941385
  0
ARC
  8
1
 62
7
 10
-853.5200451004452
 20
286.181659092326
 30
0
 40
110.0000000000001
 50
23.52414084387999
 51
36.47453365340842
  0
ARC
  8
1
 62
7
 10
-853.5200451004452
 20
286.181659092326
 30
0
 40
110
 50
83.52414084387996
 51
96.47453365340849
  0
ARC
  8
1
 62
7
 10
-853.5200451004452
 20
286.181659092326
 30
0
 40
168.0000000000001
 50
82.28498240959998
 51
97.71494718941382
  0
ARC
  8
1
 62
7
 10
-863.5200451004452
 20
204.28996232153
 30
0
 40
10
 50
83.03793730891535
 51
263.0379373089153
  0
ARC
  8
1
 62
7
 10
-843.5200451004454
 20
204.28996232153
 30
0
 40
9.999999999999988
 50
276.962062691084
 51
96.962062691084
  0
ARC
  8
1
 62
3
  6
DASHDOT
 10
-853.5200451004452
 20
286.181659092326
 30
0
 40
215.0000000000003
 50
42.73467047266436
 51
47.26532952733562
  0
ARC
  8
1
 62
3
  6
DASHDOT
 10
-853.5200451004452
 20
286.181659092326
 30
0
 40
215.0000000000002
 50
357.7346704726644
 51
2.26532952733561
  0
ARC
  8
1
 62
3
  6
DASHDOT
 10
-853.5200451004452
 20
286.181659092326
 30
0
 40
215.0000000000002
 50
312.7346704726643
 51
317.2653295273356
  0
ARC
  8
1
 62
3
  6
DASHDOT
 10
-853.5200451004452
 20
286.181659092326
 30
0
 40
215.0000000000003
 50
267.7346704726643
 51
272.2653295273356
  0
ARC
  8
1
 62
3
  6
DASHDOT
 10
-853.5200451004452
 20
286.181659092326
 30
0
 40
215.0000000000006
 50
222.7346704726642
 51
227.2653295273356
  0
ARC
  8
1
 62
3
  6
DASHDOT
 10
-853.5200451004452
 20
286.181659092326
 30
0
 40
215.0000000000008
 50
177.7346704726643
 51
182.2653295273356
  0
ARC
  8
1
 62
3
  6
DASHDOT
 10
-853.5200451004452
 20
286.181659092326
 30
0
 40
215.0000000000002
 50
132.7346704726643
 51
137.2653295273356
  0
ARC
  8
1
 62
3
  6
DASHDOT
 10
-853.5200451004452
 20
286.181659092326
 30
0
 40
215.0000000000001
 50
274.1455253510505
 51
279.209285303291
  0
ARC
  8
1
 62
3
  6
DASHDOT
 10
-853.5200451004452
 20
286.181659092326
 30
0
 40
215
 50
335.3679410100417
 51
339.6320589899582
  0
ARC
  8
1
 62
3
  6
DASHDOT
 10
-853.5200451004452
 20
286.181659092326
 30
0
 40
215.0000000000002
 50
155.3679410100417
 51
159.6320589899583
  0
ARC
  8
1
 62
3
  6
DASHDOT
 10
-853.5200451004452
 20
286.181659092326
 30
0
 40
215.0000000000001
 50
94.14552535105045
 51
99.20928530329108
  0
ARC
  8
1
 62
3
  6
DASHDOT
 10
-853.5200451004452
 20
286.181659092326
 30
0
 40
215
 50
87.73467047266435
 51
92.26532952733564
  0
ARC
  8
1
 62
7
 10
-433.282108418689
 20
222.625155540632
 30
0
 40
3
 50
0
 51
70.00000000000047
  0
ARC
  8
1
 62
7
 10
-261.0833080942246
 20
376.031659092326
 30
0
 40
3.801199675535594
 50
319.869302561129
 51
40.13069743887171
  0
ARC
  8
1
 62
7
 10
-271.1445677449654
 20
368.681659092326
 30
0
 40
13.86245932627642
 50
339.300135400558
 51
20.69986459944176
  0
ARC
  8
1
 62
7
 10
-261.0833080942247
 20
361.331659092326
 30
0
 40
3.801199675535681
 50
319.86930256113
 51
40.13069743886995
  0
ARC
  8
1
 62
7
 10
-259.4809087431533
 20
376.031659092326
 30
0
 40
3.801199675535717
 50
139.8693025611294
 51
220.1306974388699
  0
ARC
  8
1
 62
7
 10
-249.4196490924125
 20
368.681659092326
 30
0
 40
13.86245932627651
 50
159.3001354005584
 51
200.6998645994418
  0
ARC
  8
1
 62
7
 10
-259.4809087431534
 20
361.331659092326
 30
0
 40
3.801199675535594
 50
139.8693025611289
 51
220.130697438871
  0
ARC
  8
1
 62
7
 10
-433.282108418689
 20
349.73816264402
 30
0
 40
3.000000000000072
 50
289.9999999999996
 51
0
  0
ARC
  8
1
 62
7
 10
-853.5200451004452
 20
286.181659092326
 30
0
 40
42.99999999999997
 50
193.4477270445092
 51
166.5522729554908
  0
ARC
  8
1
 62
7
 10
-853.5200451004452
 20
286.181659092326
 30
0
 40
39.99999999999994
 50
194.47751218593
 51
165.5224878140701
  0
ARC
  8
1
 62
7
 10
159.4060718994772
 20
286.181659092326
 30
0
 40
69.99999999999996
 50
271.2278606850102
 51
229.2129618067364
  0
ARC
  8
1
 62
7
 10
159.4060718994772
 20
286.181659092326
 30
0
 40
70.00000000000003
 50
258.0450312918081
 51
268.7721393149898
  0
ARC
  8
1
 62
3
  6
DASHDOT
 10
159.4060718994772
 20
286.181659092326
 30
0
 40
57.5000000000001
 50
149.7171907642596
 51
165.2828092357405
  0
ARC
  8
1
 62
7
 10
159.4060718994772
 20
286.181659092326
 30
0
 40
92.5
 50
133.0985793398226
 51
226.9014206601775
  0
ARC
  8
1
 62
7
 10
159.4060718994772
 20
286.181659092326
 30
0
 40
92.5
 50
313.0985793398226
 51
46.90142066017746
  0
ARC
  8
1
 62
7
 10
159.4060718994772
 20
286.181659092326
 30
0
 40
46.41500000000005
 50
268.1480418787778
 51
271.8519581212223
  0
ARC
  8
1
 62
3
 10
159.4060718994772
 20
286.181659092326
 30
0
 40
46.41500000000005
 50
271.8519581212223
 51
268.1480418787778
  0
ARC
  8
1
 62
7
 10
159.4060718994772
 20
286.181659092326
 30
0
 40
47.50000000000004
 50
271.8096412621032
 51
268.1903587378967
  0
ARC
  8
1
 62
3
 10
159.4060718994772
 20
286.181659092326
 30
0
 40
47.50000000000004
 50
268.1903587378967
 51
271.8096412621032
  0
ARC
  8
1
 62
7
 10
159.4060718994772
 20
286.181659092326
 30
0
 40
75.99999999999997
 50
49.99999999999999
 51
130
  0
ARC
  8
1
 62
7
 10
159.4060718994772
 20
286.181659092326
 30
0
 40
76
 50
230
 51
310
  0
ARC
  8
1
 62
7
 10
159.4060718994772
 20
286.181659092326
 30
0
 40
70.99999999999996
 50
49.99999999999996
 51
129.9999999999999
  0
ARC
  8
1
 62
7
 10
159.4060718994772
 20
286.181659092326
 30
0
 40
71
 50
251.9347948440168
 51
310
  0
ARC
  8
1
 62
7
 10
159.4060718994772
 20
286.181659092326
 30
0
 40
70.99999999999999
 50
230
 51
249.8170421591179
  0
ARC
  8
1
 62
7
 10
222.6047384567929
 20
339.2116368914655
 30
0
 40
11.00000000000006
 50
13.83405907028168
 51
66.16594092971826
  0
ARC
  8
1
 62
7
 10
241.9060718994772
 20
286.181659092326
 30
0
 40
10.99999999999998
 50
333.8340590702823
 51
26.16594092971871
  0
ARC
  8
1
 62
7
 10
222.6047384567929
 20
233.1516812931865
 30
0
 40
11.00000000000002
 50
293.8340590702821
 51
346.1659409297183
  0
ARC
  8
1
 62
7
 10
96.20740534216151
 20
339.2116368914655
 30
0
 40
10.99999999999998
 50
113.8340590702816
 51
166.1659409297183
  0
ARC
  8
1
 62
7
 10
76.90607189947718
 20
286.181659092326
 30
0
 40
10.99999999999993
 50
153.8340590702815
 51
206.1659409297177
  0
ARC
  8
1
 62
7
 10
96.20740534216151
 20
233.1516812931865
 30
0
 40
10.99999999999998
 50
193.8340590702818
 51
246.1659409297178
  0
ARC
  8
1
 62
7
 10
179.4060718994772
 20
207.6896212795644
 30
0
 40
4.999999999999979
 50
102.9679851485717
 51
180
  0
ARC
  8
1
 62
7
 10
159.4060718994772
 20
286.181659092326
 30
0
 40
230.0000000000001
 50
279.2526425528499
 51
280.7473574471501
  0
ARC
  8
1
 62
7
 10
159.4060718994772
 20
286.181659092326
 30
0
 40
140
 50
278.7721393149898
 51
281.2278606850102
  0
ARC
  8
1
 62
7
 10
139.4060718994772
 20
207.6896212795644
 30
0
 40
5
 50
0
 51
77.03201485142732
  0
ARC
  8
1
 62
7
 10
159.4060718994772
 20
286.181659092326
 30
0
 40
140.0000000000001
 50
258.7721393149898
 51
261.2278606850102
  0
ARC
  8
1
 62
3
 10
159.4060718994772
 20
286.181659092326
 30
0
 40
230
 50
259.2526425528499
 51
260.7473574471501
  0
ARC
  8
1
 62
7
 10
179.4060718994772
 20
364.6736969050876
 30
0
 40
5
 50
180
 51
257.0320148514279
  0
ARC
  8
1
 62
7
 10
159.4060718994772
 20
286.181659092326
 30
0
 40
140.0000000000001
 50
78.77213931498982
 51
81.2278606850102
  0
ARC
  8
1
 62
7
 10
139.4060718994772
 20
364.6736969050876
 30
0
 40
4.999999999999859
 50
282.967985148573
 51
0
  0
ARC
  8
1
 62
7
 10
159.4060718994772
 20
286.181659092326
 30
0
 40
140.0000000000001
 50
98.77213931498982
 51
101.2278606850102
  0
ARC
  8
1
 62
7
 10
159.4060718994772
 20
286.181659092326
 30
0
 40
230
 50
79.25264255284988
 51
80.74735744715011
  0
ARC
  8
1
 62
7
 10
159.4060718994772
 20
286.181659092326
 30
0
 40
230.0000000000001
 50
99.25264255284989
 51
100.7473574471501
  0
ARC
  8
1
 62
7
 10
159.4060718994772
 20
286.181659092326
 30
0
 40
230
 50
299.2526425528499
 51
300.7473574471501
  0
ARC
  8
1
 62
7
 10
159.4060718994772
 20
286.181659092326
 30
0
 40
139.9999999999999
 50
298.7721393149898
 51
301.2278606850102
  0
ARC
  8
1
 62
7
 10
206.636260192526
 20
220.3765733177207
 30
0
 40
5.000000000000077
 50
125.668083008396
 51
209.9999999999999
  0
ARC
  8
1
 62
7
 10
192.779853731975
 20
212.3765733177208
 30
0
 40
4.999999999999992
 50
30.00000000000006
 51
114.3319169916038
  0
ARC
  8
1
 62
7
 10
206.636260192526
 20
351.9867448669313
 30
0
 40
5.000000000000017
 50
150.0000000000001
 51
234.3319169916039
  0
ARC
  8
1
 62
7
 10
192.779853731975
 20
359.9867448669312
 30
0
 40
4.999999999999996
 50
245.6680830083964
 51
330.0000000000011
  0
ARC
  8
1
 62
7
 10
159.4060718994772
 20
286.181659092326
 30
0
 40
140
 50
58.77213931498983
 51
61.22786068501016
  0
ARC
  8
1
 62
7
 10
159.4060718994772
 20
286.181659092326
 30
0
 40
229.9999999999999
 50
59.25264255284987
 51
60.74735744715009
  0
ARC
  8
1
 62
7
 10
159.4060718994772
 20
286.181659092326
 30
0
 40
139.9999999999999
 50
318.7721393149898
 51
321.2278606850102
  0
ARC
  8
1
 62
7
 10
159.4060718994772
 20
286.181659092326
 30
0
 40
230.0000000000001
 50
319.2526425528499
 51
320.7473574471501
  0
ARC
  8
1
 62
7
 10
159.4060718994772
 20
286.181659092326
 30
0
 40
230.0000000000001
 50
339.2526425528499
 51
340.7473574471501
  0
ARC
  8
1
 62
7
 10
159.4060718994772
 20
286.181659092326
 30
0
 40
139.9999999999999
 50
338.7721393149898
 51
341.2278606850102
  0
ARC
  8
1
 62
7
 10
159.4060718994772
 20
286.181659092326
 30
0
 40
139.9999999999999
 50
358.7721393149899
 51
1.227860685010176
  0
ARC
  8
1
 62
7
 10
159.4060718994772
 20
286.181659092326
 30
0
 40
139.9999999999999
 50
18.77213931498983
 51
21.22786068501015
  0
ARC
  8
1
 62
7
 10
159.4060718994772
 20
286.181659092326
 30
0
 40
230
 50
19.25264255284988
 51
20.7473574471501
  0
ARC
  8
1
 62
7
 10
159.4060718994772
 20
286.181659092326
 30
0
 40
140.0000000000002
 50
38.7721393149898
 51
41.22786068501018
  0
ARC
  8
1
 62
7
 10
159.4060718994772
 20
286.181659092326
 30
0
 40
229.9999999999999
 50
39.25264255284988
 51
40.7473574471501
  0
ARC
  8
1
 62
7
 10
159.4060718994772
 20
286.181659092326
 30
0
 40
229.9999999999999
 50
119.2526425528499
 51
120.7473574471501
  0
ARC
  8
1
 62
7
 10
159.4060718994772
 20
286.181659092326
 30
0
 40
140
 50
118.7721393149898
 51
121.2278606850101
  0
ARC
  8
1
 62
7
 10
112.1758836064284
 20
351.9867448669313
 30
0
 40
5.000000000000054
 50
305.6680830083961
 51
29.99999999999997
  0
ARC
  8
1
 62
7
 10
126.0322900669794
 20
359.9867448669312
 30
0
 40
4.999999999999948
 50
209.9999999999989
 51
294.3319169916047
  0
ARC
  8
1
 62
7
 10
159.4060718994772
 20
286.181659092326
 30
0
 40
230
 50
159.2526425528499
 51
160.7473574471501
  0
ARC
  8
1
 62
7
 10
159.4060718994772
 20
286.181659092326
 30
0
 40
139.9999999999999
 50
158.7721393149899
 51
161.2278606850102
  0
ARC
  8
1
 62
7
 10
159.4060718994772
 20
286.181659092326
 30
0
 40
140
 50
178.7721393149898
 51
181.2278606850101
  0
ARC
  8
1
 62
7
 10
159.4060718994772
 20
286.181659092326
 30
0
 40
140
 50
198.7721393149898
 51
201.2278606850102
  0
ARC
  8
1
 62
7
 10
159.4060718994772
 20
286.181659092326
 30
0
 40
229.9999999999999
 50
199.2526425528499
 51
200.7473574471501
  0
ARC
  8
1
 62
7
 10
112.1758836064284
 20
220.3765733177207
 30
0
 40
5.000000000000004
 50
330.0000000000001
 51
54.33191699160403
  0
ARC
  8
1
 62
7
 10
126.0322900669794
 20
212.3765733177208
 30
0
 40
5.000000000000012
 50
65.6680830083952
 51
150
  0
ARC
  8
1
 62
7
 10
159.4060718994772
 20
286.181659092326
 30
0
 40
140
 50
238.7721393149899
 51
241.2278606850102
  0
ARC
  8
1
 62
7
 10
159.4060718994772
 20
286.181659092326
 30
0
 40
230
 50
239.2526425528499
 51
240.7473574471501
  0
ARC
  8
1
 62
7
 10
159.4060718994772
 20
286.181659092326
 30
0
 40
140
 50
138.7721393149899
 51
141.2278606850101
  0
ARC
  8
1
 62
7
 10
159.4060718994772
 20
286.181659092326
 30
0
 40
230
 50
139.2526425528499
 51
140.7473574471501
  0
ARC
  8
1
 62
7
 10
159.4060718994772
 20
286.181659092326
 30
0
 40
139.9999999999999
 50
218.7721393149898
 51
221.2278606850102
  0
ARC
  8
1
 62
7
 10
159.4060718994772
 20
286.181659092326
 30
0
 40
230
 50
219.2526425528499
 51
220.7473574471501
  0
ARC
  8
1
 62
7
 10
159.4060718994772
 20
286.181659092326
 30
0
 40
183.5
 50
280.9367574743175
 51
299.0632425256824
  0
ARC
  8
1
 62
7
 10
159.4060718994772
 20
286.181659092326
 30
0
 40
183.5
 50
300.9367574743176
 51
319.0632425256824
  0
ARC
  8
1
 62
7
 10
159.4060718994772
 20
286.181659092326
 30
0
 40
183.5
 50
320.9367574743176
 51
339.0632425256825
  0
ARC
  8
1
 62
7
 10
159.4060718994772
 20
286.181659092326
 30
0
 40
183.5000000000001
 50
340.9367574743175
 51
19.06324252568247
  0
ARC
  8
1
 62
7
 10
159.4060718994772
 20
286.181659092326
 30
0
 40
183.4999999999999
 50
20.93675747431755
 51
39.0632425256825
  0
ARC
  8
1
 62
7
 10
159.4060718994772
 20
286.181659092326
 30
0
 40
183.4999999999999
 50
40.93675747431758
 51
59.0632425256825
  0
ARC
  8
1
 62
7
 10
159.4060718994772
 20
286.181659092326
 30
0
 40
183.5000000000001
 50
60.93675747431756
 51
79.06324252568251
  0
ARC
  8
1
 62
7
 10
159.4060718994772
 20
286.181659092326
 30
0
 40
183.5
 50
80.93675747431757
 51
99.06324252568246
  0
ARC
  8
1
 62
7
 10
159.4060718994772
 20
286.181659092326
 30
0
 40
183.5
 50
100.9367574743176
 51
119.0632425256825
  0
ARC
  8
1
 62
7
 10
159.4060718994772
 20
286.181659092326
 30
0
 40
183.5000000000001
 50
120.9367574743176
 51
139.0632425256825
  0
ARC
  8
1
 62
7
 10
159.4060718994772
 20
286.181659092326
 30
0
 40
183.5
 50
140.9367574743176
 51
159.0632425256825
  0
ARC
  8
1
 62
7
 10
159.4060718994772
 20
286.181659092326
 30
0
 40
183.5
 50
160.9367574743176
 51
199.0632425256825
  0
ARC
  8
1
 62
7
 10
159.4060718994772
 20
286.181659092326
 30
0
 40
183.5
 50
200.9367574743176
 51
219.0632425256824
  0
ARC
  8
1
 62
7
 10
159.4060718994772
 20
286.181659092326
 30
0
 40
183.4999999999999
 50
220.9367574743176
 51
239.0632425256825
  0
ARC
  8
1
 62
7
 10
159.4060718994772
 20
286.181659092326
 30
0
 40
183.4999999999999
 50
240.9367574743176
 51
259.0632425256825
  0
ARC
  8
1
 62
7
 10
159.4060718994772
 20
286.181659092326
 30
0
 40
183.4999999999999
 50
260.9367574743176
 51
279.0632425256824
  0
ARC
  8
1
 62
7
 10
96.20740534216151
 20
339.2116368914655
 30
0
 40
4.00000000000002
 50
271.4096221092715
 51
8.590377890729153
  0
ARC
  8
1
 62
7
 10
96.20740534216151
 20
339.2116368914655
 30
0
 40
4.00000000000002
 50
91.40962210927148
 51
188.5903778907275
  0
ARC
  8
1
 62
3
 10
96.20740534216151
 20
339.2116368914655
 30
0
 40
4.000000000000007
 50
188.5903778907275
 51
271.4096221092715
  0
ARC
  8
1
 62
3
 10
96.20740534216151
 20
339.2116368914655
 30
0
 40
3.999999999999996
 50
8.590377890729153
 51
91.40962210927148
  0
ARC
  8
1
 62
7
 10
76.90607189947718
 20
286.181659092326
 30
0
 40
3.999999999999878
 50
311.4096221092726
 51
48.59037789073065
  0
ARC
  8
1
 62
7
 10
76.90607189947718
 20
286.181659092326
 30
0
 40
4.000000000000134
 50
131.4096221092694
 51
228.5903778907284
  0
ARC
  8
1
 62
3
 10
76.90607189947718
 20
286.181659092326
 30
0
 40
4.000000000000044
 50
228.5903778907284
 51
311.4096221092726
  0
ARC
  8
1
 62
3
 10
76.90607189947718
 20
286.181659092326
 30
0
 40
4.000000000000134
 50
48.59037789073065
 51
131.4096221092694
  0
ARC
  8
1
 62
7
 10
96.20740534216151
 20
233.1516812931865
 30
0
 40
3.999999999999996
 50
351.4096221092709
 51
88.59037789072853
  0
ARC
  8
1
 62
7
 10
96.20740534216151
 20
233.1516812931865
 30
0
 40
4.000000000000252
 50
171.4096221092657
 51
268.5903778907268
  0
ARC
  8
1
 62
3
 10
96.20740534216151
 20
233.1516812931865
 30
0
 40
3.999999999999823
 50
268.5903778907268
 51
351.4096221092709
  0
ARC
  8
1
 62
3
 10
96.20740534216151
 20
233.1516812931865
 30
0
 40
4.00000000000002
 50
88.59037789072853
 51
171.4096221092657
  0
ARC
  8
1
 62
7
 10
222.6047384567929
 20
233.1516812931865
 30
0
 40
4.000000000000019
 50
91.40962210927108
 51
188.590377890729
  0
ARC
  8
1
 62
7
 10
222.6047384567929
 20
233.1516812931865
 30
0
 40
3.999999999999826
 50
271.4096221092744
 51
8.590377890729091
  0
ARC
  8
1
 62
3
 10
222.6047384567929
 20
233.1516812931865
 30
0
 40
4.00000000000008
 50
188.590377890729
 51
271.4096221092744
  0
ARC
  8
1
 62
3
 10
222.6047384567929
 20
233.1516812931865
 30
0
 40
4.000000000000024
 50
8.590377890729091
 51
91.40962210927108
  0
ARC
  8
1
 62
7
 10
241.9060718994772
 20
286.181659092326
 30
0
 40
4.000000000000134
 50
131.4096221092694
 51
228.5903778907274
  0
ARC
  8
1
 62
7
 10
241.9060718994772
 20
286.181659092326
 30
0
 40
4.000000000000063
 50
311.4096221092719
 51
48.59037789073065
  0
ARC
  8
1
 62
3
 10
241.9060718994772
 20
286.181659092326
 30
0
 40
3.999999999999878
 50
228.5903778907274
 51
311.4096221092719
  0
ARC
  8
1
 62
3
 10
241.9060718994772
 20
286.181659092326
 30
0
 40
4.000000000000134
 50
48.59037789073065
 51
131.4096221092694
  0
ARC
  8
1
 62
7
 10
222.6047384567929
 20
339.2116368914655
 30
0
 40
4.00000000000008
 50
171.409622109271
 51
268.5903778907289
  0
ARC
  8
1
 62
7
 10
222.6047384567929
 20
339.2116368914655
 30
0
 40
4.000000000000007
 50
351.4096221092725
 51
88.59037789072853
  0
ARC
  8
1
 62
3
 10
222.6047384567929
 20
339.2116368914655
 30
0
 40
4.000000000000019
 50
268.5903778907289
 51
351.4096221092725
  0
ARC
  8
1
 62
3
 10
222.6047384567929
 20
339.2116368914655
 30
0
 40
4.00000000000002
 50
88.59037789072853
 51
171.409622109271
  0
ARC
  8
1
 62
7
 10
-853.5200451004452
 20
286.181659092326
 30
0
 40
72.50000000000001
 50
263.0379373089156
 51
276.9620626910843
  0
ARC
  8
1
 62
7
 10
-853.5200451004452
 20
286.181659092326
 30
0
 40
92.49999999999992
 50
263.0379373089155
 51
276.9620626910843
  0
ARC
  8
1
 62
7
 10
-863.5200451004452
 20
368.0733558631221
 30
0
 40
9.999999999999888
 50
96.96206269108473
 51
276.9620626910846
  0
ARC
  8
1
 62
7
 10
-843.5200451004454
 20
368.0733558631221
 30
0
 40
10.0000000000001
 50
263.0379373089161
 51
83.03793730891593
  0
ARC
  8
1
 62
7
 10
-853.5200451004452
 20
286.181659092326
 30
0
 40
72.49999999999997
 50
83.03793730891567
 51
96.96206269108443
  0
ARC
  8
1
 62
7
 10
-853.5200451004452
 20
286.181659092326
 30
0
 40
92.49999999999994
 50
83.03793730891573
 51
96.96206269108447
  0
CIRCLE
  8
1
 62
7
 10
-853.5200451004452
 20
286.181659092326
 30
0
 40
230.0000000000001
  0
CIRCLE
  8
1
 62
7
 10
-790.3213785431295
 20
339.2116368914655
 30
0
 40
14.50000000000011
  0
CIRCLE
  8
1
 62
7
 10
-790.3213785431295
 20
339.2116368914655
 30
0
 40
9.500000000000114
  0
CIRCLE
  8
1
 62
7
 10
-771.0200451004452
 20
286.181659092326
 30
0
 40
9.500000000000114
  0
CIRCLE
  8
1
 62
7
 10
-771.0200451004452
 20
286.181659092326
 30
0
 40
14.50000000000001
  0
CIRCLE
  8
1
 62
7
 10
-790.3213785431295
 20
233.1516812931866
 30
0
 40
14.50000000000019
  0
CIRCLE
  8
1
 62
7
 10
-790.3213785431295
 20
233.1516812931866
 30
0
 40
9.500000000000256
  0
CIRCLE
  8
1
 62
7
 10
-916.7187116577609
 20
233.1516812931865
 30
0
 40
14.50000000000006
  0
CIRCLE
  8
1
 62
7
 10
-916.7187116577609
 20
233.1516812931865
 30
0
 40
9.500000000000124
  0
CIRCLE
  8
1
 62
7
 10
-936.0200451004452
 20
286.181659092326
 30
0
 40
9.500000000000114
  0
CIRCLE
  8
1
 62
7
 10
-936.0200451004452
 20
286.181659092326
 30
0
 40
14.50000000000001
  0
CIRCLE
  8
1
 62
7
 10
-916.7187116577609
 20
339.2116368914655
 30
0
 40
9.5
  0
CIRCLE
  8
1
 62
7
 10
-916.7187116577609
 20
339.2116368914655
 30
0
 40
14.5
  0
CIRCLE
  8
1
 62
7
 10
-853.5200451004452
 20
286.181659092326
 30
0
 40
60
  0
CIRCLE
  8
1
 62
7
 10
-813.1616681879686
 20
175.297929839606
 30
0
 40
4.999999999999962
  0
CIRCLE
  8
1
 62
7
 10
-751.3290474538592
 20
227.1816590923643
 30
0
 40
5.000000000000145
  0
CIRCLE
  8
1
 62
7
 10
-737.3127302450112
 20
306.672144057061
 30
0
 40
5.000000000000124
  0
CIRCLE
  8
1
 62
7
 10
-777.6711071574575
 20
376.5749033803857
 30
0
 40
5.000000000000067
  0
CIRCLE
  8
1
 62
7
 10
-853.5200451004703
 20
404.1816590923261
 30
0
 40
5.000000000000116
  0
CIRCLE
  8
1
 62
7
 10
-929.3689830434712
 20
376.5749033803534
 30
0
 40
4.999999999999971
  0
CIRCLE
  8
1
 62
7
 10
-969.727359955888
 20
306.6721440570115
 30
0
 40
5.000000000000008
  0
CIRCLE
  8
1
 62
7
 10
-955.7110427470059
 20
227.1816590923206
 30
0
 40
5.00000000000003
  0
CIRCLE
  8
1
 62
7
 10
-893.8784220128741
 20
175.2979298395889
 30
0
 40
5
  0
CIRCLE
  8
1
 62
7
 10
-916.7187116577609
 20
339.2116368914655
 30
0
 40
19.99999999999999
  0
CIRCLE
  8
1
 62
7
 10
-790.3213785431295
 20
233.1516812931866
 30
0
 40
19.99999999999999
  0
CIRCLE
  8
1
 62
7
 10
-790.3213785431295
 20
339.2116368914655
 30
0
 40
19.99999999999999
  0
CIRCLE
  8
1
 62
7
 10
-916.7187116577609
 20
233.1516812931865
 30
0
 40
20
  0
CIRCLE
  8
1
 62
7
 10
-771.0200451004452
 20
286.181659092326
 30
0
 40
20
  0
CIRCLE
  8
1
 62
7
 10
-936.0200451004452
 20
286.181659092326
 30
0
 40
20
  0
CIRCLE
  8
1
 62
7
 10
-701.4920871453373
 20
438.2096170474335
 30
0
 40
5.500000000000004
  0
CIRCLE
  8
1
 62
7
 10
-638.5200451004453
 20
286.1816590923257
 30
0
 40
5.5
  0
CIRCLE
  8
1
 62
7
 10
-701.4920871453378
 20
134.1537011372182
 30
0
 40
5.499999999999984
  0
CIRCLE
  8
1
 62
7
 10
-853.5200451004455
 20
71.18165909232607
 30
0
 40
5.5
  0
CIRCLE
  8
1
 62
7
 10
-1005.548003055553
 20
134.1537011372185
 30
0
 40
5.499999999999965
  0
CIRCLE
  8
1
 62
7
 10
-1068.520045100445
 20
286.1816590923262
 30
0
 40
5.5
  0
CIRCLE
  8
1
 62
7
 10
-1005.548003055553
 20
438.2096170474338
 30
0
 40
5.500000000000084
  0
CIRCLE
  8
1
 62
7
 10
-828.5200451004452
 20
72.64009405169975
 30
0
 40
6.5
  0
CIRCLE
  8
1
 62
3
 10
-654.8859456105183
 20
203.9047211338316
 30
0
 40
5
  0
CIRCLE
  8
1
 62
7
 10
-654.8859456105183
 20
203.9047211338316
 30
0
 40
4
  0
CIRCLE
  8
1
 62
3
 10
-1052.154144590372
 20
368.4585970508204
 30
0
 40
5
  0
CIRCLE
  8
1
 62
7
 10
-1052.154144590372
 20
368.4585970508204
 30
0
 40
4
  0
CIRCLE
  8
1
 62
7
 10
-878.5200451004452
 20
499.7232241329523
 30
0
 40
6.5
  0
CIRCLE
  8
1
 62
7
 10
-853.5200451004452
 20
501.181659092326
 30
0
 40
5.5
  0
CIRCLE
  8
1
 62
7
 10
-853.5200451004452
 20
286.181659092326
 30
0
 40
174
  0
CIRCLE
  8
1
 62
7
 10
-853.5200451004452
 20
286.181659092326
 30
0
 40
178.5
  0
CIRCLE
  8
1
 62
3
 10
-853.5200451004452
 20
286.181659092326
 30
0
 40
187.5
  0
CIRCLE
  8
1
 62
7
 10
-853.5200451004452
 20
286.181659092326
 30
0
 40
227.5000000000001
  0
CIRCLE
  8
1
 62
7
 10
-853.5200451004452
 20
286.181659092326
 30
0
 40
37.5
  0
CIRCLE
  8
1
 62
7
 10
159.4060718994772
 20
286.181659092326
 30
0
 40
232.5
  0
CIRCLE
  8
1
 62
7
 10
339.4060718994772
 20
1.181659092326015
 30
0
 40
17.5
  0
CIRCLE
  8
1
 62
7
 10
-20.59392810052282
 20
1.181659092326015
 30
0
 40
17.5
  0
CIRCLE
  8
1
 62
7
 10
159.4060718994772
 20
76.18165909232602
 30
0
 40
12.5
  0
CIRCLE
  8
1
 62
7
 10
231.2303019978676
 20
88.84620872728527
 30
0
 40
12.50000000000003
  0
CIRCLE
  8
1
 62
7
 10
294.3914699336503
 20
125.3123260373407
 30
0
 40
12.50000000000005
  0
CIRCLE
  8
1
 62
7
 10
341.2714066942092
 20
181.181659092326
 30
0
 40
12.50000000000002
  0
CIRCLE
  8
1
 62
7
 10
366.2157000320408
 20
249.7155417822707
 30
0
 40
12.50000000000002
  0
CIRCLE
  8
1
 62
7
 10
366.2157000320407
 20
322.6477764023814
 30
0
 40
12.50000000000002
  0
CIRCLE
  8
1
 62
7
 10
341.2714066942091
 20
391.181659092326
 30
0
 40
12.49999999999989
  0
CIRCLE
  8
1
 62
7
 10
294.3914699336503
 20
447.0509921473113
 30
0
 40
12.49999999999994
  0
CIRCLE
  8
1
 62
7
 10
231.2303019978675
 20
483.5171094573666
 30
0
 40
12.49999999999996
  0
CIRCLE
  8
1
 62
7
 10
159.4060718994771
 20
496.1816590923257
 30
0
 40
12.5
  0
CIRCLE
  8
1
 62
7
 10
87.5818418010868
 20
483.5171094573664
 30
0
 40
12.50000000000005
  0
CIRCLE
  8
1
 62
7
 10
24.42067386530408
 20
447.050992147311
 30
0
 40
12.49999999999994
  0
CIRCLE
  8
1
 62
7
 10
-22.4592628952546
 20
391.1816590923257
 30
0
 40
12.49999999999989
  0
CIRCLE
  8
1
 62
7
 10
-47.40355623308608
 20
322.6477764023812
 30
0
 40
12.50000000000004
  0
CIRCLE
  8
1
 62
7
 10
-47.40355623308608
 20
249.7155417822706
 30
0
 40
12.49999999999999
  0
CIRCLE
  8
1
 62
7
 10
-22.45926289525448
 20
181.1816590923261
 30
0
 40
12.50000000000002
  0
CIRCLE
  8
1
 62
7
 10
24.42067386530442
 20
125.3123260373408
 30
0
 40
12.49999999999997
  0
CIRCLE
  8
1
 62
7
 10
87.58184180108708
 20
88.84620872728561
 30
0
 40
12.49999999999995
  0
CIRCLE
  8
1
 62
7
 10
212.5291450188762
 20
308.1859564533186
 30
0
 40
4.250000000000015
  0
CIRCLE
  8
1
 62
7
 10
181.4103692604699
 20
339.304732211725
 30
0
 40
4.249999999999825
  0
CIRCLE
  8
1
 62
7
 10
137.4017745384846
 20
339.3047322117249
 30
0
 40
4.249999999999995
  0
CIRCLE
  8
1
 62
7
 10
106.2829987800783
 20
308.1859564533186
 30
0
 40
4.25000000000007
  0
CIRCLE
  8
1
 62
7
 10
106.2829987800783
 20
264.1773617313333
 30
0
 40
4.250000000000008
  0
CIRCLE
  8
1
 62
7
 10
212.5291450188762
 20
264.1773617313333
 30
0
 40
4.250000000000008
  0
CIRCLE
  8
1
 62
7
 10
96.20740534216151
 20
339.2116368914655
 30
0
 40
8.5
  0
CIRCLE
  8
1
 62
7
 10
96.20740534216151
 20
339.2116368914655
 30
0
 40
5
  0
CIRCLE
  8
1
 62
7
 10
96.20740534216151
 20
233.1516812931865
 30
0
 40
8.5
  0
CIRCLE
  8
1
 62
7
 10
96.20740534216151
 20
233.1516812931865
 30
0
 40
5
  0
CIRCLE
  8
1
 62
7
 10
76.90607189947718
 20
286.181659092326
 30
0
 40
8.499999999999996
  0
CIRCLE
  8
1
 62
7
 10
76.90607189947718
 20
286.181659092326
 30
0
 40
5.000000000000002
  0
CIRCLE
  8
1
 62
7
 10
222.6047384567929
 20
233.1516812931865
 30
0
 40
8.5
  0
CIRCLE
  8
1
 62
7
 10
222.6047384567929
 20
233.1516812931865
 30
0
 40
5
  0
CIRCLE
  8
1
 62
7
 10
241.9060718994772
 20
286.181659092326
 30
0
 40
8.499999999999952
  0
CIRCLE
  8
1
 62
7
 10
241.9060718994772
 20
286.181659092326
 30
0
 40
4.999999999999958
  0
CIRCLE
  8
1
 62
7
 10
222.6047384567929
 20
339.2116368914655
 30
0
 40
8.5
  0
CIRCLE
  8
1
 62
7
 10
222.6047384567929
 20
339.2116368914655
 30
0
 40
5
  0
CIRCLE
  8
1
 62
7
 10
159.4060718994772
 20
286.181659092326
 30
0
 40
37.5
  0
CIRCLE
  8
1
 62
7
 10
218.5755566948179
 20
448.7484824882882
 30
0
 40
4.863999999999805
  0
CIRCLE
  8
1
 62
3
 10
218.5755566948179
 20
448.7484824882882
 30
0
 40
4.282999999999902
  0
CIRCLE
  8
1
 62
3
  6
DASHED
 10
-343.282108418689
 20
286.181659092326
 30
0
 40
11
  0
CIRCLE
  8
1
 62
7
 10
-673.5200451004452
 20
1.181659092326015
 30
0
 40
17.5
  0
CIRCLE
  8
1
 62
7
 10
-1033.520045100445
 20
1.181659092326015
 30
0
 40
17.5
  0
CIRCLE
  8
1
 62
7
 10
-853.5200451004452
 20
286.181659092326
 30
0
 40
232.5
  0
ARC
  8
1
 62
7
 10
-894.3768314787351
 20
338.0152679464159
 30
0
 40
5.999999999999988
 50
308.2462258330609
 51
29.46093030248862
  0
ARC
  8
1
 62
7
 10
-877.9855564470024
 20
347.479609747723
 30
0
 40
6.000000000000004
 50
210.5362906409175
 51
291.7581508760144
  0
ARC
  8
1
 62
7
 10
-829.0545337538879
 20
347.479609747723
 30
0
 40
6.000000000000023
 50
248.2418491239856
 51
329.4637093590825
  0
ARC
  8
1
 62
7
 10
-812.6632587221552
 20
338.015267946416
 30
0
 40
6.000000000000022
 50
150.5390696975109
 51
231.7537741669388
  0
ARC
  8
1
 62
7
 10
-795.3791987344181
 20
317.4169273614164
 30
0
 40
5.999999999999936
 50
208.2462258330617
 51
289.4609303024891
  0
ARC
  8
1
 62
7
 10
-788.9049565902311
 20
299.6312069217967
 30
0
 40
5.99999999999999
 50
110.5362906409177
 51
191.7581508760148
  0
ARC
  8
1
 62
7
 10
-788.9039293949096
 20
272.7370471184222
 30
0
 40
5.999999999999959
 50
168.2462258330606
 51
249.4609303024893
  0
ARC
  8
1
 62
7
 10
-795.3768129048846
 20
254.9508321763903
 30
0
 40
5.999999999999996
 50
70.53629064091692
 51
151.7581508760139
  0
ARC
  8
1
 62
7
 10
-812.6632587221552
 20
234.3480502382361
 30
0
 40
5.999999999999965
 50
128.246225833061
 51
209.4609303024889
  0
ARC
  8
1
 62
7
 10
-829.0545337538879
 20
224.883708436929
 30
0
 40
6.000000000000018
 50
30.53629064091774
 51
111.7581508760142
  0
ARC
  8
1
 62
7
 10
-877.9855564470024
 20
224.883708436929
 30
0
 40
6.000000000000076
 50
68.24184912398582
 51
149.4637093590823
  0
ARC
  8
1
 62
7
 10
-894.3768314787351
 20
234.348050238236
 30
0
 40
6.000000000000007
 50
330.5390696975111
 51
51.75377416693963
  0
ARC
  8
1
 62
7
 10
-911.6632772960057
 20
254.9508321763903
 30
0
 40
5.999999999999964
 50
28.2418491239856
 51
109.4637093590831
  0
ARC
  8
1
 62
7
 10
-918.1361608059807
 20
272.7370471184223
 30
0
 40
6.000000000000048
 50
290.5390696975102
 51
11.7537741669383
  0
ARC
  8
1
 62
7
 10
-918.1351336106591
 20
299.6312069217967
 30
0
 40
5.999999999999985
 50
348.2418491239861
 51
69.46370935908232
  0
ARC
  8
1
 62
7
 10
-911.6608914664722
 20
317.4169273614163
 30
0
 40
6.000000000000015
 50
250.5390696975109
 51
331.7537741669398
  0
ARC
  8
1
 62
7
 10
-945.7524805714137
 20
327.3420508190047
 30
0
 40
3.99999999999991
 50
155.950318477015
 51
250.5390696975101
  0
ARC
  8
1
 62
7
 10
-910.0711123312142
 20
369.8654496079392
 30
0
 40
3.999999999999991
 50
29.4609303024896
 51
124.049681522986
  0
ARC
  8
1
 62
7
 10
-897.719743394524
 20
376.9967826715647
 30
0
 40
4.000000000000143
 50
115.9521754941717
 51
210.5362906409179
  0
ARC
  8
1
 62
7
 10
-809.3203468063663
 20
376.9967826715647
 30
0
 40
4.000000000000064
 50
329.4637093590821
 51
64.0478245058283
  0
ARC
  8
1
 62
7
 10
-796.9689778696761
 20
369.8654496079392
 30
0
 40
3.999999999999965
 50
55.95031847701446
 51
150.5390696975118
  0
ARC
  8
1
 62
7
 10
-761.2876096294767
 20
327.3420508190047
 30
0
 40
4.000000000000076
 50
289.4609303024893
 51
24.04968152298506
  0
ARC
  8
1
 62
7
 10
-756.4094102466543
 20
313.9399839390036
 30
0
 40
4.000000000000135
 50
15.95217549417268
 51
110.5362906409174
  0
ARC
  8
1
 62
7
 10
-756.4085106208266
 20
258.4264817191968
 30
0
 40
3.999999999999934
 50
249.4609303024881
 51
344.0496815229877
  0
ARC
  8
1
 62
7
 10
-761.286275625844
 20
245.0242567386042
 30
0
 40
3.999999999999957
 50
335.9521754941707
 51
70.53629064091678
  0
ARC
  8
1
 62
7
 10
-796.9689778696761
 20
202.4978685767128
 30
0
 40
3.999999999999977
 50
209.4609303024893
 51
304.0496815229862
  0
ARC
  8
1
 62
7
 10
-809.3203468063663
 20
195.3665355130873
 30
0
 40
3.999999999999991
 50
295.9521754941709
 51
30.53629064091759
  0
ARC
  8
1
 62
7
 10
-897.719743394524
 20
195.3665355130873
 30
0
 40
4.000000000000049
 50
149.4637093590824
 51
244.047824505829
  0
ARC
  8
1
 62
7
 10
-910.0711123312142
 20
202.4978685767129
 30
0
 40
4.000000000000036
 50
235.9503184770151
 51
330.5390696975105
  0
ARC
  8
1
 62
7
 10
-945.7538145750463
 20
245.0242567386042
 30
0
 40
3.99999999999997
 50
109.4637093590832
 51
204.0478245058282
  0
ARC
  8
1
 62
7
 10
-950.6315795800637
 20
258.4264817191968
 30
0
 40
3.999999999999969
 50
195.9503184770123
 51
290.5390696975119
  0
ARC
  8
1
 62
7
 10
-950.630679954236
 20
313.9399839390036
 30
0
 40
3.99999999999994
 50
69.46370935908203
 51
164.0478245058284
  0
ARC
  8
1
 62
7
 10
-904.3436053984372
 20
184.1377189555572
 30
0
 40
3.999999999999969
 50
63.52414084387997
 51
149.4637093590835
  0
ARC
  8
1
 62
7
 10
-880.1820837020941
 20
175.3433277371299
 30
0
 40
3.999999999999955
 50
350.5390696975161
 51
76.47453365340856
  0
ARC
  8
1
 62
7
 10
-826.8605706827343
 20
175.3427109568829
 30
0
 40
4.000000000000051
 50
103.5241408438792
 51
189.4637093590825
  0
ARC
  8
1
 62
7
 10
-802.6988455400109
 20
184.1365432109741
 30
0
 40
3.999999999999986
 50
30.53906969751732
 51
116.4745336534087
  0
ARC
  8
1
 62
7
 10
-790.5591807887408
 20
191.1451946951107
 30
0
 40
4.000000000000041
 50
123.5241408438803
 51
209.4637093590827
  0
ARC
  8
1
 62
7
 10
-770.8622537345926
 20
207.6724906690188
 30
0
 40
4.000000000000009
 50
50.53906969751785
 51
136.4745336534085
  0
ARC
  8
1
 62
7
 10
-761.8518003341334
 20
218.4104786284771
 30
0
 40
4.000000000000045
 50
143.5241408438799
 51
229.463709359083
  0
ARC
  8
1
 62
7
 10
-748.9954114669738
 20
240.6778025108384
 30
0
 40
4.000000000000005
 50
70.53906969751721
 51
156.4745336534091
  0
ARC
  8
1
 62
7
 10
-744.2009630775501
 20
253.8499671218835
 30
0
 40
3.999999999999993
 50
163.5241408438804
 51
249.4637093590826
  0
ARC
  8
1
 62
7
 10
-739.7357826348505
 20
279.1715510217846
 30
0
 40
4.000000000000012
 50
90.53906969751722
 51
176.4745336534082
  0
ARC
  8
1
 62
7
 10
-739.7356204907492
 20
293.1891348318793
 30
0
 40
4.00000000000003
 50
183.5241408438801
 51
269.4637093590828
  0
ARC
  8
1
 62
7
 10
-744.2002151329438
 20
318.5108220242147
 30
0
 40
4.000000000000001
 50
110.5390696975168
 51
196.4745336534091
  0
ARC
  8
1
 62
7
 10
-748.9943587911366
 20
331.6830975483575
 30
0
 40
3.999999999999883
 50
203.5241408438805
 51
289.4637093590825
  0
ARC
  8
1
 62
7
 10
-761.8502325139773
 20
353.9507188494296
 30
0
 40
3.99999999999999
 50
130.5390696975168
 51
216.4745336534079
  0
ARC
  8
1
 62
7
 10
-840.6652240534415
 20
172.9087427537347
 30
0
 40
3.999999999999969
 50
10.53906969751681
 51
96.47453365340822
  0
ARC
  8
1
 62
7
 10
-866.3774866434421
 20
172.9090401724458
 30
0
 40
3.999999999999985
 50
83.52414084388056
 51
169.4637093590829
  0
ARC
  8
1
 62
7
 10
-916.4831080056057
 20
191.1466512815157
 30
0
 40
3.999999999999979
 50
330.5390696975173
 51
56.47453365340796
  0
ARC
  8
1
 62
7
 10
-936.1796527056292
 20
207.6744029273257
 30
0
 40
4.000000000000034
 50
43.52414084387964
 51
129.4637093590819
  0
ARC
  8
1
 62
7
 10
-945.1898576869128
 20
218.4125993352224
 30
0
 40
4.000000000000011
 50
310.5390696975165
 51
36.47453365340883
  0
ARC
  8
1
 62
7
 10
-958.0457314097537
 20
240.6802206362948
 30
0
 40
3.999999999999987
 50
23.52414084387985
 51
109.4637093590831
  0
ARC
  8
1
 62
7
 10
-962.8398750679463
 20
253.8524961604374
 30
0
 40
4.000000000000001
 50
290.5390696975168
 51
16.47453365340758
  0
ARC
  8
1
 62
7
 10
-967.304469710141
 20
279.174183352773
 30
0
 40
4.000000000000027
 50
3.524140843879265
 51
89.46370935908276
  0
ARC
  8
1
 62
7
 10
-967.3043075660397
 20
293.1917671628674
 30
0
 40
4.000000000000012
 50
270.5390696975173
 51
356.4745336534091
  0
ARC
  8
1
 62
7
 10
-962.8391271233398
 20
318.5133510627687
 30
0
 40
3.999999999999993
 50
343.5241408438804
 51
69.46370935908232
  0
ARC
  8
1
 62
7
 10
-958.0446787339163
 20
331.6855156738137
 30
0
 40
4.000000000000033
 50
250.5390696975173
 51
336.4745336534073
  0
ARC
  8
1
 62
7
 10
-945.1882898667567
 20
353.9528395561748
 30
0
 40
3.999999999999903
 50
323.5241408438799
 51
49.46370935908277
  0
ARC
  8
1
 62
7
 10
-723.7855536438689
 20
386.5059419280559
 30
0
 40
4.00000000000006
 50
37.71494718941458
 51
130.5390696975168
  0
ARC
  8
1
 62
7
 10
-701.7693454039136
 20
348.3726965624718
 30
0
 40
3.999999999999943
 50
289.4637093590833
 51
22.28498240960063
  0
ARC
  8
1
 62
7
 10
-697.2965752227667
 20
336.0838379964389
 30
0
 40
4.000000000000035
 50
17.71494718941447
 51
110.5390696975168
  0
ARC
  8
1
 62
7
 10
-689.6504448474047
 20
292.7203220220637
 30
0
 40
4.000000000000028
 50
269.4637093590828
 51
2.284982409598767
  0
ARC
  8
1
 62
7
 10
-689.6504528817733
 20
279.6427948112623
 30
0
 40
3.99999999999999
 50
357.7149471894138
 51
90.53906969751722
  0
ARC
  8
1
 62
7
 10
-697.2966365391393
 20
236.279288231942
 30
0
 40
4.00000000000002
 50
249.4637093590825
 51
342.2849824096005
  0
ARC
  8
1
 62
7
 10
-701.7694218199598
 20
223.9904351617409
 30
0
 40
4.000000000000032
 50
337.7149471894136
 51
70.53906969751721
  0
ARC
  8
1
 62
7
 10
-723.7856769153232
 20
185.8572168481391
 30
0
 40
3.999999999999985
 50
229.463709359083
 51
322.2849824095994
  0
ARC
  8
1
 62
7
 10
-732.1917555264482
 20
175.83925496296
 30
0
 40
4.000000000000012
 50
317.7149471894142
 51
50.53906969751785
  0
ARC
  8
1
 62
7
 10
-765.9225967699883
 20
147.535753830061
 30
0
 40
4.000000000000032
 50
209.4637093590827
 51
302.2849824096008
  0
ARC
  8
1
 62
7
 10
-777.248071570409
 20
140.9969971826275
 30
0
 40
4.000000000000029
 50
297.7149471894144
 51
30.53906969751732
  0
ARC
  8
1
 62
7
 10
-818.6250616939572
 20
125.9370331822478
 30
0
 40
4.000000000000012
 50
189.4637093590837
 51
282.2849824096004
  0
ARC
  8
1
 62
7
 10
-831.5039132765359
 20
123.6661523260108
 30
0
 40
3.999999999999993
 50
277.7149471894139
 51
10.539069697517
  0
ARC
  8
1
 62
7
 10
-875.5363766118546
 20
123.6661793779933
 30
0
 40
3.999999999999992
 50
169.4637093590831
 51
262.2849824096008
  0
ARC
  8
1
 62
7
 10
-888.4152254041267
 20
125.937076058847
 30
0
 40
3.999999999999999
 50
257.7149471894139
 51
350.5390696975176
  0
ARC
  8
1
 62
7
 10
-929.7921970230287
 20
140.9970909003232
 30
0
 40
4.000000000000064
 50
149.4637093590821
 51
242.2849824096002
  0
ARC
  8
1
 62
7
 10
-941.1176637890808
 20
147.5358614636912
 30
0
 40
4.000000000000107
 50
237.7149471894139
 51
330.5390696975173
  0
ARC
  8
1
 62
7
 10
-974.8484702552628
 20
175.8394040426317
 30
0
 40
4.000000000000011
 50
129.4637093590822
 51
222.2849824096002
  0
ARC
  8
1
 62
7
 10
-983.2545365570213
 20
185.8573762565959
 30
0
 40
3.9999999999999
 50
217.7149471894143
 51
310.5390696975168
  0
ARC
  8
1
 62
7
 10
-1005.270744796977
 20
223.99062162218
 30
0
 40
3.99999999999977
 50
109.4637093590739
 51
202.2849824096
  0
ARC
  8
1
 62
7
 10
-1009.743514978124
 20
236.2794801882131
 30
0
 40
4.000000000000035
 50
197.7149471894145
 51
290.5390696975184
  0
ARC
  8
1
 62
7
 10
-1017.389645353486
 20
279.6429961625883
 30
0
 40
3.999999999999976
 50
89.46370935907461
 51
182.2849824096011
  0
ARC
  8
1
 62
7
 10
-1017.389637319117
 20
292.7205233733898
 30
0
 40
4.00000000000033
 50
177.714947189414
 51
270.5390696975222
  0
ARC
  8
1
 62
7
 10
-1009.743453661751
 20
336.08402995271
 30
0
 40
3.999999999999834
 50
69.46370935908841
 51
162.2849824096025
  0
ARC
  8
1
 62
7
 10
-1005.270668380931
 20
348.3728830229113
 30
0
 40
3.999999999999789
 50
157.7149471894135
 51
250.5390696975265
  0
ARC
  8
1
 62
7
 10
-983.2544132855671
 20
386.5061013365131
 30
0
 40
3.999999999999964
 50
49.46370935908277
 51
142.2849824096003
  0
ARC
  8
1
 62
7
 10
-916.4809094121495
 20
381.2181234895413
 30
0
 40
4.000000000000017
 50
303.5241408438806
 51
29.46370935908267
  0
ARC
  8
1
 62
7
 10
-936.1778364662978
 20
364.6908275156331
 30
0
 40
3.999999999999921
 50
230.5390696975168
 51
316.4745336534085
  0
ARC
  8
1
 62
7
 10
-974.8483346744421
 20
396.5240632216921
 30
0
 40
4.000000000000012
 50
137.7149471894142
 51
230.5390696975179
  0
ARC
  8
1
 62
7
 10
-941.1174934309017
 20
424.827564354591
 30
0
 40
4.000000000000032
 50
29.46370935908267
 51
122.2849824096002
  0
ARC
  8
1
 62
7
 10
-888.4150285069331
 20
446.4262850024042
 30
0
 40
3.999999999999993
 50
9.463709359082033
 51
102.2849824096
  0
ARC
  8
1
 62
7
 10
-929.7920186304813
 20
431.3663210020246
 30
0
 40
3.999999999999977
 50
117.714947189413
 51
210.5390696975174
  0
ARC
  8
1
 62
7
 10
-904.3412446608794
 20
388.2267749736778
 30
0
 40
3.999999999999986
 50
210.5390696975174
 51
296.4745336534087
  0
ARC
  8
1
 62
7
 10
-880.1795195181562
 20
397.020607227769
 30
0
 40
3.999999999999968
 50
283.5241408438795
 51
9.463709359082033
  0
ARC
  8
1
 62
7
 10
-732.1916199456273
 20
396.5239141420202
 30
0
 40
4.000000000000054
 50
309.4637093590816
 51
42.2849824096002
  0
ARC
  8
1
 62
7
 10
-770.8604374952612
 20
364.6889152573265
 30
0
 40
3.999999999999951
 50
223.5241408438808
 51
309.4637093590816
  0
ARC
  8
1
 62
7
 10
-790.5569821952846
 20
381.2166669031365
 30
0
 40
3.999999999999993
 50
150.539069697517
 51
236.474533653408
  0
ARC
  8
1
 62
7
 10
-765.9224264118093
 20
424.8274567209608
 30
0
 40
4.000000000000034
 50
57.71494718941325
 51
150.539069697517
  0
ARC
  8
1
 62
7
 10
-777.2478931778613
 20
431.3662272843288
 30
0
 40
4.000000000000035
 50
329.4637093590827
 51
62.28498240960057
  0
ARC
  8
1
 62
7
 10
-802.6964848024535
 20
388.2255992290946
 30
0
 40
3.999999999999994
 50
243.5241408438801
 51
329.4637093590835
  0
ARC
  8
1
 62
7
 10
-826.8580064987964
 20
397.0199904475218
 30
0
 40
3.999999999999931
 50
170.5390696975182
 51
256.4745336534086
  0
ARC
  8
1
 62
7
 10
-818.6248647967636
 20
446.4262421258051
 30
0
 40
3.999999999999874
 50
77.71494718941354
 51
170.5390696975182
  0
ARC
  8
1
 62
7
 10
-831.5037135890354
 20
448.6971388066588
 30
0
 40
3.999999999999989
 50
349.4637093590832
 51
82.28498240960084
  0
ARC
  8
1
 62
7
 10
-840.6626035574483
 20
399.4542780122063
 30
0
 40
3.999999999999985
 50
263.5241408438806
 51
349.4637093590825
  0
ARC
  8
1
 62
7
 10
-866.3748661474488
 20
399.4545754309174
 30
0
 40
3.999999999999969
 50
190.5390696975168
 51
276.4745336534081
  0
ARC
  8
1
 62
7
 10
-875.5361769243543
 20
448.6971658586413
 30
0
 40
3.999999999999908
 50
97.71494718941412
 51
190.5390696975176
  0
ARC
  8
1
 62
7
 10
-368.2821084186889
 20
476.6505602080453
 30
0
 40
3
 50
0
 51
68.19859051364819
  0
ARC
  8
1
 62
7
 10
-387.2821084186889
 20
490.7127579766067
 30
0
 40
3
 50
180
 51
248.1985905136466
  0
ARC
  8
1
 62
7
 10
-368.2821084186889
 20
95.71275797660672
 30
0
 40
2.99999999999998
 50
291.8014094863512
 51
0
  0
ARC
  8
1
 62
7
 10
-387.2821084186889
 20
81.65056020804531
 30
0
 40
3.000000000000022
 50
111.8014094863532
 51
180
  0
ARC
  8
1
 62
7
 10
-358.3133417962571
 20
461.681659092326
 30
0
 40
1.5
 50
270
 51
353.1773997361445
  0
ARC
  8
1
 62
7
 10
-358.3133417962571
 20
110.681659092326
 30
0
 40
1.500000000000024
 50
6.822600263859274
 51
90
  0
ARC
  8
1
 62
7
 10
-347.6196416635528
 20
59.18165909232596
 30
0
 40
2.999999999999981
 50
186.8226002638578
 51
270
  0
ARC
  8
1
 62
7
 10
-347.6196416635528
 20
513.1816590923261
 30
0
 40
3
 50
90
 51
173.1773997361422
  0
ARC
  8
1
 62
7
 10
-310.0326272642132
 20
58.68165909232596
 30
0
 40
2.5
 50
270
 51
339.9999999999988
  0
ARC
  8
1
 62
7
 10
-310.0326272642132
 20
513.6816590923261
 30
0
 40
2.499999999999937
 50
20.00000000000126
 51
90
  0
ARC
  8
1
 62
7
 10
15.90607189947718
 20
-35.31834090767398
 30
0
 40
16
 50
270
 51
0
  0
ARC
  8
1
 62
7
 10
-57.09392810052282
 20
-35.31834090767398
 30
0
 40
16
 50
180
 51
270
  0
ARC
  8
1
 62
7
 10
302.9060718994772
 20
-35.31834090767398
 30
0
 40
16
 50
180
 51
270
  0
ARC
  8
1
 62
7
 10
375.9060718994772
 20
-35.31834090767398
 30
0
 40
16
 50
270
 51
0
  0
ARC
  8
1
 62
7
 10
66.90607189947718
 20
-1.318340907673985
 30
0
 40
35.00000000000001
 50
90
 51
180
  0
ARC
  8
1
 62
7
 10
251.9060718994772
 20
-1.318340907673985
 30
0
 40
34.99999999999997
 50
0
 51
90
  0
ARC
  8
1
 62
7
 10
177.4060718994772
 20
181.181659092326
 30
0
 40
3
 50
180
 51
270
  0
ARC
  8
1
 62
7
 10
178.1392671269396
 20
174.181659092326
 30
0
 40
3.999999999999988
 50
9.99999999999981
 51
90
  0
ARC
  8
1
 62
7
 10
173.4573233012928
 20
166.181659092326
 30
0
 40
4.00000000000007
 50
9.999999999999597
 51
90
  0
ARC
  8
1
 62
7
 10
145.3548204976617
 20
166.181659092326
 30
0
 40
4
 50
90
 51
170.0000000000004
  0
ARC
  8
1
 62
7
 10
141.4060718994772
 20
181.181659092326
 30
0
 40
3
 50
270
 51
0
  0
ARC
  8
1
 62
7
 10
140.6728766720149
 20
174.181659092326
 30
0
 40
4
 50
90
 51
170.0000000000004
  0
ARC
  8
1
 62
7
 10
177.4060718994772
 20
391.181659092326
 30
0
 40
3
 50
90
 51
180
  0
ARC
  8
1
 62
7
 10
178.1392671269396
 20
398.181659092326
 30
0
 40
4
 50
270
 51
349.9999999999998
  0
ARC
  8
1
 62
7
 10
173.4573233012928
 20
406.181659092326
 30
0
 40
4
 50
270
 51
350.0000000000001
  0
ARC
  8
1
 62
7
 10
145.3548204976617
 20
406.181659092326
 30
0
 40
4.000000000000076
 50
190
 51
270
  0
ARC
  8
1
 62
7
 10
141.4060718994772
 20
391.181659092326
 30
0
 40
3
 50
0
 51
90
  0
ARC
  8
1
 62
7
 10
140.6728766720149
 20
398.181659092326
 30
0
 40
4.000000000000076
 50
190
 51
270
  0
ARC
  8
1
 62
7
 10
-997.020045100445
 20
-35.31834090767398
 30
0
 40
16
 50
270
 51
0
  0
ARC
  8
1
 62
7
 10
-1070.020045100445
 20
-35.31834090767398
 30
0
 40
16
 50
180
 51
270
  0
ARC
  8
1
 62
7
 10
-710.0200451004452
 20
-35.31834090767398
 30
0
 40
16
 50
180
 51
270
  0
ARC
  8
1
 62
7
 10
-637.0200451004452
 20
-35.31834090767398
 30
0
 40
16
 50
270
 51
0
  0
ARC
  8
1
 62
7
 10
-946.020045100445
 20
-1.318340907673985
 30
0
 40
35.00000000000001
 50
90
 51
180
  0
ARC
  8
1
 62
7
 10
-761.0200451004452
 20
-1.318340907673985
 30
0
 40
35
 50
0
 51
90
  0
TEXT
  8
1
 62
7
 10
-1028.617621124115
 20
606.62699039589
 30
0
 40
20
  1
ACSB 280
 41
0.9
  7
SIMPLEX
 72
1
 11
-956.617621124115
 21
606.62699039589
 31
0
  0
ENDSEC
  0
EOF
