  0
SECTION
  2
HEADER
  9
$ACADVER
  1
AC1009
  9
$INSBASE
 10
0
 20
0
  9
$EXTMIN
 10
-550.7695011411711
 20
24.05405405405403
  9
$EXTMAX
 10
327.115098003515
 20
408.837667022238
  9
$LIMMIN
 10
-550.7695011411711
 20
24.05405405405403
  9
$LIMMAX
 10
327.115098003515
 20
408.837667022238
  9
$VIEWCTR
 10
10
 20
10
  9
$VIEWSIZE
 40
10
  9
$SNAPMODE
 70
0
  9
$SNAPUNIT
 10
1
 20
1
  9
$SNAPBASE
 10
0
 20
0
  9
$SNAPANG
 50
0
  9
$SNAPSTYLE
 70
0
  9
$SNAPISOPAIR
 70
0
  9
$GRIDMODE
 70
0
  9
$GRIDUNIT
 10
0
 20
0
  9
$ORTHOMODE
 70
0
  9
$REGENMODE
 70
1
  9
$FILLMODE
 70
1
  9
$QTEXTMODE
 70
0
  9
$DRAGMODE
 70
2
  9
$LTSCALE
 40
1
  9
$OSMODE
 70
0
  9
$ATTMODE
 70
1
  9
$TEXTSIZE
 40
3.5
  9
$TRACEWID
 40
0.5
  9
$TEXTSTYLE
  7
STANDARD
  9
$CLAYER
  8
0
  9
$CELTYPE
  6
BYLAYER
  9
$CECOLOR
 62
256
  9
$DIMSCALE
 40
1
  9
$DIMASZ
 40
0.18
  9
$DIMEXO
 40
0.0625
  9
$DIMDLI
 40
0.38
  9
$DIMRND
 40
0
  9
$DIMDLE
 40
0
  9
$DIMEXE
 40
0.18
  9
$DIMTP
 40
0
  9
$DIMTM
 40
0
  9
$DIMTXT
 40
0.18
  9
$DIMCEN
 40
0.09
  9
$DIMTSZ
 40
0
  9
$DIMTOL
 70
0
  9
$DIMLIM
 70
0
  9
$DIMTIH
 70
1
  9
$DIMTOH
 70
1
  9
$DIMSE1
 70
0
  9
$DIMSE2
 70
0
  9
$DIMTAD
 70
0
  9
$DIMZIN
 70
0
  9
$DIMBLK
  1

  9
$DIMASO
 70
1
  9
$DIMSHO
 70
1
  9
$DIMPOST
  1

  9
$DIMAPOST
  1

  9
$DIMALT
 70
0
  9
$DIMALTD
 70
2
  9
$DIMALTF
 40
25.4
  9
$DIMLFAC
 40
1
  9
$DIMTOFL
 70
0
  9
$DIMTVP
 40
0
  9
$DIMTIX
 70
0
  9
$DIMSOXD
 70
0
  9
$DIMSAH
 70
0
  9
$DIMBLK1
  1

  9
$DIMBLK2
  1

  9
$DIMSTYLE
  2
*UNNAMED
  9
$DIMCLRD
 70
0
  9
$DIMCLRE
 70
0
  9
$DIMCLRT
 70
0
  9
$DIMTFAC
 40
1
  9
$DIMGAP
 40
0.09
  9
$LUNITS
 70
2
  9
$LUPREC
 70
4
  9
$AXISMODE
 70
0
  9
$AXISUNIT
 10
0
 20
0
  9
$SKETCHINC
 40
0.1
  9
$FILLETRAD
 40
2
  9
$AUNITS
 70
0
  9
$AUPREC
 70
0
  9
$MENU
  1
ACAD
  9
$ELEVATION
 40
0
  9
$THICKNESS
 40
0
  9
$VIEWDIR
 10
0
 20
0
 30
1
  9
$LIMCHECK
 70
0
  9
$BLIPMODE
 70
1
  9
$CHAMFERA
 40
0
  9
$CHAMFERB
 40
0
  9
$FASTZOOM
 70
1
  9
$SKPOLY
 70
0
  9
$ANGBASE
 50
0
  9
$ANGDIR
 70
0
  9
$PDMODE
 70
0
  9
$PDSIZE
 40
0
  9
$PLINEWID
 40
0
  9
$COORDS
 70
2
  0
ENDSEC
  0
SECTION
  2
TABLES
  0
TABLE
  2
DIMSTYLE
 70
0
  0
ENDTAB
  0
TABLE
  2
LTYPE
 70
9
  0
LTYPE
  2
CONTINUOUS
 70
64
  3
Solid line
 72
65
 73
0
 40
0
  0
LTYPE
  2
BORDER
 70
64
  3
__ __ . __ __ .
 72
65
 73
6
 40
40.42889601324212
 49
11.55111314664061
 49
-5.775556573320303
 49
11.55111314664061
 49
-5.775556573320303
 49
0
 49
-5.775556573320303
  0
LTYPE
  2
CENTER
 70
64
  3
____ _ ____ _
 72
65
 73
4
 40
46.20445258656243
 49
28.87778286660151
 49
-5.775556573320303
 49
5.775556573320303
 49
-5.775556573320303
  0
LTYPE
  2
DASHDOT
 70
64
  3
__ . __ . __ .
 72
65
 73
4
 40
23.10222629328121
 49
11.55111314664061
 49
-5.775556573320303
 49
0
 49
-5.775556573320303
  0
LTYPE
  2
DASHED
 70
64
  3
__ __ __ __ __
 72
65
 73
2
 40
17.32666971996091
 49
11.55111314664061
 49
-5.775556573320303
  0
LTYPE
  2
DIVIDE
 70
64
  3
__ . . __ . . 
 72
65
 73
6
 40
28.87778286660151
 49
11.55111314664061
 49
-5.775556573320303
 49
0
 49
-5.775556573320303
 49
0
 49
-5.775556573320303
  0
LTYPE
  2
DOT
 70
64
  3
..............
 72
65
 73
4
 40
11.55111314664061
 49
0
 49
-5.775556573320303
 49
0
 49
-5.775556573320303
  0
LTYPE
  2
HIDDEN
 70
64
  3
_ _ _ _ _ _ _
 72
65
 73
2
 40
8.663334859980456
 49
5.775556573320303
 49
-2.887778286660152
  0
LTYPE
  2
PHANTOM
 70
64
  3
_____ _ _ _____ _ _ 
 72
65
 73
6
 40
57.75556573320303
 49
28.87778286660151
 49
-5.775556573320303
 49
5.775556573320303
 49
-5.775556573320303
 49
5.775556573320303
 49
-5.775556573320303
  0
ENDTAB
  0
TABLE
  2
LAYER
 70
3
  0
LAYER
  2
1
 70
0
 62
7
  6
CONTINUOUS
  0
LAYER
  2
0
 70
0
 62
7
  6
CONTINUOUS
  0
ENDTAB
  0
TABLE
  2
STYLE
 70
4
  0
STYLE
  2
STANDARD
 70
0
 40
0
 41
1
 50
0
 71
0
 42
3.5
  3
txt
  4

  0
STYLE
  2
SIMPLEX
 70
0
 40
0
 41
1
 50
0
 71
0
 42
3.5
  3
simplex
  4

  0
STYLE
  2
COMPLEX
 70
0
 40
0
 41
1
 50
0
 71
0
 42
3.5
  3
complex
  4

  0
STYLE
  2
ITALIC
 70
0
 40
0
 41
1
 50
0
 71
0
 42
3.5
  3
italic
  4

  0
ENDTAB
  0
TABLE
  2
VIEW
 70
0
  0
ENDTAB
  0
ENDSEC
  0
SECTION
  2
BLOCKS
  0
ENDSEC
  0
SECTION
  2
ENTITIES
  0
LINE
  8
1
 62
3
  6
DASHED
 10
-173.103913288288
 20
239.5540540540541
 30
0
 11
-173.103913288288
 21
224.5540540540541
 31
0
  0
LINE
  8
1
 62
3
  6
DASHED
 10
-173.103913288288
 20
199.5540540540541
 30
0
 11
-174.603913288288
 21
198.0540540540541
 31
0
  0
LINE
  8
1
 62
3
  6
DASHED
 10
-174.603913288288
 20
241.0540540540541
 30
0
 11
-173.103913288288
 21
239.5540540540541
 31
0
  0
LINE
  8
1
 62
3
  6
DASHED
 10
-173.103913288288
 20
214.5540540540541
 30
0
 11
-173.103913288288
 21
199.5540540540541
 31
0
  0
LINE
  8
1
 62
3
  6
DASHED
 10
-70.60391328828803
 20
193.5540540540541
 30
0
 11
-86.60391328828803
 21
193.5540540540541
 31
0
  0
LINE
  8
1
 62
3
  6
DASHDOT
 10
310.115098003515
 20
54.55405405405404
 30
0
 11
284.115098003515
 21
54.55405405405404
 31
0
  0
LINE
  8
1
 62
3
  6
DASHDOT
 10
297.115098003515
 20
67.55405405405398
 30
0
 11
297.115098003515
 21
41.5540540540541
 31
0
  0
LINE
  8
1
 62
3
  6
DASHDOT
 10
95.11509800351502
 20
54.55405405405404
 30
0
 11
69.11509800351502
 21
54.55405405405407
 31
0
  0
LINE
  8
1
 62
3
  6
DASHDOT
 10
82.11509800351502
 20
41.55405405405404
 30
0
 11
82.11509800351502
 21
67.55405405405404
 31
0
  0
LINE
  8
1
 62
7
 10
102.115098003515
 20
24.05405405405405
 30
0
 11
62.11509800351507
 21
24.05405405405403
 31
0
  0
LINE
  8
1
 62
7
 10
277.115098003515
 20
24.05405405405408
 30
0
 11
317.115098003515
 21
24.05405405405409
 31
0
  0
LINE
  8
1
 62
7
 10
132.115098003515
 20
74.05405405405405
 30
0
 11
247.115098003515
 21
74.05405405405406
 31
0
  0
LINE
  8
1
 62
7
 10
327.115098003515
 20
34.05405405405409
 30
0
 11
327.115098003515
 21
219.5540540540541
 31
0
  0
LINE
  8
1
 62
7
 10
267.115098003515
 20
54.05405405405408
 30
0
 11
267.115098003515
 21
34.05405405405408
 31
0
  0
LINE
  8
1
 62
7
 10
112.115098003515
 20
34.05405405405405
 30
0
 11
112.115098003515
 21
54.05405405405405
 31
0
  0
LINE
  8
1
 62
7
 10
52.11509800351507
 20
219.5540540540541
 30
0
 11
52.11509800351507
 21
34.05405405405409
 31
0
  0
LINE
  8
1
 62
7
 10
148.9517357443795
 20
191.9604782266467
 30
0
 11
149.9542939655823
 21
186.2746880136304
 31
0
  0
LINE
  8
1
 62
7
 10
153.3744953988391
 20
195.6716142214894
 30
0
 11
148.9517357443795
 21
191.9604782266467
 31
0
  0
LINE
  8
1
 62
7
 10
158.7998132745016
 20
193.6969600033159
 30
0
 11
153.3744953988391
 21
195.6716142214894
 31
0
  0
LINE
  8
1
 62
7
 10
159.8023714957044
 20
188.0111697902996
 30
0
 11
158.7998132745016
 21
193.6969600033159
 31
0
  0
LINE
  8
1
 62
7
 10
155.3796118412448
 20
184.3000337954569
 30
0
 11
159.8023714957044
 21
188.0111697902996
 31
0
  0
LINE
  8
1
 62
7
 10
149.9542939655823
 20
186.2746880136304
 30
0
 11
155.3796118412448
 21
184.3000337954569
 31
0
  0
LINE
  8
1
 62
7
 10
156.6078482188444
 20
249.861239753212
 30
0
 11
154.7174094599855
 21
251.4475062185337
 31
0
  0
LINE
  8
1
 62
7
 10
154.0366977800983
 20
246.7970619807361
 30
0
 11
152.1462590212394
 21
248.3833284460578
 31
0
  0
LINE
  8
1
 62
7
 10
155.3796118412449
 20
254.8080743126512
 30
0
 11
149.9542939655825
 21
252.8334200944778
 31
0
  0
LINE
  8
1
 62
7
 10
159.8023714957045
 20
251.0969383178083
 30
0
 11
155.3796118412449
 21
254.8080743126512
 31
0
  0
LINE
  8
1
 62
7
 10
158.7998132745016
 20
245.411148104792
 30
0
 11
159.8023714957045
 21
251.0969383178083
 31
0
  0
LINE
  8
1
 62
7
 10
153.374495398839
 20
243.4364938866186
 30
0
 11
158.7998132745016
 21
245.411148104792
 31
0
  0
LINE
  8
1
 62
7
 10
148.9517357443795
 20
247.1476298814615
 30
0
 11
153.374495398839
 21
243.4364938866186
 31
0
  0
LINE
  8
1
 62
7
 10
149.9542939655825
 20
252.8334200944778
 30
0
 11
148.9517357443795
 21
247.1476298814615
 31
0
  0
LINE
  8
1
 62
7
 10
140.7283466575668
 20
224.5540540540541
 30
0
 11
137.8415953116186
 21
219.5540540540541
 31
0
  0
LINE
  8
1
 62
7
 10
146.5018493494631
 20
224.554054054054
 30
0
 11
140.7283466575668
 21
224.5540540540541
 31
0
  0
LINE
  8
1
 62
7
 10
149.3886006954112
 20
219.554054054054
 30
0
 11
146.5018493494631
 21
224.554054054054
 31
0
  0
LINE
  8
1
 62
7
 10
146.501849349463
 20
214.554054054054
 30
0
 11
149.3886006954112
 21
219.554054054054
 31
0
  0
LINE
  8
1
 62
7
 10
140.7283466575668
 20
214.5540540540541
 30
0
 11
146.501849349463
 21
214.554054054054
 31
0
  0
LINE
  8
1
 62
7
 10
137.8415953116186
 20
219.5540540540541
 30
0
 11
140.7283466575668
 21
214.5540540540541
 31
0
  0
LINE
  8
1
 62
7
 10
223.8505841657851
 20
184.300033795457
 30
0
 11
229.2759020414476
 21
186.2746880136304
 31
0
  0
LINE
  8
1
 62
7
 10
219.4278245113255
 20
188.0111697902998
 30
0
 11
223.8505841657851
 21
184.300033795457
 31
0
  0
LINE
  8
1
 62
7
 10
220.4303827325284
 20
193.6969600033161
 30
0
 11
219.4278245113255
 21
188.0111697902998
 31
0
  0
LINE
  8
1
 62
7
 10
225.8557006081909
 20
195.6716142214895
 30
0
 11
220.4303827325284
 21
193.6969600033161
 31
0
  0
LINE
  8
1
 62
7
 10
230.2784602626505
 20
191.9604782266467
 30
0
 11
225.8557006081909
 21
195.6716142214895
 31
0
  0
LINE
  8
1
 62
7
 10
229.2759020414476
 20
186.2746880136304
 30
0
 11
230.2784602626505
 21
191.9604782266467
 31
0
  0
LINE
  8
1
 62
7
 10
230.2784602626504
 20
247.1476298814614
 30
0
 11
229.2759020414476
 21
252.8334200944777
 31
0
  0
LINE
  8
1
 62
7
 10
225.8557006081908
 20
243.4364938866187
 30
0
 11
230.2784602626504
 21
247.1476298814614
 31
0
  0
LINE
  8
1
 62
7
 10
220.4303827325283
 20
245.4111481047922
 30
0
 11
225.8557006081908
 21
243.4364938866187
 31
0
  0
LINE
  8
1
 62
7
 10
219.4278245113255
 20
251.0969383178085
 30
0
 11
220.4303827325283
 21
245.4111481047922
 31
0
  0
LINE
  8
1
 62
7
 10
223.8505841657851
 20
254.8080743126512
 30
0
 11
219.4278245113255
 21
251.0969383178085
 31
0
  0
LINE
  8
1
 62
7
 10
229.2759020414476
 20
252.8334200944777
 30
0
 11
223.8505841657851
 21
254.8080743126512
 31
0
  0
LINE
  8
1
 62
7
 10
238.5018493494631
 20
214.5540540540541
 30
0
 11
241.3886006954113
 21
219.554054054054
 31
0
  0
LINE
  8
1
 62
7
 10
232.7283466575668
 20
214.5540540540541
 30
0
 11
238.5018493494631
 21
214.5540540540541
 31
0
  0
LINE
  8
1
 62
7
 10
229.8415953116187
 20
219.5540540540541
 30
0
 11
232.7283466575668
 21
214.5540540540541
 31
0
  0
LINE
  8
1
 62
7
 10
232.7283466575669
 20
224.5540540540541
 30
0
 11
229.8415953116187
 21
219.5540540540541
 31
0
  0
LINE
  8
1
 62
7
 10
238.5018493494632
 20
224.5540540540541
 30
0
 11
232.7283466575669
 21
224.5540540540541
 31
0
  0
LINE
  8
1
 62
7
 10
241.3886006954113
 20
219.554054054054
 30
0
 11
238.5018493494632
 21
224.5540540540541
 31
0
  0
LINE
  8
1
 62
7
 10
188.615098003515
 20
185.0540540540541
 30
0
 11
190.615098003515
 21
185.0540540540541
 31
0
  0
LINE
  8
1
 62
3
 10
190.615098003515
 20
185.6540540540541
 30
0
 11
188.615098003515
 21
185.6540540540541
 31
0
  0
LINE
  8
1
 62
3
 10
190.615098003515
 20
189.4540540540541
 30
0
 11
188.615098003515
 21
189.4540540540541
 31
0
  0
LINE
  8
1
 62
7
 10
190.615098003515
 20
190.0540540540541
 30
0
 11
188.615098003515
 21
190.0540540540541
 31
0
  0
LINE
  8
1
 62
7
 10
188.615098003515
 20
180.5668766748182
 30
0
 11
188.615098003515
 21
196.6258508972431
 31
0
  0
LINE
  8
1
 62
7
 10
190.615098003515
 20
196.6258508972431
 30
0
 11
190.615098003515
 21
180.5668766748182
 31
0
  0
LINE
  8
1
 62
7
 10
214.68381478129
 20
189.6783207724139
 30
0
 11
222.3972660975285
 21
180.4857874549862
 31
0
  0
LINE
  8
1
 62
7
 10
214.68381478129
 20
249.4297873356943
 30
0
 11
222.3972660975285
 21
258.622320653122
 31
0
  0
LINE
  8
1
 62
7
 10
154.0395305814086
 20
180.2681914239022
 30
0
 11
156.8329299095014
 21
180.4857874549862
 31
0
  0
LINE
  8
1
 62
7
 10
156.8329299095014
 20
180.4857874549862
 30
0
 11
164.5463812257399
 21
189.6783207724139
 31
0
  0
LINE
  8
1
 62
7
 10
156.8329299095014
 20
258.622320653122
 30
0
 11
154.0395305814086
 21
258.839916684206
 31
0
  0
LINE
  8
1
 62
7
 10
156.8329299095014
 20
258.622320653122
 30
0
 11
164.5463812257399
 21
249.4297873356942
 31
0
  0
LINE
  8
1
 62
7
 10
222.3972660975285
 20
180.4857874549862
 30
0
 11
225.1906654256213
 21
180.2681914239022
 31
0
  0
LINE
  8
1
 62
7
 10
225.1906654256213
 20
258.839916684206
 30
0
 11
222.3972660975285
 21
258.622320653122
 31
0
  0
LINE
  8
1
 62
7
 10
140.5096072483245
 20
199.6128710978724
 30
0
 11
64.20448482830238
 21
172.3035254953537
 31
0
  0
LINE
  8
1
 62
7
 10
139.1801643571448
 20
235.8426226862649
 30
0
 11
63.17294036382731
 21
263.9704374894452
 31
0
  0
LINE
  8
1
 62
7
 10
219.2284285122611
 20
184.2622610315761
 30
0
 11
217.6899010489887
 21
185.5532388585641
 31
0
  0
LINE
  8
1
 62
7
 10
219.2284285122611
 20
254.845847076532
 30
0
 11
217.6899010489887
 21
253.5548692495441
 31
0
  0
LINE
  8
1
 62
7
 10
240.0500316498849
 20
203.2654854218428
 30
0
 11
316.0572556432028
 21
175.1376706186628
 31
0
  0
LINE
  8
1
 62
7
 10
238.7205887587052
 20
239.4952370102363
 30
0
 11
315.0257111787277
 21
266.8045826127543
 31
0
  0
LINE
  8
1
 62
7
 10
221.9477526521777
 20
312.6074407560095
 30
0
 11
224.660411590009
 21
311.6201136469227
 31
0
  0
LINE
  8
1
 62
7
 10
224.660411590009
 20
311.6201136469227
 30
0
 11
225.1616907006104
 21
308.7772185404145
 31
0
  0
LINE
  8
1
 62
7
 10
225.1616907006104
 20
308.7772185404145
 30
0
 11
222.9503108733807
 21
306.9216505429932
 31
0
  0
LINE
  8
1
 62
7
 10
222.9503108733807
 20
306.9216505429932
 30
0
 11
220.2376519355494
 21
307.90897765208
 31
0
  0
LINE
  8
1
 62
7
 10
220.2376519355494
 20
307.90897765208
 30
0
 11
219.736372824948
 21
310.751872758588
 31
0
  0
LINE
  8
1
 62
7
 10
219.736372824948
 20
310.751872758588
 30
0
 11
221.9477526521777
 21
312.6074407560095
 31
0
  0
LINE
  8
1
 62
7
 10
121.3050867070144
 20
104.2536780671072
 30
0
 11
165.7366819971809
 21
182.1754656138974
 31
0
  0
LINE
  8
1
 62
7
 10
85.98963334183219
 20
134.5705414194866
 30
0
 11
146.1001227193501
 21
185.5621635264678
 31
0
  0
LINE
  8
1
 62
7
 10
63.17294036382731
 20
175.1376706186628
 30
0
 11
139.1801643571451
 21
203.2654854218423
 31
0
  0
LINE
  8
1
 62
7
 10
179.2952232228118
 20
150.4116522368972
 30
0
 11
167.8297804221925
 21
87.32025706441851
 31
0
  0
LINE
  8
1
 62
7
 10
177.8818099440933
 20
157.0540540540541
 30
0
 11
178.1150980035151
 21
157.0540540540541
 31
0
  0
LINE
  8
1
 62
7
 10
166.0934797472922
 20
86.11124407203255
 30
0
 11
166.0780601119997
 21
86.11396296976727
 31
0
  0
LINE
  8
1
 62
7
 10
164.8599779772687
 20
87.8439133628325
 30
0
 11
176.402988754699
 21
155.8052270816635
 31
0
  0
LINE
  8
1
 62
7
 10
179.6150980035151
 20
158.5540540540541
 30
0
 11
179.6150980035151
 21
176.7025663319221
 31
0
  0
LINE
  8
1
 62
7
 10
85.60703768467158
 20
221.2232798804894
 30
0
 11
134.4311269336645
 21
221.4856421527651
 31
0
  0
LINE
  8
1
 62
7
 10
64.20448482830238
 20
266.8045826127543
 30
0
 11
140.5096072483246
 21
239.4952370102359
 31
0
  0
LINE
  8
1
 62
7
 10
87.92830278439197
 20
306.8479829616447
 30
0
 11
148.5833245130832
 21
256.5053092404698
 31
0
  0
LINE
  8
1
 62
7
 10
123.9170489811722
 20
336.362447163099
 30
0
 11
169.1834988599031
 21
258.9226631377505
 31
0
  0
LINE
  8
1
 62
7
 10
134.4311269336645
 20
217.622465955343
 30
0
 11
85.60703768467158
 21
217.8848282276186
 31
0
  0
LINE
  8
1
 62
7
 10
84.11509800351507
 20
219.3848065712157
 30
0
 11
84.11509800351507
 21
219.7233015368923
 31
0
  0
LINE
  8
1
 62
7
 10
169.1834988599031
 20
180.1854449703576
 30
0
 11
123.9170489811722
 21
102.745660945009
 31
0
  0
LINE
  8
1
 62
7
 10
121.8720597899124
 20
102.2035924520119
 30
0
 11
121.8581362171176
 21
102.2116312305131
 31
0
  0
LINE
  8
1
 62
7
 10
148.5833245130832
 20
182.6027988676383
 30
0
 11
87.92830278439197
 21
132.2601251464633
 31
0
  0
LINE
  8
1
 62
7
 10
85.82124318811111
 20
132.4501748799275
 30
0
 11
85.81090873367589
 21
132.4624910031282
 31
0
  0
LINE
  8
1
 62
7
 10
62.28949731119951
 20
173.2027706525882
 30
0
 11
62.28399846284918
 21
173.2178786142636
 31
0
  0
LINE
  8
1
 62
7
 10
62.28399846284918
 20
265.8902294938443
 30
0
 11
62.28949731119951
 21
265.9053374555198
 31
0
  0
LINE
  8
1
 62
7
 10
146.1001227193501
 20
253.5459445816404
 30
0
 11
85.98963334183219
 21
304.5375666886213
 31
0
  0
LINE
  8
1
 62
7
 10
85.81090873367589
 20
306.6456171049798
 30
0
 11
85.82124318811111
 21
306.6579332281805
 31
0
  0
LINE
  8
1
 62
7
 10
165.7366819971809
 20
256.9326424942108
 30
0
 11
121.3050867070143
 21
334.8544300410007
 31
0
  0
LINE
  8
1
 62
7
 10
121.8581362171176
 20
336.8964768775949
 30
0
 11
121.8720597899124
 21
336.9045156560961
 31
0
  0
LINE
  8
1
 62
7
 10
179.6150980035151
 20
262.405541776186
 30
0
 11
179.6150980035151
 21
280.5540540540541
 31
0
  0
LINE
  8
1
 62
7
 10
167.8297804221925
 20
351.7878510436896
 30
0
 11
179.2952232228118
 21
288.6964558712109
 31
0
  0
LINE
  8
1
 62
7
 10
178.1150980035151
 20
282.0540540540541
 30
0
 11
177.8818099440933
 21
282.0540540540541
 31
0
  0
LINE
  8
1
 62
7
 10
161.5402949580413
 20
185.5532388585641
 30
0
 11
160.0017674947686
 21
184.2622610315758
 31
0
  0
LINE
  8
1
 62
7
 10
161.5402949580413
 20
253.5548692495441
 30
0
 11
160.0017674947686
 21
254.8458470765324
 31
0
  0
LINE
  8
1
 62
7
 10
166.0780601119997
 20
352.9941451383409
 30
0
 11
166.0934797472922
 21
352.9968640360756
 31
0
  0
LINE
  8
1
 62
7
 10
176.402988754699
 20
283.3028810264447
 30
0
 11
164.8599779772687
 21
351.2641947452756
 31
0
  0
LINE
  8
1
 62
7
 10
213.4935140098491
 20
182.1754656138974
 30
0
 11
257.9251093000157
 21
104.2536780671072
 31
0
  0
LINE
  8
1
 62
7
 10
233.13007328768
 20
185.5621635264678
 30
0
 11
293.2405626651978
 21
134.5705414194866
 31
0
  0
LINE
  8
1
 62
7
 10
211.4004155848375
 20
87.32025706441851
 30
0
 11
199.9349727842182
 21
150.4116522368972
 31
0
  0
LINE
  8
1
 62
7
 10
181.2629944340117
 20
152.0540540540541
 30
0
 11
197.9672015730183
 21
152.0540540540541
 31
0
  0
LINE
  8
1
 62
7
 10
201.115098003515
 20
157.0540540540541
 30
0
 11
201.3483860629367
 21
157.0540540540541
 31
0
  0
LINE
  8
1
 62
7
 10
213.1521358950303
 20
86.11396296976727
 30
0
 11
213.1367162597379
 21
86.11124407203255
 31
0
  0
LINE
  8
1
 62
7
 10
202.827207252331
 20
155.8052270816635
 30
0
 11
214.3702180297614
 21
87.8439133628325
 31
0
  0
LINE
  8
1
 62
7
 10
199.615098003515
 20
176.7025663319221
 30
0
 11
199.615098003515
 21
158.5540540540541
 31
0
  0
LINE
  8
1
 62
7
 10
244.7990690733655
 20
221.4856421527651
 30
0
 11
293.6231583223585
 21
221.2232798804894
 31
0
  0
LINE
  8
1
 62
7
 10
230.6468714939468
 20
256.5053092404698
 30
0
 11
291.301893222638
 21
306.8479829616447
 31
0
  0
LINE
  8
1
 62
7
 10
210.0466971471269
 20
258.9226631377505
 30
0
 11
255.3131470258578
 21
336.362447163099
 31
0
  0
LINE
  8
1
 62
7
 10
293.6231583223585
 20
217.8848282276186
 30
0
 11
244.7990690733655
 21
217.622465955343
 31
0
  0
LINE
  8
1
 62
7
 10
295.115098003515
 20
219.7233015368923
 30
0
 11
295.115098003515
 21
219.3848065712157
 31
0
  0
LINE
  8
1
 62
7
 10
255.3131470258578
 20
102.745660945009
 30
0
 11
210.0466971471269
 21
180.1854449703576
 31
0
  0
LINE
  8
1
 62
7
 10
257.3720597899124
 20
102.2116312305131
 30
0
 11
257.3581362171176
 21
102.2035924520119
 31
0
  0
LINE
  8
1
 62
7
 10
291.301893222638
 20
132.2601251464633
 30
0
 11
230.6468714939468
 21
182.6027988676383
 31
0
  0
LINE
  8
1
 62
7
 10
293.4192872733541
 20
132.4624910031282
 30
0
 11
293.4089528189189
 21
132.4501748799275
 31
0
  0
LINE
  8
1
 62
7
 10
316.9461975441808
 20
173.2178786142636
 30
0
 11
316.9406986958305
 21
173.2027706525882
 31
0
  0
LINE
  8
1
 62
7
 10
315.0257111787277
 20
172.3035254953537
 30
0
 11
238.7205887587053
 21
199.6128710978723
 31
0
  0
LINE
  8
1
 62
7
 10
316.0572556432028
 20
263.9704374894452
 30
0
 11
240.0500316498848
 21
235.8426226862656
 31
0
  0
LINE
  8
1
 62
7
 10
316.9406986958305
 20
265.9053374555198
 30
0
 11
316.9461975441808
 21
265.8902294938443
 31
0
  0
LINE
  8
1
 62
7
 10
293.2405626651978
 20
304.5375666886213
 30
0
 11
233.13007328768
 21
253.5459445816404
 31
0
  0
LINE
  8
1
 62
7
 10
293.4089528189189
 20
306.6579332281805
 30
0
 11
293.4192872733541
 21
306.6456171049798
 31
0
  0
LINE
  8
1
 62
7
 10
257.9251093000157
 20
334.8544300410007
 30
0
 11
213.4935140098491
 21
256.9326424942108
 31
0
  0
LINE
  8
1
 62
7
 10
257.3581362171176
 20
336.9045156560961
 30
0
 11
257.3720597899124
 21
336.8964768775949
 31
0
  0
LINE
  8
1
 62
7
 10
199.615098003515
 20
280.5540540540541
 30
0
 11
199.615098003515
 21
262.405541776186
 31
0
  0
LINE
  8
1
 62
7
 10
199.9349727842182
 20
288.6964558712109
 30
0
 11
211.4004155848375
 21
351.7878510436896
 31
0
  0
LINE
  8
1
 62
7
 10
197.9672015730183
 20
287.0540540540541
 30
0
 11
181.2629944340117
 21
287.0540540540541
 31
0
  0
LINE
  8
1
 62
7
 10
201.3483860629367
 20
282.0540540540541
 30
0
 11
201.115098003515
 21
282.0540540540541
 31
0
  0
LINE
  8
1
 62
7
 10
213.1367162597379
 20
352.9968640360756
 30
0
 11
213.1521358950303
 21
352.9941451383409
 31
0
  0
LINE
  8
1
 62
7
 10
214.3702180297614
 20
351.2641947452756
 30
0
 11
202.827207252331
 21
283.3028810264447
 31
0
  0
LINE
  8
1
 62
3
  6
DASHDOT
 10
197.115098003515
 20
219.5540540540541
 30
0
 11
182.115098003515
 21
219.5540540540541
 31
0
  0
LINE
  8
1
 62
3
  6
DASHDOT
 10
189.615098003515
 20
212.0540540540541
 30
0
 11
189.615098003515
 21
227.0540540540541
 31
0
  0
LINE
  8
1
 62
3
  6
DASHED
 10
-147.1039132882881
 20
341.0540540540541
 30
0
 11
-165.1039132882881
 21
341.0540540540541
 31
0
  0
LINE
  8
1
 62
3
  6
DASHED
 10
-165.1039132882881
 20
350.0540540540541
 30
0
 11
-147.1039132882881
 21
350.0540540540541
 31
0
  0
LINE
  8
1
 62
3
  6
DASHED
 10
-44.60391328828803
 20
202.0540540540541
 30
0
 11
-106.603913288288
 21
202.0540540540541
 31
0
  0
LINE
  8
1
 62
3
  6
DASHED
 10
-107.103913288288
 20
64.55405405405412
 30
0
 11
-102.103913288288
 21
64.55405405405412
 31
0
  0
LINE
  8
1
 62
3
  6
DASHED
 10
-102.103913288288
 20
44.55405405405409
 30
0
 11
-107.103913288288
 21
44.55405405405409
 31
0
  0
LINE
  8
1
 62
3
  6
DASHDOT
 10
-110.103913288288
 20
54.55405405405411
 30
0
 11
-99.10391328828803
 21
54.55405405405411
 31
0
  0
LINE
  8
1
 62
3
  6
DASHED
 10
-173.103913288288
 20
239.5540540540541
 30
0
 11
-106.603913288288
 21
239.5540540540541
 31
0
  0
LINE
  8
1
 62
3
  6
DASHED
 10
-106.603913288288
 20
237.0540540540541
 30
0
 11
-44.60391328828803
 21
237.0540540540541
 31
0
  0
LINE
  8
1
 62
3
  6
DASHED
 10
-174.6039132882881
 20
224.5540540540541
 30
0
 11
-116.9205380786434
 21
224.5540540540541
 31
0
  0
LINE
  8
1
 62
3
  6
DASHED
 10
-73.60391328828803
 20
196.0540540540541
 30
0
 11
-83.60391328828803
 21
196.0540540540541
 31
0
  0
LINE
  8
1
 62
3
  6
DASHED
 10
-73.60391328828803
 20
196.0540540540541
 30
0
 11
-73.60391328828803
 21
193.5540540540541
 31
0
  0
LINE
  8
1
 62
3
  6
DASHED
 10
-83.60391328828803
 20
196.0540540540541
 30
0
 11
-83.60391328828803
 21
193.5540540540541
 31
0
  0
LINE
  8
1
 62
3
  6
DASHED
 10
-106.603913288288
 20
199.5540540540541
 30
0
 11
-173.103913288288
 21
199.5540540540541
 31
0
  0
LINE
  8
1
 62
3
  6
DASHED
 10
-106.603913288288
 20
239.5540540540541
 30
0
 11
-106.603913288288
 21
199.5540540540541
 31
0
  0
LINE
  8
1
 62
3
  6
DASHED
 10
-116.9205380786434
 20
214.5540540540541
 30
0
 11
-174.6039132882881
 21
214.5540540540541
 31
0
  0
LINE
  8
1
 62
3
  6
DASHED
 10
-75.10391328828803
 20
202.0540540540541
 30
0
 11
-75.10391328828803
 21
196.0540540540541
 31
0
  0
LINE
  8
1
 62
3
  6
DASHED
 10
-82.10391328828803
 20
196.0540540540541
 30
0
 11
-82.10391328828803
 21
202.0540540540541
 31
0
  0
LINE
  8
1
 62
3
  6
DASHDOT
 10
-144.1039132882881
 20
93.55405405405411
 30
0
 11
-168.1039132882881
 21
93.55405405405411
 31
0
  0
LINE
  8
1
 62
3
  6
DASHED
 10
-156.1039132882881
 20
100.0540540540541
 30
0
 11
-156.1039132882881
 21
87.05405405405411
 31
0
  0
LINE
  8
1
 62
3
  6
DASHED
 10
-156.1039132882881
 20
90.05405405405411
 30
0
 11
-165.1039132882881
 21
90.05405405405411
 31
0
  0
LINE
  8
1
 62
3
  6
DASHED
 10
-165.1039132882881
 20
97.05405405405411
 30
0
 11
-156.1039132882881
 21
97.05405405405411
 31
0
  0
LINE
  8
1
 62
3
  6
DASHED
 10
-147.1039132882881
 20
100.0540540540541
 30
0
 11
-156.1039132882881
 21
100.0540540540541
 31
0
  0
LINE
  8
1
 62
3
  6
DASHED
 10
-156.1039132882881
 20
87.05405405405411
 30
0
 11
-147.1039132882881
 21
87.05405405405411
 31
0
  0
LINE
  8
1
 62
3
  6
DASHDOT
 10
-168.1039132882881
 20
345.5540540540541
 30
0
 11
-144.1039132882881
 21
345.5540540540541
 31
0
  0
LINE
  8
1
 62
7
 10
144.8489942714402
 20
221.5540540540539
 30
0
 11
142.3812017355896
 21
221.5540540540538
 31
0
  0
LINE
  8
1
 62
7
 10
144.8489942714402
 20
217.554054054054
 30
0
 11
142.3812017355896
 21
217.5540540540539
 31
0
  0
LINE
  8
1
 62
7
 10
154.0366977800985
 20
192.3110461273718
 30
0
 11
152.1462590212396
 21
190.72477966205
 31
0
  0
LINE
  8
1
 62
7
 10
156.6078482188446
 20
189.246868354896
 30
0
 11
154.7174094599858
 21
187.6606018895742
 31
0
  0
LINE
  8
1
 62
7
 10
227.0839369857904
 20
190.72477966205
 30
0
 11
225.1934982269315
 21
192.3110461273718
 31
0
  0
LINE
  8
1
 62
7
 10
224.5127865470442
 20
187.6606018895742
 30
0
 11
222.6223477881854
 21
189.246868354896
 31
0
  0
LINE
  8
1
 62
7
 10
236.8489942714405
 20
221.5540540540538
 30
0
 11
234.3812017355898
 21
221.5540540540539
 31
0
  0
LINE
  8
1
 62
7
 10
236.8489942714404
 20
217.5540540540539
 30
0
 11
234.3812017355898
 21
217.554054054054
 31
0
  0
LINE
  8
1
 62
7
 10
224.5127865470446
 20
251.4475062185337
 30
0
 11
222.6223477881856
 21
249.861239753212
 31
0
  0
LINE
  8
1
 62
7
 10
227.0839369857906
 20
248.3833284460578
 30
0
 11
225.1934982269318
 21
246.7970619807361
 31
0
  0
LINE
  8
1
 62
7
 10
-54.00391328828803
 20
262.5540540540541
 30
0
 11
-50.60391328828803
 21
262.5540540540541
 31
0
  0
LINE
  8
1
 62
7
 10
-54.49466101709919
 20
259.8040540540541
 30
0
 11
-57.11316555947684
 21
259.8040540540541
 31
0
  0
LINE
  8
1
 62
7
 10
-54.49466101709919
 20
262.6790540540541
 30
0
 11
-57.11316555947684
 21
262.6790540540541
 31
0
  0
LINE
  8
1
 62
7
 10
-54.49466101709919
 20
268.4290540540541
 30
0
 11
-57.11316555947684
 21
268.4290540540541
 31
0
  0
LINE
  8
1
 62
7
 10
-54.49466101709919
 20
271.3040540540541
 30
0
 11
-57.11316555947684
 21
271.3040540540541
 31
0
  0
LINE
  8
1
 62
7
 10
-54.00391328828803
 20
269.8665540540541
 30
0
 11
-54.00391328828803
 21
261.2415540540541
 31
0
  0
LINE
  8
1
 62
7
 10
-57.60391328828803
 20
272.5540540540541
 30
0
 11
-57.60391328828803
 21
254.5540540540541
 31
0
  0
LINE
  8
1
 62
7
 10
-60.10391328828803
 20
272.5540540540541
 30
0
 11
-57.60391328828803
 21
272.5540540540541
 31
0
  0
LINE
  8
1
 62
7
 10
-128.103913288288
 20
319.5540540540541
 30
0
 11
-122.6851548282927
 21
319.5540540540541
 31
0
  0
LINE
  8
1
 62
7
 10
-123.803913288288
 20
319.5540540540541
 30
0
 11
-123.803913288288
 21
119.5540540540541
 31
0
  0
LINE
  8
1
 62
7
 10
-122.6851548282927
 20
119.5540540540541
 30
0
 11
-128.103913288288
 21
119.5540540540541
 31
0
  0
LINE
  8
1
 62
7
 10
-121.6930934063553
 20
118.6798083188067
 30
0
 11
-117.5255530521536
 21
85.80254552454885
 31
0
  0
LINE
  8
1
 62
7
 10
-115.5414302082787
 20
84.05405405405411
 30
0
 11
-114.303913288288
 21
84.05405405405411
 31
0
  0
LINE
  8
1
 62
7
 10
-114.303913288288
 20
82.05405405405411
 30
0
 11
-109.603913288288
 21
82.05405405405411
 31
0
  0
LINE
  8
1
 62
7
 10
-109.603913288288
 20
357.0540540540541
 30
0
 11
-109.603913288288
 21
82.05405405405411
 31
0
  0
LINE
  8
1
 62
7
 10
-117.5255530521536
 20
353.3055625835593
 30
0
 11
-121.6930934063553
 21
320.4282997893015
 31
0
  0
LINE
  8
1
 62
7
 10
-114.303913288288
 20
355.0540540540541
 30
0
 11
-115.5414302082787
 21
355.0540540540541
 31
0
  0
LINE
  8
1
 62
7
 10
-109.603913288288
 20
357.0540540540541
 30
0
 11
-114.303913288288
 21
357.0540540540541
 31
0
  0
LINE
  8
1
 62
7
 10
-99.60391328828803
 20
357.0540540540541
 30
0
 11
-96.10391328828803
 21
357.0540540540541
 31
0
  0
LINE
  8
1
 62
7
 10
-92.03755925155656
 20
354.0022537001241
 30
0
 11
-68.46249998852153
 21
310.2200007830591
 31
0
  0
LINE
  8
1
 62
7
 10
-68.10391328828803
 20
308.797701313954
 30
0
 11
-68.10391328828803
 21
130.3104067941542
 31
0
  0
LINE
  8
1
 62
7
 10
-96.10391328828803
 20
355.0540540540541
 30
0
 11
-93.79850145140085
 21
355.0540540540541
 31
0
  0
LINE
  8
1
 62
7
 10
-99.60391328828803
 20
357.0540540540541
 30
0
 11
-99.60391328828803
 21
82.05405405405411
 31
0
  0
LINE
  8
1
 62
7
 10
-68.10391328828803
 20
287.0540540540541
 30
0
 11
-60.10391328828803
 21
287.0540540540541
 31
0
  0
LINE
  8
1
 62
7
 10
-96.10391328828803
 20
82.05405405405411
 30
0
 11
-99.60391328828803
 21
82.05405405405411
 31
0
  0
LINE
  8
1
 62
7
 10
-68.46249998852153
 20
128.8881073250491
 30
0
 11
-92.03755925155656
 21
85.10585440798407
 31
0
  0
LINE
  8
1
 62
7
 10
-93.79850145140085
 20
84.05405405405411
 30
0
 11
-96.10391328828803
 21
84.05405405405411
 31
0
  0
LINE
  8
1
 62
7
 10
-60.10391328828803
 20
177.0540540540541
 30
0
 11
-68.10391328828803
 21
177.0540540540541
 31
0
  0
LINE
  8
1
 62
7
 10
-107.103913288288
 20
82.55405405405409
 30
0
 11
-109.603913288288
 21
82.55405405405409
 31
0
  0
LINE
  8
1
 62
7
 10
-99.60391328828803
 20
82.55405405405409
 30
0
 11
-102.103913288288
 21
82.55405405405409
 31
0
  0
LINE
  8
1
 62
7
 10
-102.103913288288
 20
356.5540540540541
 30
0
 11
-99.60391328828803
 21
356.5540540540541
 31
0
  0
LINE
  8
1
 62
7
 10
-109.603913288288
 20
356.5540540540541
 30
0
 11
-107.103913288288
 21
356.5540540540541
 31
0
  0
LINE
  8
1
 62
7
 10
-107.103913288288
 20
357.0540540540541
 30
0
 11
-102.103913288288
 21
357.0540540540541
 31
0
  0
LINE
  8
1
 62
7
 10
-107.103913288288
 20
24.05405405405409
 30
0
 11
-102.103913288288
 21
24.05405405405409
 31
0
  0
LINE
  8
1
 62
7
 10
-102.103913288288
 20
357.0540540540541
 30
0
 11
-102.103913288288
 21
24.05405405405409
 31
0
  0
LINE
  8
1
 62
7
 10
-107.103913288288
 20
24.05405405405409
 30
0
 11
-107.103913288288
 21
357.0540540540541
 31
0
  0
LINE
  8
1
 62
3
  6
DASHDOT
 10
-184.603913288288
 20
219.5540540540541
 30
0
 11
-174.603913288288
 21
219.5540540540541
 31
0
  0
LINE
  8
1
 62
7
 10
-169.103913288288
 20
319.5540540540541
 30
0
 11
-172.603913288288
 21
281.5540540540541
 31
0
  0
LINE
  8
1
 62
7
 10
-169.103913288288
 20
319.5540540540541
 30
0
 11
-165.103913288288
 21
319.5540540540541
 31
0
  0
LINE
  8
1
 62
7
 10
-174.603913288288
 20
249.5540540540541
 30
0
 11
-174.603913288288
 21
241.0540540540541
 31
0
  0
LINE
  8
1
 62
7
 10
-174.603913288288
 20
249.5540540540541
 30
0
 11
-173.603913288288
 21
250.1314043232437
 31
0
  0
LINE
  8
1
 62
7
 10
-172.603913288288
 20
281.5540540540541
 30
0
 11
-172.603913288288
 21
157.5540540540541
 31
0
  0
LINE
  8
1
 62
7
 10
-172.603913288288
 20
157.5540540540541
 30
0
 11
-169.103913288288
 21
119.5540540540541
 31
0
  0
LINE
  8
1
 62
7
 10
-165.103913288288
 20
119.5540540540541
 30
0
 11
-169.103913288288
 21
119.5540540540541
 31
0
  0
LINE
  8
1
 62
7
 10
-174.603913288288
 20
198.0540540540541
 30
0
 11
-174.603913288288
 21
189.5540540540541
 31
0
  0
LINE
  8
1
 62
7
 10
-174.603913288288
 20
241.0540540540541
 30
0
 11
-174.603913288288
 21
198.0540540540541
 31
0
  0
LINE
  8
1
 62
7
 10
-173.603913288288
 20
188.9767037848645
 30
0
 11
-174.603913288288
 21
189.5540540540541
 31
0
  0
LINE
  8
1
 62
3
 10
-50.60391328828803
 20
266.7879503219794
 30
0
 11
-44.60391328828803
 21
264.3201577861288
 31
0
  0
LINE
  8
1
 62
3
 10
-44.60391328828803
 20
266.7879503219794
 30
0
 11
-50.60391328828803
 21
264.3201577861288
 31
0
  0
LINE
  8
1
 62
7
 10
-44.60391328828803
 20
267.9040540540541
 30
0
 11
-44.60391328828803
 21
263.2040540540541
 31
0
  0
LINE
  8
1
 62
7
 10
-44.60391328828803
 20
266.7879503219794
 30
0
 11
-50.60391328828803
 21
266.7879503219794
 31
0
  0
LINE
  8
1
 62
7
 10
-44.60391328828803
 20
264.3201577861288
 30
0
 11
-50.60391328828803
 21
264.3201577861288
 31
0
  0
LINE
  8
1
 62
7
 10
-44.60391328828803
 20
263.2040540540541
 30
0
 11
-50.60391328828803
 21
263.2040540540541
 31
0
  0
LINE
  8
1
 62
7
 10
-44.60391328828803
 20
267.9040540540541
 30
0
 11
-50.60391328828803
 21
267.9040540540541
 31
0
  0
LINE
  8
1
 62
7
 10
-50.60391328828803
 20
268.5540540540541
 30
0
 11
-50.60391328828803
 21
262.5540540540541
 31
0
  0
LINE
  8
1
 62
3
 10
-50.60391328828803
 20
267.9540540540541
 30
0
 11
-54.00391328828803
 21
267.9540540540541
 31
0
  0
LINE
  8
1
 62
3
 10
-50.60391328828803
 20
263.1540540540541
 30
0
 11
-54.00391328828803
 21
263.1540540540541
 31
0
  0
LINE
  8
1
 62
7
 10
-50.60391328828803
 20
268.5540540540541
 30
0
 11
-54.00391328828803
 21
268.5540540540541
 31
0
  0
LINE
  8
1
 62
7
 10
-44.60391328828803
 20
258.5540540540541
 30
0
 11
-44.60391328828803
 21
180.5540540540541
 31
0
  0
LINE
  8
1
 62
7
 10
-44.60391328828803
 20
180.5540540540541
 30
0
 11
-57.45391328828805
 21
180.5540540540541
 31
0
  0
LINE
  8
1
 62
7
 10
-57.45391328828805
 20
185.5540540540541
 30
0
 11
-60.20391328828805
 21
185.5540540540541
 31
0
  0
LINE
  8
1
 62
7
 10
-57.45391328828805
 20
180.5540540540541
 30
0
 11
-57.45391328828805
 21
258.5540540540541
 31
0
  0
LINE
  8
1
 62
7
 10
-57.45391328828805
 20
258.5540540540541
 30
0
 11
-44.60391328828803
 21
258.5540540540541
 31
0
  0
LINE
  8
1
 62
7
 10
-165.103913288288
 20
84.55405405405411
 30
0
 11
-165.103913288288
 21
354.5540540540541
 31
0
  0
LINE
  8
1
 62
7
 10
-128.103913288288
 20
334.5540540540541
 30
0
 11
-128.103913288288
 21
104.5540540540541
 31
0
  0
LINE
  8
1
 62
7
 10
-147.103913288288
 20
354.5540540540541
 30
0
 11
-147.103913288288
 21
84.55405405405411
 31
0
  0
LINE
  8
1
 62
7
 10
-128.103913288288
 20
104.5540540540541
 30
0
 11
-145.3648223134308
 21
102.2828818139038
 31
0
  0
LINE
  8
1
 62
7
 10
-147.103913288288
 20
84.55405405405411
 30
0
 11
-165.103913288288
 21
84.55405405405411
 31
0
  0
LINE
  8
1
 62
7
 10
-145.3648223134308
 20
336.8252262942044
 30
0
 11
-128.103913288288
 21
334.5540540540541
 31
0
  0
LINE
  8
1
 62
7
 10
-165.103913288288
 20
354.5540540540541
 30
0
 11
-147.103913288288
 21
354.5540540540541
 31
0
  0
LINE
  8
1
 62
7
 10
-60.10391328828803
 20
287.0540540540541
 30
0
 11
-60.10391328828803
 21
177.0540540540541
 31
0
  0
LINE
  8
1
 62
3
  6
DASHDOT
 10
-44.60391328828803
 20
219.5540540540541
 30
0
 11
-34.60391328828803
 21
219.5540540540541
 31
0
  0
LINE
  8
1
 62
7
 10
-169.103913288288
 20
319.5540540540541
 30
0
 11
-169.103913288288
 21
119.5540540540541
 31
0
  0
LINE
  8
1
 62
7
 10
-114.303913288288
 20
82.05405405405411
 30
0
 11
-114.303913288288
 21
357.0540540540541
 31
0
  0
LINE
  8
1
 62
7
 10
-96.10391328828803
 20
357.0540540540541
 30
0
 11
-96.10391328828803
 21
82.05405405405411
 31
0
  0
LINE
  8
1
 62
7
 10
-60.10391328828803
 20
254.5540540540541
 30
0
 11
-57.60391328828803
 21
254.5540540540541
 31
0
  0
LINE
  8
1
 62
7
 10
-60.10391328828803
 20
253.5540540540541
 30
0
 11
-57.45391328828805
 21
253.5540540540541
 31
0
  0
LINE
  8
1
 62
7
 10
-436.7695011411711
 20
224.5540540540541
 30
0
 11
-436.769501141171
 21
214.5540540540541
 31
0
  0
LINE
  8
1
 62
7
 10
-432.6344178722081
 20
214.5540540540541
 30
0
 11
-436.769501141171
 21
214.5540540540541
 31
0
  0
LINE
  8
1
 62
7
 10
-436.7695011411711
 20
224.5540540540541
 30
0
 11
-432.6344178722082
 21
224.5540540540541
 31
0
  0
LINE
  8
1
 62
3
 10
-319.5778526339532
 20
125.8624055468366
 30
0
 11
-328.7702407893785
 21
135.0547937022618
 31
0
  0
LINE
  8
1
 62
3
  6
DASHDOT
 10
-535.2215994326609
 20
270.068267126246
 30
0
 11
-524.1350450425255
 21
265.4760659378649
 31
0
  0
LINE
  8
1
 62
3
  6
DASHDOT
 10
-291.3174028496813
 20
169.039840981862
 30
0
 11
-302.4039572398165
 21
173.6320421702432
 31
0
  0
LINE
  8
1
 62
3
  6
DASHDOT
 10
-395.2695011411711
 20
351.7617121990132
 30
0
 11
-395.2695011411711
 21
336.7617121990132
 31
0
  0
LINE
  8
1
 62
3
  6
DASHDOT
 10
-431.269501141171
 20
87.3463959090949
 30
0
 11
-431.269501141171
 21
102.3463959090948
 31
0
  0
LINE
  8
1
 62
3
  6
DASHDOT
 10
-405.7695011411711
 20
219.5540540540541
 30
0
 11
-420.769501141171
 21
219.5540540540541
 31
0
  0
LINE
  8
1
 62
3
  6
DASHDOT
 10
-413.269501141171
 20
212.054054054054
 30
0
 11
-413.269501141171
 21
227.0540540540541
 31
0
  0
LINE
  8
1
 62
3
  6
DASHDOT
 10
-280.7695011411711
 20
219.5540540540543
 30
0
 11
-293.7695011411709
 21
219.5540540540542
 31
0
  0
LINE
  8
1
 62
3
  6
DASHDOT
 10
-319.5778526339537
 20
313.2457025612717
 30
0
 11
-328.7702407893788
 21
304.0533144058469
 31
0
  0
LINE
  8
1
 62
3
  6
DASHDOT
 10
-413.2695011411714
 20
352.0540540540543
 30
0
 11
-413.2695011411711
 21
339.0540540540543
 31
0
  0
LINE
  8
1
 62
3
  6
DASHDOT
 10
-506.9611496483888
 20
313.2457025612715
 30
0
 11
-497.7687614929635
 21
304.0533144058467
 31
0
  0
LINE
  8
1
 62
3
  6
DASHDOT
 10
-545.7695011411711
 20
219.554054054054
 30
0
 11
-532.7695011411711
 21
219.5540540540541
 31
0
  0
LINE
  8
1
 62
3
  6
DASHDOT
 10
-506.9611496483885
 20
125.8624055468363
 30
0
 11
-497.7687614929635
 21
135.0547937022616
 31
0
  0
LINE
  8
1
 62
3
  6
DASHDOT
 10
-413.2695011411708
 20
87.05405405405429
 30
0
 11
-413.2695011411709
 21
100.0540540540541
 31
0
  0
LINE
  8
1
 62
7
 10
-444.1649242560669
 20
276.5464571299425
 30
0
 11
-458.8846889843072
 21
301.6084007752876
 31
0
  0
LINE
  8
1
 62
7
 10
-461.5230559711277
 20
300.0851388852258
 30
0
 11
-447.1786584701652
 21
274.8064768701669
 31
0
  0
LINE
  8
1
 62
7
 10
-486.1562637176988
 20
278.7248324748751
 30
0
 11
-464.0311276309527
 21
259.8767332051829
 31
0
  0
LINE
  8
1
 62
7
 10
-461.7942521267867
 20
262.5425376234585
 30
0
 11
-484.1979959792198
 21
281.0586050874687
 31
0
  0
LINE
  8
1
 62
7
 10
-473.5707788795888
 20
243.353572556057
 30
0
 11
-500.9562797035665
 21
253.0904528345207
 31
0
  0
LINE
  8
1
 62
7
 10
-501.9982522034896
 20
250.2276569192896
 30
0
 11
-474.7609954752534
 21
240.0834793352082
 31
0
  0
LINE
  8
1
 62
7
 10
-507.1382438142644
 20
218.0307921639916
 30
0
 11
-478.0740815850606
 21
217.8140737942779
 31
0
  0
LINE
  8
1
 62
7
 10
-478.0740815850607
 20
221.2940343138292
 30
0
 11
-507.1382438142643
 21
221.0773159441152
 31
0
  0
LINE
  8
1
 62
7
 10
-500.9562797035669
 20
186.0176552735862
 30
0
 11
-473.5707788795883
 21
195.7545355520504
 31
0
  0
LINE
  8
1
 62
7
 10
-474.7609954752531
 20
199.024628772899
 30
0
 11
-501.9982522034896
 21
188.8804511888172
 31
0
  0
LINE
  8
1
 62
7
 10
-464.0311276309522
 20
179.2313749029247
 30
0
 11
-486.156263717699
 21
160.3832756332316
 31
0
  0
LINE
  8
1
 62
7
 10
-484.1979959792203
 20
158.049503020638
 30
0
 11
-461.7942521267864
 21
176.5655704846489
 31
0
  0
LINE
  8
1
 62
7
 10
-447.1786584701649
 20
164.3016312379411
 30
0
 11
-461.5230559711281
 21
139.0229692228809
 31
0
  0
LINE
  8
1
 62
7
 10
-458.8846889843076
 20
137.4997073328192
 30
0
 11
-444.1649242560665
 21
162.5616509781653
 31
0
  0
LINE
  8
1
 62
7
 10
-426.2362444896377
 20
156.0361452034946
 30
0
 11
-431.0697573654408
 21
127.3759001554017
 31
0
  0
LINE
  8
1
 62
7
 10
-395.4692449169015
 20
127.3759001554015
 30
0
 11
-400.3027577927047
 21
156.0361452034946
 31
0
  0
LINE
  8
1
 62
7
 10
-403.7298498925352
 20
155.4318564009217
 30
0
 11
-398.4694851553035
 21
126.8468768527641
 31
0
  0
LINE
  8
1
 62
7
 10
-382.3740780262759
 20
162.5616509781652
 30
0
 11
-367.6543132980349
 21
137.4997073328187
 31
0
  0
LINE
  8
1
 62
7
 10
-365.0159463112141
 20
139.0229692228808
 30
0
 11
-379.3603438121775
 21
164.3016312379407
 31
0
  0
LINE
  8
1
 62
7
 10
-364.7447501555562
 20
176.5655704846487
 30
0
 11
-342.341006303122
 21
158.0495030206375
 31
0
  0
LINE
  8
1
 62
7
 10
-340.382738564643
 20
160.3832756332312
 30
0
 11
-362.5078746513901
 21
179.2313749029244
 31
0
  0
LINE
  8
1
 62
7
 10
-352.968223402754
 20
195.7545355520497
 30
0
 11
-325.5827225787753
 21
186.0176552735856
 31
0
  0
LINE
  8
1
 62
7
 10
-324.5407500788522
 20
188.8804511888168
 30
0
 11
-351.7780068070891
 21
199.0246287728984
 31
0
  0
LINE
  8
1
 62
7
 10
-319.4007584680774
 20
221.077315944115
 30
0
 11
-348.4649206972813
 21
221.2940343138288
 31
0
  0
LINE
  8
1
 62
7
 10
-348.4649206972816
 20
217.8140737942772
 30
0
 11
-319.4007584680774
 21
218.0307921639909
 31
0
  0
LINE
  8
1
 62
7
 10
-325.5827225787751
 20
253.0904528345204
 30
0
 11
-352.968223402753
 21
243.3535725560563
 31
0
  0
LINE
  8
1
 62
7
 10
-351.7780068070886
 20
240.0834793352075
 30
0
 11
-324.540750078852
 21
250.2276569192891
 31
0
  0
LINE
  8
1
 62
7
 10
-342.3410063031218
 20
281.0586050874687
 30
0
 11
-364.7447501555549
 21
262.5425376234581
 31
0
  0
LINE
  8
1
 62
7
 10
-362.5078746513892
 20
259.8767332051822
 30
0
 11
-340.3827385646428
 21
278.7248324748749
 31
0
  0
LINE
  8
1
 62
7
 10
-379.3603438121764
 20
274.8064768701665
 30
0
 11
-365.0159463112137
 21
300.0851388852256
 31
0
  0
LINE
  8
1
 62
7
 10
-367.6543132980344
 20
301.6084007752876
 30
0
 11
-382.3740780262747
 21
276.5464571299423
 31
0
  0
LINE
  8
1
 62
7
 10
-398.4694851553032
 20
312.2612312553423
 30
0
 11
-403.7298498925343
 21
283.6762517071865
 31
0
  0
LINE
  8
1
 62
7
 10
-400.302757792704
 20
283.0719629046134
 30
0
 11
-395.4692449169011
 21
311.7322079527047
 31
0
  0
LINE
  8
1
 62
7
 10
-422.809152389807
 20
283.6762517071865
 30
0
 11
-428.0695171270384
 21
312.2612312553423
 31
0
  0
LINE
  8
1
 62
7
 10
-431.0697573654405
 20
311.7322079527049
 30
0
 11
-426.2362444896376
 21
283.0719629046135
 31
0
  0
LINE
  8
1
 62
7
 10
-442.7201600434922
 20
266.9494110843806
 30
0
 11
-431.2841822749395
 21
246.7961619288428
 31
0
  0
LINE
  8
1
 62
7
 10
-443.2259567347879
 20
232.5645093143686
 30
0
 11
-465.058869450897
 21
240.3271738941874
 31
0
  0
LINE
  8
1
 62
7
 10
-428.0695171270389
 20
126.8468768527642
 30
0
 11
-422.8091523898073
 21
155.4318564009217
 31
0
  0
LINE
  8
1
 62
7
 10
-444.5804369219129
 20
210.265002522964
 30
0
 11
-466.2951629952499
 21
202.1776228108482
 31
0
  0
LINE
  8
1
 62
7
 10
-466.2951629952502
 20
236.9304852972589
 30
0
 11
-444.580436921913
 21
228.8431055851434
 31
0
  0
LINE
  8
1
 62
7
 10
-465.0588694508965
 20
198.7809342139198
 30
0
 11
-443.2259567347875
 21
206.5435987937389
 31
0
  0
LINE
  8
1
 62
7
 10
-431.284182274939
 20
192.311946179265
 30
0
 11
-442.7201600434913
 21
172.158697023727
 31
0
  0
LINE
  8
1
 62
7
 10
-439.5897548997063
 20
170.3513567712903
 30
0
 11
-427.8545180464897
 21
190.3318286137397
 31
0
  0
LINE
  8
1
 62
7
 10
-395.2548200074023
 20
246.7961619288428
 30
0
 11
-383.8188422388499
 21
266.9494110843806
 31
0
  0
LINE
  8
1
 62
7
 10
-361.480132831445
 20
240.3271738941874
 30
0
 11
-383.3130455475539
 21
232.5645093143686
 31
0
  0
LINE
  8
1
 62
7
 10
-381.9585653604289
 20
228.8431055851434
 30
0
 11
-360.2438392870918
 21
236.9304852972588
 31
0
  0
LINE
  8
1
 62
7
 10
-360.243839287092
 20
202.177622810848
 30
0
 11
-381.958565360429
 21
210.265002522964
 31
0
  0
LINE
  8
1
 62
7
 10
-383.3130455475543
 20
206.5435987937389
 30
0
 11
-361.4801328314455
 21
198.7809342139198
 31
0
  0
LINE
  8
1
 62
7
 10
-383.8188422388506
 20
172.158697023727
 30
0
 11
-395.2548200074028
 21
192.311946179265
 31
0
  0
LINE
  8
1
 62
7
 10
-398.6844842358522
 20
190.3318286137397
 30
0
 11
-386.9492473826355
 21
170.3513567712903
 31
0
  0
LINE
  8
1
 62
7
 10
-386.9492473826356
 20
268.756751336818
 30
0
 11
-398.6844842358522
 21
248.7762794943684
 31
0
  0
LINE
  8
1
 62
7
 10
-427.8545180464897
 20
248.7762794943684
 30
0
 11
-439.5897548997064
 21
268.756751336818
 31
0
  0
LINE
  8
1
 62
7
 10
-403.269501141171
 20
182.5540540540541
 30
0
 11
-423.269501141171
 21
182.5540540540541
 31
0
  0
LINE
  8
1
 62
7
 10
-423.269501141171
 20
164.5540540540541
 30
0
 11
-403.269501141171
 21
164.5540540540541
 31
0
  0
LINE
  8
1
 62
7
 10
-423.2695011411711
 20
256.5540540540541
 30
0
 11
-403.2695011411711
 21
256.5540540540541
 31
0
  0
LINE
  8
1
 62
7
 10
-403.2695011411711
 20
274.5540540540541
 30
0
 11
-423.2695011411711
 21
274.5540540540541
 31
0
  0
LINE
  8
1
 62
7
 10
-360.8189197720231
 20
220.354054054054
 30
0
 11
-373.7200825103192
 21
220.354054054054
 31
0
  0
LINE
  8
1
 62
7
 10
-373.7200825103192
 20
218.7540540540539
 30
0
 11
-360.8189197720231
 21
218.7540540540539
 31
0
  0
LINE
  8
1
 62
7
 10
-382.4586586826716
 20
244.3630947657764
 30
0
 11
-372.5757946572263
 21
252.6558023245027
 31
0
  0
LINE
  8
1
 62
7
 10
-373.6042548327249
 20
253.8814734334932
 30
0
 11
-383.4871188581702
 21
245.5887658747669
 31
0
  0
LINE
  8
1
 62
7
 10
-383.4871188581699
 20
193.5193422333413
 30
0
 11
-373.6042548327246
 21
185.2266346746148
 31
0
  0
LINE
  8
1
 62
7
 10
-372.5757946572263
 20
186.4523057836051
 30
0
 11
-382.4586586826715
 21
194.7450133423316
 31
0
  0
LINE
  8
1
 62
7
 10
-452.818919772023
 20
220.354054054054
 30
0
 11
-465.7200825103191
 21
220.354054054054
 31
0
  0
LINE
  8
1
 62
7
 10
-465.7200825103191
 20
218.754054054054
 30
0
 11
-452.818919772023
 21
218.754054054054
 31
0
  0
LINE
  8
1
 62
7
 10
-444.0803435996706
 20
194.7450133423316
 30
0
 11
-453.9632076251159
 21
186.4523057836052
 31
0
  0
LINE
  8
1
 62
7
 10
-452.9347474496174
 20
185.226634674615
 30
0
 11
-443.0518834241721
 21
193.5193422333413
 31
0
  0
LINE
  8
1
 62
7
 10
-453.963207625116
 20
252.6558023245027
 30
0
 11
-444.0803435996707
 21
244.3630947657764
 31
0
  0
LINE
  8
1
 62
7
 10
-443.0518834241721
 20
245.5887658747669
 30
0
 11
-452.9347474496174
 21
253.8814734334932
 31
0
  0
LINE
  8
1
 62
7
 10
-550.7695011411711
 20
219.5540540540542
 30
0
 11
-550.7695011411711
 21
34.05405405405418
 31
0
  0
LINE
  8
1
 62
3
  6
DASHDOT
 10
-292.7695011411711
 20
54.55405405405418
 30
0
 11
-318.7695011411711
 21
54.55405405405418
 31
0
  0
LINE
  8
1
 62
3
  6
DASHDOT
 10
-305.7695011411711
 20
67.55405405405418
 30
0
 11
-305.7695011411711
 21
41.55405405405418
 31
0
  0
LINE
  8
1
 62
3
  6
DASHDOT
 10
-507.7695011411711
 20
54.55405405405418
 30
0
 11
-533.7695011411711
 21
54.55405405405418
 31
0
  0
LINE
  8
1
 62
3
  6
DASHDOT
 10
-520.7695011411711
 20
41.55405405405418
 30
0
 11
-520.7695011411711
 21
67.55405405405418
 31
0
  0
LINE
  8
1
 62
7
 10
-500.7695011411711
 20
24.05405405405418
 30
0
 11
-540.7695011411711
 21
24.05405405405418
 31
0
  0
LINE
  8
1
 62
7
 10
-325.7695011411711
 20
24.05405405405418
 30
0
 11
-285.7695011411711
 21
24.05405405405418
 31
0
  0
LINE
  8
1
 62
7
 10
-470.7695011411711
 20
74.05405405405418
 30
0
 11
-355.7695011411711
 21
74.05405405405418
 31
0
  0
LINE
  8
1
 62
7
 10
-335.7695011411711
 20
54.05405405405418
 30
0
 11
-335.7695011411711
 21
34.05405405405418
 31
0
  0
LINE
  8
1
 62
7
 10
-490.7695011411711
 20
34.05405405405418
 30
0
 11
-490.7695011411711
 21
54.05405405405418
 31
0
  0
LINE
  8
1
 62
7
 10
-275.7695011411711
 20
34.05405405405418
 30
0
 11
-275.7695011411711
 21
219.5540540540542
 31
0
  0
ARC
  8
1
 62
7
 10
-413.2695011411711
 20
219.5540540540541
 30
0
 40
21.50000000000004
 50
193.4477270445091
 51
166.5522729554909
  0
ARC
  8
1
 62
7
 10
189.615098003515
 20
219.5540540540541
 30
0
 40
23.99999999999999
 50
267.6119845367312
 51
272.3880154632687
  0
ARC
  8
1
 62
3
 10
189.615098003515
 20
219.5540540540541
 30
0
 40
22.94999999999993
 50
267.5026612042303
 51
272.4973387957697
  0
ARC
  8
1
 62
7
 10
189.615098003515
 20
219.5540540540541
 30
0
 40
22.94999999999993
 50
272.4973387957697
 51
267.5026612042303
  0
ARC
  8
1
 62
7
 10
154.377053620042
 20
249.1222840996349
 30
0
 40
2.349999999999979
 50
81.67243342642031
 51
198.3275665735825
  0
ARC
  8
1
 62
7
 10
154.377053620042
 20
249.1222840996349
 30
0
 40
2.350000000000008
 50
261.6724334264155
 51
18.32756657358431
  0
ARC
  8
1
 62
7
 10
189.615098003515
 20
219.5540540540541
 30
0
 40
39.00000000000004
 50
271.4692835813538
 51
268.5307164186462
  0
ARC
  8
1
 62
3
 10
189.615098003515
 20
219.5540540540541
 30
0
 40
23.99999999999999
 50
272.3880154632687
 51
267.6119845367312
  0
ARC
  8
1
 62
7
 10
189.615098003515
 20
219.5540540540541
 30
0
 40
53.00000000000004
 50
132.1626183538897
 51
227.8373816461103
  0
ARC
  8
1
 62
7
 10
189.615098003515
 20
219.5540540540541
 30
0
 40
52.99999999999996
 50
312.1626183538897
 51
47.83738164611034
  0
ARC
  8
1
 62
7
 10
154.377053620042
 20
189.9858240084733
 30
0
 40
7.999999999999973
 50
188.7177313716807
 51
251.2822686283195
  0
ARC
  8
1
 62
7
 10
143.615098003515
 20
219.5540540540541
 30
0
 40
7.999999999999987
 50
148.7177313716803
 51
211.2822686283195
  0
ARC
  8
1
 62
7
 10
154.377053620042
 20
249.1222840996349
 30
0
 40
7.99999999999995
 50
108.7177313716805
 51
171.2822686283191
  0
ARC
  8
1
 62
7
 10
224.853142386988
 20
189.9858240084733
 30
0
 40
7.999999999999995
 50
288.717731371679
 51
351.2822686283208
  0
ARC
  8
1
 62
7
 10
235.615098003515
 20
219.5540540540541
 30
0
 40
8.000000000000027
 50
328.7177313716791
 51
31.28226862832113
  0
ARC
  8
1
 62
7
 10
224.853142386988
 20
249.1222840996349
 30
0
 40
8.00000000000006
 50
8.71773137167941
 51
71.28226862832025
  0
ARC
  8
1
 62
7
 10
189.615098003515
 20
219.5540540540541
 30
0
 40
40.00000000000002
 50
50.00000000000016
 51
130
  0
ARC
  8
1
 62
7
 10
189.615098003515
 20
219.5540540540541
 30
0
 40
39.99999999999999
 50
229.9999999999999
 51
310
  0
ARC
  8
1
 62
7
 10
189.615098003515
 20
219.5540540540541
 30
0
 40
90.00000000000011
 50
58.86368234442313
 51
61.10663046897363
  0
ARC
  8
1
 62
7
 10
189.615098003515
 20
219.5540540540541
 30
0
 40
89.9999999999999
 50
38.86368234442317
 51
41.10663046897361
  0
ARC
  8
1
 62
7
 10
189.615098003515
 20
219.5540540540541
 30
0
 40
89.99999999999994
 50
18.86368234442309
 51
21.10663046897364
  0
ARC
  8
1
 62
7
 10
189.615098003515
 20
219.5540540540541
 30
0
 40
89.99999999999996
 50
358.8636823444231
 51
1.106630468973592
  0
ARC
  8
1
 62
7
 10
189.615098003515
 20
219.5540540540541
 30
0
 40
89.99999999999993
 50
338.863682344423
 51
341.1066304689736
  0
ARC
  8
1
 62
7
 10
189.615098003515
 20
219.5540540540541
 30
0
 40
89.99999999999999
 50
318.8636823444231
 51
321.1066304689736
  0
ARC
  8
1
 62
7
 10
189.615098003515
 20
219.5540540540541
 30
0
 40
89.99999999999999
 50
298.8636823444231
 51
301.1066304689736
  0
ARC
  8
1
 62
7
 10
189.615098003515
 20
219.5540540540541
 30
0
 40
90.00000000000006
 50
278.8636823444231
 51
281.1066304689736
  0
ARC
  8
1
 62
7
 10
189.615098003515
 20
219.5540540540541
 30
0
 40
90.00000000000001
 50
258.8636823444231
 51
261.1066304689736
  0
ARC
  8
1
 62
7
 10
189.615098003515
 20
219.5540540540541
 30
0
 40
90
 50
238.8636823444231
 51
241.1066304689736
  0
ARC
  8
1
 62
7
 10
189.615098003515
 20
219.5540540540541
 30
0
 40
90.00000000000003
 50
218.8636823444231
 51
221.1066304689735
  0
ARC
  8
1
 62
7
 10
189.615098003515
 20
219.5540540540541
 30
0
 40
90.00000000000006
 50
198.8636823444231
 51
201.1066304689736
  0
ARC
  8
1
 62
7
 10
189.615098003515
 20
219.5540540540541
 30
0
 40
90.00000000000014
 50
178.8636823444231
 51
181.1066304689735
  0
ARC
  8
1
 62
7
 10
189.615098003515
 20
219.5540540540541
 30
0
 40
90.0000000000002
 50
158.8636823444231
 51
161.1066304689736
  0
ARC
  8
1
 62
7
 10
189.615098003515
 20
219.5540540540541
 30
0
 40
90.00000000000011
 50
138.863682344423
 51
141.1066304689735
  0
ARC
  8
1
 62
7
 10
189.615098003515
 20
219.5540540540541
 30
0
 40
89.99999999999999
 50
118.8636823444231
 51
121.1066304689736
  0
ARC
  8
1
 62
7
 10
189.615098003515
 20
219.5540540540541
 30
0
 40
89.99999999999997
 50
98.8636823444231
 51
101.1066304689736
  0
ARC
  8
1
 62
7
 10
189.615098003515
 20
219.5540540540541
 30
0
 40
90.00000000000003
 50
78.8636823444231
 51
81.10663046897355
  0
ARC
  8
1
 62
7
 10
189.615098003515
 20
219.5540540540541
 30
0
 40
107.4999999999998
 50
160.8797404013027
 51
199.1202595986974
  0
ARC
  8
1
 62
7
 10
189.615098003515
 20
219.5540540540541
 30
0
 40
107.5
 50
340.8797404013026
 51
19.12025959869724
  0
ARC
  8
1
 62
7
 10
189.615098003515
 20
219.5540540540541
 30
0
 40
107.4999999999999
 50
40.8797404013027
 51
59.10739082184995
  0
ARC
  8
1
 62
7
 10
189.615098003515
 20
219.5540540540541
 30
0
 40
107.4999999999999
 50
20.87974040130273
 51
39.10739082184993
  0
ARC
  8
1
 62
7
 10
189.615098003515
 20
219.5540540540541
 30
0
 40
107.5
 50
320.8797404013027
 51
339.1073908218498
  0
ARC
  8
1
 62
7
 10
189.615098003515
 20
219.5540540540541
 30
0
 40
107.5000000000001
 50
300.8797404013026
 51
319.1073908218498
  0
ARC
  8
1
 62
7
 10
189.615098003515
 20
219.5540540540541
 30
0
 40
107.5
 50
280.8797404013027
 51
299.1073908218499
  0
ARC
  8
1
 62
7
 10
189.615098003515
 20
219.5540540540541
 30
0
 40
107.5
 50
260.8797404013027
 51
279.1073908218499
  0
ARC
  8
1
 62
7
 10
189.615098003515
 20
219.5540540540541
 30
0
 40
107.5
 50
240.8797404013027
 51
259.1073908218498
  0
ARC
  8
1
 62
7
 10
189.615098003515
 20
219.5540540540541
 30
0
 40
107.4999999999999
 50
220.8797404013027
 51
239.1073908218499
  0
ARC
  8
1
 62
7
 10
189.615098003515
 20
219.5540540540541
 30
0
 40
107.5
 50
200.8797404013027
 51
219.1073908218499
  0
ARC
  8
1
 62
7
 10
189.615098003515
 20
219.5540540540541
 30
0
 40
107.5000000000002
 50
140.8797404013027
 51
159.1073908218499
  0
ARC
  8
1
 62
7
 10
189.615098003515
 20
219.5540540540541
 30
0
 40
107.5000000000001
 50
120.8797404013027
 51
139.1073908218499
  0
ARC
  8
1
 62
7
 10
189.615098003515
 20
219.5540540540541
 30
0
 40
107.5
 50
100.8797404013027
 51
119.1073908218499
  0
ARC
  8
1
 62
7
 10
189.615098003515
 20
219.5540540540541
 30
0
 40
107.5
 50
80.87974040130268
 51
99.10739082184988
  0
ARC
  8
1
 62
7
 10
189.615098003515
 20
219.5540540540541
 30
0
 40
107.5
 50
60.87974040130269
 51
79.10739082184989
  0
ARC
  8
1
 62
7
 10
189.615098003515
 20
219.5540540540541
 30
0
 40
42.50000000000033
 50
52.98636085406415
 51
127.0136391459358
  0
ARC
  8
1
 62
7
 10
189.615098003515
 20
219.5540540540541
 30
0
 40
42.50000000000038
 50
232.9863608540643
 51
307.0136391459358
  0
ARC
  8
1
 62
7
 10
177.6150980035151
 20
176.7025663319221
 30
0
 40
2
 50
0
 51
74.35579030144899
  0
ARC
  8
1
 62
7
 10
170.9101511149162
 20
179.1761521534514
 30
0
 40
1.999999999999626
 50
65.14420486460408
 51
149.6921170174587
  0
ARC
  8
1
 62
7
 10
163.9992826503766
 20
183.1661439217873
 30
0
 40
1.999999999999901
 50
330.3078829825395
 51
54.85579513539761
  0
ARC
  8
1
 62
7
 10
162.8258701774144
 20
184.0211499723261
 30
0
 40
1.999999999999662
 50
52.98636085406455
 51
129.9999999999997
  0
ARC
  8
1
 62
7
 10
144.8063333106539
 20
187.0873221955725
 30
0
 40
1.999999999999929
 50
310.3078829825419
 51
16.84898680909945
  0
ARC
  8
1
 62
7
 10
149.8606484218865
 20
181.0638240036462
 30
0
 40
2.000000000002366
 50
63.15101319088472
 51
129.6921170174587
  0
ARC
  8
1
 62
7
 10
134.4203798418732
 20
215.6224948305469
 30
0
 40
1.999999999998876
 50
23.15101319089535
 51
89.69211701746062
  0
ARC
  8
1
 62
7
 10
134.4203798418732
 20
223.4856132775612
 30
0
 40
2.000000000000042
 50
270.3078829825394
 51
336.8489868091069
  0
ARC
  8
1
 62
7
 10
149.8606484218865
 20
258.044284104462
 30
0
 40
2.000000000000113
 50
230.3078829825433
 51
296.8489868091142
  0
ARC
  8
1
 62
7
 10
144.8063333106539
 20
252.0207859125356
 30
0
 40
1.999999999996898
 50
343.1510131909013
 51
49.69211701746018
  0
ARC
  8
1
 62
7
 10
162.8258701774144
 20
255.086958135782
 30
0
 40
1.999999999999961
 50
229.9999999999982
 51
307.0136391459354
  0
ARC
  8
1
 62
7
 10
163.9992826503766
 20
255.9419641863208
 30
0
 40
1.999999999999712
 50
305.1442048646024
 51
29.69211701746332
  0
ARC
  8
1
 62
7
 10
170.9101511149162
 20
259.9319559546567
 30
0
 40
2.000000000000088
 50
210.307882982542
 51
294.8557951353963
  0
ARC
  8
1
 62
7
 10
177.6150980035151
 20
262.405541776186
 30
0
 40
1.999999999999971
 50
285.6442096985508
 51
0
  0
ARC
  8
1
 62
7
 10
201.615098003515
 20
176.7025663319221
 30
0
 40
1.999999999999944
 50
105.644209698551
 51
180
  0
ARC
  8
1
 62
7
 10
208.3200448921139
 20
179.1761521534514
 30
0
 40
1.999999999999975
 50
30.30788298254294
 51
114.8557951353989
  0
ARC
  8
1
 62
7
 10
215.2309133566534
 20
183.1661439217873
 30
0
 40
1.999999999999663
 50
125.1442048646004
 51
209.6921170174605
  0
ARC
  8
1
 62
7
 10
216.4043258296156
 20
184.0211499723261
 30
0
 40
2.000000000000048
 50
50.00000000000033
 51
127.0136391459355
  0
ARC
  8
1
 62
7
 10
234.4238626963761
 20
187.0873221955725
 30
0
 40
1.999999999996906
 50
163.1510131909005
 51
229.6921170174605
  0
ARC
  8
1
 62
7
 10
229.3695475851435
 20
181.0638240036462
 30
0
 40
2.000000000000025
 50
50.30788298254124
 51
116.848986809116
  0
ARC
  8
1
 62
7
 10
244.8098161651569
 20
215.6224948305469
 30
0
 40
2.000000000000014
 50
90.30788298254183
 51
156.8489868091043
  0
ARC
  8
1
 62
7
 10
244.8098161651569
 20
223.4856132775612
 30
0
 40
1.999999999998817
 50
203.1510131908934
 51
269.6921170174581
  0
ARC
  8
1
 62
7
 10
229.3695475851435
 20
258.044284104462
 30
0
 40
2.000000000002455
 50
243.1510131908851
 51
309.6921170174567
  0
ARC
  8
1
 62
7
 10
234.4238626963761
 20
252.0207859125356
 30
0
 40
1.999999999999943
 50
130.3078829825373
 51
196.8489868090987
  0
ARC
  8
1
 62
7
 10
216.4043258296156
 20
255.086958135782
 30
0
 40
1.999999999999662
 50
232.9863608540645
 51
310.0000000000018
  0
ARC
  8
1
 62
7
 10
215.2309133566534
 20
255.9419641863208
 30
0
 40
1.999999999999958
 50
150.3078829825367
 51
234.8557951353996
  0
ARC
  8
1
 62
7
 10
208.3200448921139
 20
259.9319559546567
 30
0
 40
1.999999999999648
 50
245.1442048646007
 51
329.6921170174563
  0
ARC
  8
1
 62
7
 10
201.615098003515
 20
262.405541776186
 30
0
 40
2
 50
180
 51
254.3557903014492
  0
ARC
  8
1
 62
7
 10
143.615098003515
 20
219.5540540540541
 30
0
 40
2.349999999999801
 50
121.672433426422
 51
238.3275665735843
  0
ARC
  8
1
 62
7
 10
143.615098003515
 20
219.5540540540541
 30
0
 40
2.350000000000026
 50
301.6724334264137
 51
58.3275665735827
  0
ARC
  8
1
 62
7
 10
154.377053620042
 20
189.9858240084733
 30
0
 40
2.349999999999793
 50
161.6724334264251
 51
278.3275665735856
  0
ARC
  8
1
 62
7
 10
154.377053620042
 20
189.9858240084733
 30
0
 40
2.350000000000133
 50
341.6724334264133
 51
98.3275665735807
  0
ARC
  8
1
 62
7
 10
224.853142386988
 20
189.9858240084733
 30
0
 40
2.350000000000307
 50
261.6724334264138
 51
18.3275665735751
  0
ARC
  8
1
 62
7
 10
224.853142386988
 20
189.9858240084733
 30
0
 40
2.349999999999698
 50
81.67243342641932
 51
198.3275665735867
  0
ARC
  8
1
 62
7
 10
235.615098003515
 20
219.5540540540541
 30
0
 40
2.350000000000227
 50
301.6724334264164
 51
58.32756657357571
  0
ARC
  8
1
 62
7
 10
235.615098003515
 20
219.5540540540541
 30
0
 40
2.349999999999769
 50
121.6724334264167
 51
238.3275665735869
  0
ARC
  8
1
 62
7
 10
224.853142386988
 20
249.1222840996349
 30
0
 40
2.35000000000008
 50
341.6724334264172
 51
98.32756657357695
  0
ARC
  8
1
 62
7
 10
224.853142386988
 20
249.1222840996349
 30
0
 40
2.349999999999891
 50
161.6724334264157
 51
278.3275665735872
  0
ARC
  8
1
 62
7
 10
-55.25317435677779
 20
261.2415540540541
 30
0
 40
2.35073893151023
 50
142.3012451533187
 51
217.6987548466813
  0
ARC
  8
1
 62
7
 10
-48.93707915546386
 20
265.5540540540541
 30
0
 40
8.666834132824157
 50
160.6265294576772
 51
199.3734705423229
  0
ARC
  8
1
 62
7
 10
-55.25317435677779
 20
269.8665540540541
 30
0
 40
2.35073893151023
 50
142.3012451533187
 51
217.6987548466813
  0
ARC
  8
1
 62
7
 10
-56.3546522197983
 20
261.2415540540541
 30
0
 40
2.350738931510275
 50
322.3012451533195
 51
37.69875484668046
  0
ARC
  8
1
 62
7
 10
-62.67074742111231
 20
265.5540540540541
 30
0
 40
8.666834132824292
 50
340.6265294576775
 51
19.37347054232256
  0
ARC
  8
1
 62
7
 10
-56.35465221979821
 20
269.8665540540541
 30
0
 40
2.350738931510207
 50
322.3012451533182
 51
37.69875484668172
  0
ARC
  8
1
 62
7
 10
-413.2695011411711
 20
219.5540540540541
 30
0
 40
19.99999999999992
 50
194.47751218593
 51
165.5224878140701
  0
ARC
  8
1
 62
3
 10
-413.2695011411711
 20
219.5540540540541
 30
0
 40
125.9999999999999
 50
312.0439374965853
 51
317.9560625034147
  0
ARC
  8
1
 62
3
  6
DASHDOT
 10
-413.2695011411711
 20
219.5540540540541
 30
0
 40
126
 50
357.0439374965853
 51
2.956062503414663
  0
ARC
  8
1
 62
3
  6
DASHDOT
 10
-413.2695011411711
 20
219.5540540540541
 30
0
 40
126.0000000000002
 50
42.04393749658539
 51
47.9560625034147
  0
ARC
  8
1
 62
3
  6
DASHDOT
 10
-413.2695011411711
 20
219.5540540540541
 30
0
 40
126.0000000000001
 50
87.0439374965854
 51
92.95606250341464
  0
ARC
  8
1
 62
3
  6
DASHDOT
 10
-413.2695011411711
 20
219.5540540540541
 30
0
 40
126.0000000000002
 50
132.0439374965854
 51
137.9560625034145
  0
ARC
  8
1
 62
3
  6
DASHDOT
 10
-413.2695011411711
 20
219.5540540540541
 30
0
 40
125.9999999999999
 50
177.0439374965853
 51
182.9560625034145
  0
ARC
  8
1
 62
3
  6
DASHDOT
 10
-413.2695011411711
 20
219.5540540540541
 30
0
 40
126.0000000000002
 50
222.0439374965853
 51
227.9560625034145
  0
ARC
  8
1
 62
3
  6
DASHDOT
 10
-413.2695011411711
 20
219.5540540540541
 30
0
 40
126
 50
267.0439374965853
 51
272.9560625034147
  0
ARC
  8
1
 62
3
  6
DASHDOT
 10
-413.2695011411711
 20
219.5540540540541
 30
0
 40
126.0000000000001
 50
258.3758225496823
 51
265.1977560468414
  0
ARC
  8
1
 62
3
  6
DASHDOT
 10
-413.2695011411711
 20
219.5540540540541
 30
0
 40
126
 50
78.37582254968224
 51
85.19775604684133
  0
ARC
  8
1
 62
3
  6
DASHDOT
 10
-413.2695011411711
 20
219.5540540540541
 30
0
 40
126
 50
334.7713716986683
 51
340.2286283013316
  0
ARC
  8
1
 62
3
  6
DASHDOT
 10
-413.2695011411711
 20
219.5540540540541
 30
0
 40
125.9999999999999
 50
154.7713716986682
 51
160.2286283013316
  0
ARC
  8
1
 62
7
 10
-413.2695011411711
 20
219.5540540540541
 30
0
 40
97.00000000000003
 50
102.7580760935227
 51
117.2419239064774
  0
ARC
  8
1
 62
7
 10
-413.2695011411711
 20
219.5540540540541
 30
0
 40
61.99999999999989
 50
84.18180537895488
 51
95.8181946210445
  0
ARC
  8
1
 62
7
 10
-413.2695011411711
 20
219.5540540540541
 30
0
 40
61.9999999999999
 50
104.1818053789553
 51
115.8181946210448
  0
ARC
  8
1
 62
7
 10
-413.2695011411711
 20
219.5540540540541
 30
0
 40
61.99999999999983
 50
124.1818053789555
 51
135.8181946210449
  0
ARC
  8
1
 62
7
 10
-413.2695011411711
 20
219.5540540540541
 30
0
 40
61.99999999999995
 50
144.1818053789558
 51
155.8181946210451
  0
ARC
  8
1
 62
7
 10
-413.2695011411711
 20
219.5540540540541
 30
0
 40
62.00000000000004
 50
164.1818053789559
 51
175.8181946210452
  0
ARC
  8
1
 62
7
 10
-413.2695011411711
 20
219.5540540540541
 30
0
 40
61.99999999999994
 50
184.1818053789559
 51
195.8181946210451
  0
ARC
  8
1
 62
7
 10
-413.2695011411711
 20
219.5540540540541
 30
0
 40
61.99999999999996
 50
204.1818053789558
 51
215.8181946210449
  0
ARC
  8
1
 62
7
 10
-413.2695011411711
 20
219.5540540540541
 30
0
 40
61.99999999999986
 50
224.1818053789557
 51
235.8181946210448
  0
ARC
  8
1
 62
7
 10
-413.2695011411711
 20
219.5540540540541
 30
0
 40
62.00000000000001
 50
244.1818053789557
 51
255.8181946210448
  0
ARC
  8
1
 62
7
 10
-413.2695011411711
 20
219.5540540540541
 30
0
 40
62.00000000000004
 50
264.1818053789553
 51
275.8181946210443
  0
ARC
  8
1
 62
7
 10
-413.2695011411711
 20
219.5540540540541
 30
0
 40
62.00000000000001
 50
284.181805378955
 51
295.8181946210441
  0
ARC
  8
1
 62
7
 10
-413.2695011411711
 20
219.5540540540541
 30
0
 40
62.00000000000006
 50
304.1818053789548
 51
315.8181946210436
  0
ARC
  8
1
 62
7
 10
-413.2695011411711
 20
219.5540540540541
 30
0
 40
62.00000000000006
 50
324.1818053789547
 51
335.8181946210436
  0
ARC
  8
1
 62
7
 10
-413.2695011411711
 20
219.5540540540541
 30
0
 40
62.00000000000009
 50
344.1818053789546
 51
355.8181946210434
  0
ARC
  8
1
 62
7
 10
-413.2695011411711
 20
219.5540540540541
 30
0
 40
61.99999999999989
 50
4.181805378954542
 51
15.81819462104351
  0
ARC
  8
1
 62
7
 10
-413.2695011411711
 20
219.5540540540541
 30
0
 40
61.99999999999995
 50
24.1818053789544
 51
35.81819462104369
  0
ARC
  8
1
 62
7
 10
-413.2695011411711
 20
219.5540540540541
 30
0
 40
61.99999999999988
 50
44.18180537895461
 51
55.8181946210439
  0
ARC
  8
1
 62
7
 10
-413.2695011411711
 20
219.5540540540541
 30
0
 40
62.00000000000009
 50
64.18180537895474
 51
75.81819462104421
  0
ARC
  8
1
 62
7
 10
-413.2695011411711
 20
219.5540540540541
 30
0
 40
96.99999999999997
 50
122.7580760935227
 51
137.2419239064774
  0
ARC
  8
1
 62
7
 10
-413.2695011411711
 20
219.5540540540541
 30
0
 40
96.99999999999984
 50
142.7580760935227
 51
157.2419239064773
  0
ARC
  8
1
 62
7
 10
-413.2695011411711
 20
219.5540540540541
 30
0
 40
96.99999999999984
 50
162.7580760935227
 51
177.2419239064774
  0
ARC
  8
1
 62
7
 10
-413.2695011411711
 20
219.5540540540541
 30
0
 40
96.99999999999969
 50
182.7580760935228
 51
197.2419239064774
  0
ARC
  8
1
 62
7
 10
-413.2695011411711
 20
219.5540540540541
 30
0
 40
96.99999999999976
 50
202.7580760935227
 51
217.2419239064774
  0
ARC
  8
1
 62
7
 10
-413.2695011411711
 20
219.5540540540541
 30
0
 40
96.99999999999982
 50
222.7580760935228
 51
237.2419239064775
  0
ARC
  8
1
 62
7
 10
-413.2695011411711
 20
219.5540540540541
 30
0
 40
96.9999999999998
 50
242.7580760935229
 51
257.2419239064776
  0
ARC
  8
1
 62
7
 10
-413.2695011411711
 20
219.5540540540541
 30
0
 40
96.99999999999979
 50
262.7580760935229
 51
277.2419239064776
  0
ARC
  8
1
 62
7
 10
-413.2695011411711
 20
219.5540540540541
 30
0
 40
96.99999999999989
 50
282.7580760935228
 51
297.2419239064775
  0
ARC
  8
1
 62
7
 10
-413.2695011411711
 20
219.5540540540541
 30
0
 40
97.00000000000003
 50
302.7580760935228
 51
317.2419239064776
  0
ARC
  8
1
 62
7
 10
-413.2695011411711
 20
219.5540540540541
 30
0
 40
97
 50
322.7580760935229
 51
337.2419239064775
  0
ARC
  8
1
 62
7
 10
-413.2695011411711
 20
219.5540540540541
 30
0
 40
97.00000000000003
 50
342.7580760935227
 51
357.2419239064775
  0
ARC
  8
1
 62
7
 10
-413.2695011411711
 20
219.5540540540541
 30
0
 40
97.00000000000003
 50
2.758076093522702
 51
17.24192390647746
  0
ARC
  8
1
 62
7
 10
-413.2695011411711
 20
219.5540540540541
 30
0
 40
97.00000000000027
 50
22.75807609352266
 51
37.24192390647736
  0
ARC
  8
1
 62
7
 10
-413.2695011411711
 20
219.5540540540541
 30
0
 40
97.00000000000027
 50
42.75807609352265
 51
57.24192390647742
  0
ARC
  8
1
 62
7
 10
-413.2695011411711
 20
219.5540540540541
 30
0
 40
97.00000000000024
 50
62.75807609352261
 51
77.24192390647731
  0
ARC
  8
1
 62
7
 10
-413.2695011411711
 20
219.5540540540541
 30
0
 40
97.00000000000026
 50
82.75807609352269
 51
97.2419239064772
  0
ARC
  8
1
 62
7
 10
-413.2695011411711
 20
219.5540540540541
 30
0
 40
58.99999999999989
 50
124.9245525746478
 51
155.075447425353
  0
ARC
  8
1
 62
7
 10
-413.2695011411711
 20
219.5540540540541
 30
0
 40
58.99999999999998
 50
164.9245525746478
 51
195.0754474253531
  0
ARC
  8
1
 62
7
 10
-413.2695011411711
 20
219.5540540540541
 30
0
 40
58.99999999999989
 50
204.9245525746482
 51
235.0754474253533
  0
ARC
  8
1
 62
7
 10
-413.2695011411711
 20
219.5540540540541
 30
0
 40
59.00000000000021
 50
24.92455257464685
 51
55.07544742535193
  0
ARC
  8
1
 62
7
 10
-413.2695011411711
 20
219.5540540540541
 30
0
 40
59.00000000000026
 50
344.924552574647
 51
15.07544742535209
  0
ARC
  8
1
 62
7
 10
-413.2695011411711
 20
219.5540540540541
 30
0
 40
59.00000000000043
 50
304.924552574647
 51
335.075447425352
  0
ARC
  8
1
 62
7
 10
-413.2695011411711
 20
219.5540540540541
 30
0
 40
59.00000000000015
 50
244.9245525746481
 51
295.0754474253522
  0
ARC
  8
1
 62
7
 10
-413.2695011411711
 20
219.5540540540541
 30
0
 40
59.00000000000017
 50
64.92455257464795
 51
115.075447425352
  0
ARC
  8
1
 62
7
 10
-403.269501141171
 20
173.5540540540541
 30
0
 40
9
 50
270
 51
90
  0
ARC
  8
1
 62
7
 10
-423.269501141171
 20
173.5540540540541
 30
0
 40
9
 50
90
 51
270
  0
ARC
  8
1
 62
7
 10
-403.2695011411711
 20
265.5540540540541
 30
0
 40
9
 50
270
 51
90
  0
ARC
  8
1
 62
7
 10
-423.2695011411711
 20
265.5540540540541
 30
0
 40
9
 50
90
 51
270
  0
CIRCLE
  8
1
 62
7
 10
-413.2695011411711
 20
219.5540540540541
 30
0
 40
135.5
  0
CIRCLE
  8
1
 62
7
 10
189.615098003515
 20
219.5540540540541
 30
0
 40
137.5
  0
CIRCLE
  8
1
 62
7
 10
297.115098003515
 20
54.55405405405404
 30
0
 40
10
  0
CIRCLE
  8
1
 62
7
 10
82.11509800351502
 20
54.55405405405404
 30
0
 40
10
  0
CIRCLE
  8
1
 62
7
 10
154.377053620042
 20
189.9858240084733
 30
0
 40
5.000000000000082
  0
CIRCLE
  8
1
 62
3
 10
154.377053620042
 20
249.1222840996349
 30
0
 40
2.400000000000103
  0
CIRCLE
  8
1
 62
7
 10
154.377053620042
 20
249.1222840996349
 30
0
 40
3.000000000000012
  0
CIRCLE
  8
1
 62
7
 10
154.377053620042
 20
249.1222840996349
 30
0
 40
5.000000000000027
  0
CIRCLE
  8
1
 62
7
 10
143.615098003515
 20
219.5540540540541
 30
0
 40
5
  0
CIRCLE
  8
1
 62
7
 10
224.853142386988
 20
189.9858240084733
 30
0
 40
3.000000000000026
  0
CIRCLE
  8
1
 62
7
 10
224.853142386988
 20
189.9858240084733
 30
0
 40
5.000000000000082
  0
CIRCLE
  8
1
 62
7
 10
224.853142386988
 20
249.1222840996349
 30
0
 40
2.999999999999979
  0
CIRCLE
  8
1
 62
7
 10
224.853142386988
 20
249.1222840996349
 30
0
 40
5.000000000000027
  0
CIRCLE
  8
1
 62
7
 10
235.615098003515
 20
219.5540540540541
 30
0
 40
3
  0
CIRCLE
  8
1
 62
7
 10
235.615098003515
 20
219.5540540540541
 30
0
 40
5
  0
CIRCLE
  8
1
 62
7
 10
220.1031225763875
 20
232.1826073221021
 30
0
 40
2.749999999999982
  0
CIRCLE
  8
1
 62
7
 10
220.1031225763874
 20
206.9255007860061
 30
0
 40
2.75
  0
CIRCLE
  8
1
 62
7
 10
159.1270734306425
 20
206.9255007860061
 30
0
 40
2.750000000000062
  0
CIRCLE
  8
1
 62
7
 10
159.1270734306424
 20
232.1826073221021
 30
0
 40
2.75
  0
CIRCLE
  8
1
 62
7
 10
176.986544735467
 20
250.0420786269266
 30
0
 40
2.750000000000002
  0
CIRCLE
  8
1
 62
7
 10
202.243651271563
 20
250.0420786269266
 30
0
 40
2.75
  0
CIRCLE
  8
1
 62
3
 10
222.4490317627793
 20
309.7645456495013
 30
0
 40
4.278000000000022
  0
CIRCLE
  8
1
 62
7
 10
222.4490317627793
 20
309.7645456495013
 30
0
 40
4.863999999999916
  0
CIRCLE
  8
1
 62
7
 10
222.4490317627793
 20
309.7645456495013
 30
0
 40
2.886751345948037
  0
CIRCLE
  8
1
 62
7
 10
231.5125655609094
 20
334.6664001003279
 30
0
 40
8.000000000000012
  0
CIRCLE
  8
1
 62
7
 10
268.356580190116
 20
313.3944983361288
 30
0
 40
7.999999999999945
  0
CIRCLE
  8
1
 62
7
 10
295.7032099671087
 20
280.8040540540541
 30
0
 40
8.000000000000016
  0
CIRCLE
  8
1
 62
7
 10
310.2540477475103
 20
240.8259558182531
 30
0
 40
8.00000000000005
  0
CIRCLE
  8
1
 62
7
 10
310.2540477475104
 20
198.282152289855
 30
0
 40
7.999999999999938
  0
CIRCLE
  8
1
 62
7
 10
295.7032099671086
 20
158.3040540540539
 30
0
 40
7.999999999999893
  0
CIRCLE
  8
1
 62
7
 10
268.356580190116
 20
125.7136097719792
 30
0
 40
7.999999999999989
  0
CIRCLE
  8
1
 62
7
 10
231.5125655609094
 20
104.4417080077803
 30
0
 40
8.000000000000018
  0
CIRCLE
  8
1
 62
7
 10
189.615098003515
 20
97.05405405405412
 30
0
 40
8
  0
CIRCLE
  8
1
 62
7
 10
147.7176304461206
 20
104.4417080077804
 30
0
 40
8.000000000000012
  0
CIRCLE
  8
1
 62
7
 10
110.8736158169139
 20
125.7136097719793
 30
0
 40
8.000000000000107
  0
CIRCLE
  8
1
 62
7
 10
83.52698603992121
 20
158.3040540540541
 30
0
 40
7.999999999999992
  0
CIRCLE
  8
1
 62
7
 10
68.97614825951939
 20
198.2821522898552
 30
0
 40
7.999999999999956
  0
CIRCLE
  8
1
 62
7
 10
68.97614825951939
 20
240.8259558182531
 30
0
 40
8.00000000000005
  0
CIRCLE
  8
1
 62
7
 10
83.52698603992121
 20
280.8040540540541
 30
0
 40
8.000000000000066
  0
CIRCLE
  8
1
 62
7
 10
110.8736158169139
 20
313.3944983361289
 30
0
 40
8.000000000000043
  0
CIRCLE
  8
1
 62
7
 10
147.7176304461206
 20
334.6664001003278
 30
0
 40
8.000000000000052
  0
CIRCLE
  8
1
 62
7
 10
189.615098003515
 20
342.0540540540541
 30
0
 40
8
  0
CIRCLE
  8
1
 62
3
  6
DASHED
 10
-113.603913288288
 20
219.5540540540541
 30
0
 40
6
  0
CIRCLE
  8
1
 62
7
 10
189.615098003515
 20
219.5540540540541
 30
0
 40
17.5
  0
CIRCLE
  8
1
 62
3
 10
143.615098003515
 20
219.5540540540541
 30
0
 40
2.400000000000205
  0
CIRCLE
  8
1
 62
7
 10
143.615098003515
 20
219.5540540540541
 30
0
 40
3.000000000000199
  0
CIRCLE
  8
1
 62
3
 10
154.377053620042
 20
189.9858240084733
 30
0
 40
2.400000000000321
  0
CIRCLE
  8
1
 62
7
 10
154.377053620042
 20
189.9858240084733
 30
0
 40
3.000000000000252
  0
CIRCLE
  8
1
 62
3
 10
224.853142386988
 20
189.9858240084733
 30
0
 40
2.400000000000321
  0
CIRCLE
  8
1
 62
3
 10
235.615098003515
 20
219.5540540540541
 30
0
 40
2.400000000000205
  0
CIRCLE
  8
1
 62
3
 10
224.853142386988
 20
249.1222840996349
 30
0
 40
2.400000000000103
  0
CIRCLE
  8
1
 62
3
 10
-529.678322237593
 20
267.7721665320554
 30
0
 40
3
  0
CIRCLE
  8
1
 62
7
 10
-529.678322237593
 20
267.7721665320554
 30
0
 40
2.399999999999864
  0
CIRCLE
  8
1
 62
3
 10
-296.8606800447489
 20
171.3359415760526
 30
0
 40
3.000000000000114
  0
CIRCLE
  8
1
 62
7
 10
-296.8606800447489
 20
171.3359415760526
 30
0
 40
2.399999999999977
  0
CIRCLE
  8
1
 62
7
 10
-502.3649555706762
 20
130.458599624549
 30
0
 40
3.500000000000028
  0
CIRCLE
  8
1
 62
7
 10
-539.2695011411711
 20
219.5540540540541
 30
0
 40
3.500000000000114
  0
CIRCLE
  8
1
 62
7
 10
-502.364955570676
 20
308.6495084835592
 30
0
 40
3.499999999999948
  0
CIRCLE
  8
1
 62
7
 10
-413.2695011411708
 20
345.5540540540543
 30
0
 40
3.499999999999716
  0
CIRCLE
  8
1
 62
7
 10
-324.1740467116659
 20
308.6495084835589
 30
0
 40
3.499999999999747
  0
CIRCLE
  8
1
 62
7
 10
-287.269501141171
 20
219.5540540540541
 30
0
 40
3.5
  0
CIRCLE
  8
1
 62
7
 10
-324.1740467116661
 20
130.458599624549
 30
0
 40
3.499999999999968
  0
CIRCLE
  8
1
 62
7
 10
-395.2695011411711
 20
344.2617121990132
 30
0
 40
4.5
  0
CIRCLE
  8
1
 62
7
 10
-431.269501141171
 20
94.8463959090949
 30
0
 40
4.5
  0
CIRCLE
  8
1
 62
7
 10
-413.2695011411711
 20
93.55405405405406
 30
0
 40
3.5
  0
CIRCLE
  8
1
 62
7
 10
-413.2695011411711
 20
219.5540540540541
 30
0
 40
102.8000000000001
  0
CIRCLE
  8
1
 62
7
 10
-413.2695011411711
 20
219.5540540540541
 30
0
 40
135
  0
CIRCLE
  8
1
 62
7
 10
-413.2695011411711
 20
219.5540540540541
 30
0
 40
99.99999999999977
  0
CIRCLE
  8
1
 62
7
 10
-413.2695011411711
 20
219.5540540540541
 30
0
 40
29.99999999999983
  0
CIRCLE
  8
1
 62
7
 10
-378.031456757698
 20
249.1222840996348
 30
0
 40
12
  0
CIRCLE
  8
1
 62
7
 10
-367.2695011411711
 20
219.5540540540541
 30
0
 40
11.99999999999994
  0
CIRCLE
  8
1
 62
7
 10
-378.0314567576981
 20
189.9858240084732
 30
0
 40
12
  0
CIRCLE
  8
1
 62
7
 10
-448.5075455246441
 20
189.9858240084732
 30
0
 40
12
  0
CIRCLE
  8
1
 62
7
 10
-448.5075455246441
 20
249.1222840996348
 30
0
 40
12
  0
CIRCLE
  8
1
 62
7
 10
-459.269501141171
 20
219.5540540540541
 30
0
 40
12
  0
CIRCLE
  8
1
 62
7
 10
-448.5075455246441
 20
189.9858240084732
 30
0
 40
9
  0
CIRCLE
  8
1
 62
7
 10
-459.269501141171
 20
219.5540540540541
 30
0
 40
9
  0
CIRCLE
  8
1
 62
7
 10
-448.5075455246441
 20
249.1222840996348
 30
0
 40
9
  0
CIRCLE
  8
1
 62
7
 10
-378.031456757698
 20
249.1222840996348
 30
0
 40
9
  0
CIRCLE
  8
1
 62
7
 10
-367.2695011411711
 20
219.5540540540541
 30
0
 40
9
  0
CIRCLE
  8
1
 62
7
 10
-378.0314567576981
 20
189.9858240084732
 30
0
 40
9
  0
CIRCLE
  8
1
 62
7
 10
-378.031456757698
 20
249.1222840996348
 30
0
 40
6.5
  0
CIRCLE
  8
1
 62
7
 10
-367.2695011411711
 20
219.5540540540541
 30
0
 40
6.5
  0
CIRCLE
  8
1
 62
7
 10
-378.0314567576981
 20
189.9858240084732
 30
0
 40
6.5
  0
CIRCLE
  8
1
 62
7
 10
-448.5075455246441
 20
189.9858240084732
 30
0
 40
6.5
  0
CIRCLE
  8
1
 62
7
 10
-459.269501141171
 20
219.5540540540541
 30
0
 40
6.5
  0
CIRCLE
  8
1
 62
7
 10
-448.5075455246441
 20
249.1222840996348
 30
0
 40
6.5
  0
CIRCLE
  8
1
 62
7
 10
-520.7695011411711
 20
54.55405405405418
 30
0
 40
10
  0
CIRCLE
  8
1
 62
7
 10
-305.7695011411711
 20
54.55405405405418
 30
0
 40
10
  0
CIRCLE
  8
1
 62
7
 10
-413.2695011411711
 20
219.5540540540541
 30
0
 40
137.5
  0
CIRCLE
  8
1
 62
3
 10
-413.2695011411711
 20
219.5540540540541
 30
0
 40
110.0000000000001
  0
CIRCLE
  8
1
 62
7
 10
-413.2695011411711
 20
219.5540540540541
 30
0
 40
17.5
  0
ARC
  8
1
 62
7
 10
132.115098003515
 20
54.05405405405405
 30
0
 40
20
 50
90
 51
180
  0
ARC
  8
1
 62
7
 10
247.115098003515
 20
54.05405405405407
 30
0
 40
20.00000000000003
 50
0
 51
90
  0
ARC
  8
1
 62
7
 10
317.115098003515
 20
34.05405405405409
 30
0
 40
10
 50
270
 51
0
  0
ARC
  8
1
 62
7
 10
277.115098003515
 20
34.05405405405408
 30
0
 40
10
 50
180
 51
270
  0
ARC
  8
1
 62
7
 10
102.115098003515
 20
34.05405405405405
 30
0
 40
10
 50
270
 51
0
  0
ARC
  8
1
 62
7
 10
62.11509800351507
 20
34.05405405405403
 30
0
 40
10
 50
180
 51
270
  0
ARC
  8
1
 62
7
 10
178.1150980035151
 20
158.5540540540541
 30
0
 40
1.5
 50
270
 51
0
  0
ARC
  8
1
 62
7
 10
177.8818099440933
 20
155.5540540540541
 30
0
 40
1.5
 50
90
 51
170.3604867849359
  0
ARC
  8
1
 62
7
 10
181.2629944340117
 20
150.0540540540541
 30
0
 40
2
 50
90
 51
169.7001819058828
  0
ARC
  8
1
 62
7
 10
166.3385323785001
 20
87.59117459928558
 30
0
 40
1.499999999999995
 50
170.2998180941186
 51
259.9999999999993
  0
ARC
  8
1
 62
7
 10
166.3539520137926
 20
87.58845570155086
 30
0
 40
1.499999999999995
 50
260.0000000000003
 51
349.7001819058822
  0
ARC
  8
1
 62
7
 10
178.1150980035151
 20
280.5540540540541
 30
0
 40
1.5
 50
0
 51
90
  0
ARC
  8
1
 62
7
 10
177.8818099440933
 20
283.5540540540541
 30
0
 40
1.500000000000013
 50
189.6395132150641
 51
270
  0
ARC
  8
1
 62
7
 10
181.2629944340117
 20
289.0540540540541
 30
0
 40
1.999999999999949
 50
190.2998180941205
 51
270
  0
ARC
  8
1
 62
7
 10
122.6220597899124
 20
103.5026305576886
 30
0
 40
1.500000000000037
 50
240.0000000000008
 51
329.6921170174598
  0
ARC
  8
1
 62
7
 10
122.6081362171176
 20
103.5106693361897
 30
0
 40
1.499999999999952
 50
150.3078829825367
 51
239.9999999999986
  0
ARC
  8
1
 62
7
 10
86.97030985278963
 20
133.4143562944573
 30
0
 40
1.500000000000033
 50
219.9999999999987
 51
309.6921170174572
  0
ARC
  8
1
 62
7
 10
86.95997539835429
 20
133.426672417658
 30
0
 40
1.499999999999958
 50
130.3078829825391
 51
220.0000000000015
  0
ARC
  8
1
 62
7
 10
63.69903624237838
 20
173.7158008675767
 30
0
 40
1.499999999999993
 50
199.999999999999
 51
289.6921170174577
  0
ARC
  8
1
 62
7
 10
63.69353739402811
 20
173.7309088292521
 30
0
 40
1.499999999999986
 50
110.3078829825374
 51
199.9999999999982
  0
ARC
  8
1
 62
7
 10
63.69353739402811
 20
265.3771992788559
 30
0
 40
1.500000000000014
 50
160.0000000000059
 51
249.6921170174626
  0
ARC
  8
1
 62
7
 10
63.69903624237838
 20
265.3923072405314
 30
0
 40
1.499999999999964
 50
70.30788298254123
 51
160.0000000000031
  0
ARC
  8
1
 62
7
 10
86.95997539835429
 20
305.6814356904499
 30
0
 40
1.500000000000001
 50
139.999999999996
 51
229.6921170174609
  0
ARC
  8
1
 62
7
 10
86.97030985278963
 20
305.6937518136506
 30
0
 40
1.499999999999943
 50
50.30788298254556
 51
139.9999999999971
  0
ARC
  8
1
 62
7
 10
122.6081362171176
 20
335.5974387719182
 30
0
 40
1.500000000000074
 50
119.9999999999984
 51
209.692117017461
  0
ARC
  8
1
 62
7
 10
122.6220597899124
 20
335.6054775504194
 30
0
 40
1.500000000000005
 50
30.3078829825402
 51
119.9999999999984
  0
ARC
  8
1
 62
7
 10
166.3385323785001
 20
351.5169335088225
 30
0
 40
1.500000000000112
 50
99.99999999999999
 51
189.7001819058814
  0
ARC
  8
1
 62
7
 10
166.3539520137926
 20
351.5196524065573
 30
0
 40
1.499999999999938
 50
10.29981809411565
 51
100.0000000000001
  0
ARC
  8
1
 62
7
 10
85.61509800351507
 20
219.3848065712157
 30
0
 40
1.5
 50
180
 51
269.6921170174601
  0
ARC
  8
1
 62
7
 10
85.61509800351507
 20
219.7233015368923
 30
0
 40
1.500000000000045
 50
90.30788298253991
 51
180
  0
ARC
  8
1
 62
7
 10
201.115098003515
 20
158.5540540540541
 30
0
 40
1.5
 50
180
 51
270
  0
ARC
  8
1
 62
7
 10
201.3483860629367
 20
155.5540540540541
 30
0
 40
1.500000000000013
 50
9.639513215064067
 51
90
  0
ARC
  8
1
 62
7
 10
197.9672015730183
 20
150.0540540540541
 30
0
 40
1.999999999999956
 50
10.2998180941171
 51
90
  0
ARC
  8
1
 62
7
 10
212.89166362853
 20
87.59117459928558
 30
0
 40
1.49999999999998
 50
279.9999999999965
 51
9.700181905881571
  0
ARC
  8
1
 62
7
 10
212.8762439932374
 20
87.58845570155086
 30
0
 40
1.499999999999949
 50
190.2998180941178
 51
280.000000000004
  0
ARC
  8
1
 62
7
 10
201.115098003515
 20
280.5540540540541
 30
0
 40
1.5
 50
90
 51
180
  0
ARC
  8
1
 62
7
 10
201.3483860629367
 20
283.5540540540541
 30
0
 40
1.5
 50
270
 51
350.360486784936
  0
ARC
  8
1
 62
7
 10
197.9672015730183
 20
289.0540540540541
 30
0
 40
2
 50
270
 51
349.7001819058797
  0
ARC
  8
1
 62
7
 10
256.6081362171176
 20
103.5026305576886
 30
0
 40
1.499999999999993
 50
210.3078829825405
 51
299.9999999999992
  0
ARC
  8
1
 62
7
 10
256.6220597899124
 20
103.5106693361897
 30
0
 40
1.499999999999939
 50
300.0000000000013
 51
29.69211701746093
  0
ARC
  8
1
 62
7
 10
292.2598861542405
 20
133.4143562944573
 30
0
 40
1.499999999999965
 50
230.3078829825378
 51
319.9999999999985
  0
ARC
  8
1
 62
7
 10
292.2702206086757
 20
133.426672417658
 30
0
 40
1.499999999999946
 50
319.9999999999985
 51
49.69211701746093
  0
ARC
  8
1
 62
7
 10
315.5311597646517
 20
173.7158008675767
 30
0
 40
1.500000000000042
 50
250.3078829825426
 51
340.0000000000003
  0
ARC
  8
1
 62
7
 10
315.5366586130019
 20
173.7309088292521
 30
0
 40
1.5
 50
340.0000000000011
 51
69.69211701746055
  0
ARC
  8
1
 62
7
 10
315.5366586130019
 20
265.3771992788559
 30
0
 40
1.500000000000005
 50
290.3078829825394
 51
19.99999999999481
  0
ARC
  8
1
 62
7
 10
315.5311597646517
 20
265.3923072405314
 30
0
 40
1.499999999999927
 50
19.99999999999759
 51
109.6921170174585
  0
ARC
  8
1
 62
7
 10
292.2702206086757
 20
305.6814356904499
 30
0
 40
1.499999999999958
 50
310.307882982539
 51
40.00000000000399
  0
ARC
  8
1
 62
7
 10
292.2598861542405
 20
305.6937518136506
 30
0
 40
1.500000000000038
 50
40.00000000000565
 51
129.6921170174595
  0
ARC
  8
1
 62
7
 10
256.6220597899124
 20
335.5974387719182
 30
0
 40
1.500000000000056
 50
330.3078829825395
 51
60.00000000000163
  0
ARC
  8
1
 62
7
 10
256.6081362171176
 20
335.6054775504194
 30
0
 40
1.500000000000074
 50
60.00000000000163
 51
149.6921170174595
  0
ARC
  8
1
 62
7
 10
212.89166362853
 20
351.5169335088225
 30
0
 40
1.499999999999967
 50
350.2998180941185
 51
80.00000000000429
  0
ARC
  8
1
 62
7
 10
212.8762439932374
 20
351.5196524065573
 30
0
 40
1.499999999999958
 50
79.99999999999568
 51
169.7001819058844
  0
ARC
  8
1
 62
7
 10
293.615098003515
 20
219.3848065712157
 30
0
 40
1.500000000000045
 50
270.3078829825399
 51
0
  0
ARC
  8
1
 62
7
 10
293.615098003515
 20
219.7233015368923
 30
0
 40
1.5
 50
0
 51
89.69211701746008
  0
ARC
  8
1
 62
7
 10
-122.6851548282927
 20
118.5540540540541
 30
0
 40
0.9999999999999548
 50
7.224315694043836
 51
90
  0
ARC
  8
1
 62
7
 10
-115.5414302082787
 20
86.05405405405411
 30
0
 40
2.00000000000003
 50
187.224315694045
 51
270
  0
ARC
  8
1
 62
7
 10
-122.6851548282927
 20
320.5540540540541
 30
0
 40
1
 50
270
 51
352.7756843059545
  0
ARC
  8
1
 62
7
 10
-115.5414302082787
 20
353.0540540540541
 30
0
 40
2
 50
90
 51
172.7756843059566
  0
ARC
  8
1
 62
7
 10
-93.79850145140085
 20
353.0540540540541
 30
0
 40
1.999999999999911
 50
28.30075576600506
 51
90
  0
ARC
  8
1
 62
7
 10
-71.10391328828803
 20
308.797701313954
 30
0
 40
3
 50
0
 51
28.30075576600741
  0
ARC
  8
1
 62
7
 10
-93.79850145140085
 20
86.05405405405411
 30
0
 40
2
 50
270
 51
331.6992442339928
  0
ARC
  8
1
 62
7
 10
-71.10391328828803
 20
130.3104067941542
 30
0
 40
2.999999999999997
 50
331.6992442339926
 51
0
  0
ARC
  8
1
 62
7
 10
-174.603913288288
 20
251.8634551308126
 30
0
 40
2.000000000000041
 50
299.9999999999993
 51
0
  0
ARC
  8
1
 62
7
 10
-174.603913288288
 20
187.2446529772956
 30
0
 40
2
 50
0
 51
60.00000000000028
  0
ARC
  8
1
 62
7
 10
-145.103913288288
 20
100.2999732228187
 30
0
 40
2.000000000000009
 50
97.49585763973079
 51
180
  0
ARC
  8
1
 62
7
 10
-145.103913288288
 20
338.8081348852895
 30
0
 40
2
 50
180
 51
262.5041423602693
  0
ARC
  8
1
 62
7
 10
-456.2978695102354
 20
303.1277312227422
 30
0
 40
2.999999999999916
 50
117.2419239064782
 51
210.427220908947
  0
ARC
  8
1
 62
7
 10
-419.858695601319
 20
284.2192109499152
 30
0
 40
2.9999999999999
 50
190.4272209089447
 51
275.8181946210447
  0
ARC
  8
1
 62
7
 10
-406.6803066810224
 20
284.2192109499152
 30
0
 40
2.999999999999996
 50
264.1818053789545
 51
349.5727790910556
  0
ARC
  8
1
 62
7
 10
-429.1944699597457
 20
282.5730620447185
 30
0
 40
3.000000000000069
 50
284.1818053789544
 51
9.572779091050705
  0
ARC
  8
1
 62
7
 10
-441.5781047819949
 20
278.0657875773974
 30
0
 40
3.000000000000264
 50
210.4272209089492
 51
295.8181946210404
  0
ARC
  8
1
 62
7
 10
-449.7878469714399
 20
273.3258907143437
 30
0
 40
2.999999999999986
 50
304.181805378953
 51
29.57277909105424
  0
ARC
  8
1
 62
7
 10
-459.8830785730937
 20
264.8549856007468
 30
0
 40
3.000000000000039
 50
230.4272209089498
 51
315.8181946210455
  0
ARC
  8
1
 62
7
 10
-465.9765725226196
 20
257.5930422949485
 30
0
 40
3.000000000000159
 50
324.1818053789536
 51
49.57277909104962
  0
ARC
  8
1
 62
7
 10
-472.5657669827677
 20
246.1802227090202
 30
0
 40
2.999999999999798
 50
250.4272209089505
 51
335.8181946210463
  0
ARC
  8
1
 62
7
 10
-475.8080473916685
 20
237.272130498025
 30
0
 40
2.999999999999964
 50
344.1818053789536
 51
69.57277909105044
  0
ARC
  8
1
 62
7
 10
-478.0964506122639
 20
224.2939509171071
 30
0
 40
3.000000000000082
 50
270.4272209089507
 51
355.8181946210418
  0
ARC
  8
1
 62
7
 10
-478.0964506122637
 20
214.8141571910002
 30
0
 40
2.999999999999951
 50
4.181805378952393
 51
89.57277909105035
  0
ARC
  8
1
 62
7
 10
-475.8080473916681
 20
201.8359776100821
 30
0
 40
2.99999999999984
 50
290.4272209089493
 51
15.81819462104853
  0
ARC
  8
1
 62
7
 10
-472.5657669827671
 20
192.9278853990868
 30
0
 40
2.99999999999999
 50
24.18180537896005
 51
109.5727790910488
  0
ARC
  8
1
 62
7
 10
-465.9765725226191
 20
181.5150658131591
 30
0
 40
3.000000000000025
 50
310.4272209089507
 51
35.81819462104645
  0
ARC
  8
1
 62
7
 10
-459.8830785730933
 20
174.2531225073607
 30
0
 40
3.000000000000222
 50
44.18180537895735
 51
129.572779091052
  0
ARC
  8
1
 62
7
 10
-449.7878469714397
 20
165.7822173937641
 30
0
 40
2.999999999999885
 50
330.4272209089497
 51
55.81819462104668
  0
ARC
  8
1
 62
7
 10
-441.5781047819947
 20
161.0423205307106
 30
0
 40
3.000000000000068
 50
64.18180537895569
 51
149.5727790910525
  0
ARC
  8
1
 62
7
 10
-429.1944699597457
 20
156.5350460633896
 30
0
 40
2.999999999999889
 50
350.4272209089495
 51
75.81819462104521
  0
ARC
  8
1
 62
7
 10
-419.8586956013192
 20
154.8888971581927
 30
0
 40
3.000000000000098
 50
84.18180537895687
 51
169.5727790910493
  0
ARC
  8
1
 62
7
 10
-406.6803066810233
 20
154.8888971581927
 30
0
 40
3.000000000000073
 50
10.42722090895074
 51
95.81819462104352
  0
ARC
  8
1
 62
7
 10
-397.3445323225967
 20
156.5350460633895
 30
0
 40
3.000000000000083
 50
104.1818053789555
 51
189.5727790910487
  0
ARC
  8
1
 62
7
 10
-384.9608975003477
 20
161.0423205307105
 30
0
 40
2.999999999999981
 50
30.42722090894852
 51
115.8181946210443
  0
ARC
  8
1
 62
7
 10
-376.7511553109028
 20
165.782217393764
 30
0
 40
2.99999999999986
 50
124.1818053789534
 51
209.5727790910556
  0
ARC
  8
1
 62
7
 10
-366.6559237092493
 20
174.2531225073604
 30
0
 40
3.000000000000133
 50
50.42722090894849
 51
135.8181946210454
  0
ARC
  8
1
 62
7
 10
-360.5624297597231
 20
181.5150658131588
 30
0
 40
3.000000000000109
 50
144.1818053789549
 51
229.5727790910476
  0
ARC
  8
1
 62
7
 10
-353.973235299575
 20
192.9278853990865
 30
0
 40
2.99999999999976
 50
70.42722090895258
 51
155.8181946210481
  0
ARC
  8
1
 62
7
 10
-350.730954890674
 20
201.8359776100817
 30
0
 40
2.999999999999987
 50
164.1818053789521
 51
249.57277909105
  0
ARC
  8
1
 62
7
 10
-348.4425516700783
 20
214.8141571909995
 30
0
 40
2.999999999999856
 50
90.42722090895403
 51
175.8181946210483
  0
ARC
  8
1
 62
7
 10
-348.4425516700783
 20
224.2939509171065
 30
0
 40
3.000000000000064
 50
184.1818053789522
 51
269.5727790910525
  0
ARC
  8
1
 62
7
 10
-350.7309548906736
 20
237.2721304980244
 30
0
 40
2.99999999999984
 50
110.4272209089493
 51
195.818194621047
  0
ARC
  8
1
 62
7
 10
-353.9732352995744
 20
246.1802227090197
 30
0
 40
2.999999999999863
 50
204.1818053789546
 51
289.5727790910543
  0
ARC
  8
1
 62
7
 10
-360.5624297597222
 20
257.5930422949479
 30
0
 40
2.999999999999991
 50
130.4272209089541
 51
215.8181946210451
  0
ARC
  8
1
 62
7
 10
-366.6559237092479
 20
264.8549856007463
 30
0
 40
3.000000000000085
 50
224.1818053789515
 51
309.5727790910501
  0
ARC
  8
1
 62
7
 10
-376.7511553109017
 20
273.3258907143435
 30
0
 40
2.999999999999786
 50
150.4272209089486
 51
235.8181946210476
  0
ARC
  8
1
 62
7
 10
-384.9608975003465
 20
278.065787577397
 30
0
 40
2.999999999999863
 50
244.1818053789538
 51
329.572779091053
  0
ARC
  8
1
 62
7
 10
-397.3445323225959
 20
282.5730620447182
 30
0
 40
3.00000000000009
 50
170.4272209089463
 51
255.8181946210445
  0
ARC
  8
1
 62
7
 10
-434.0279828355484
 20
311.2333070928097
 30
0
 40
2.999999999999875
 50
9.57277909105553
 51
102.7580760935251
  0
ARC
  8
1
 62
7
 10
-464.1322444724022
 20
298.6045527294026
 30
0
 40
2.999999999999722
 50
29.57277909105586
 51
122.7580760935263
  0
ARC
  8
1
 62
7
 10
-482.2868224255263
 20
283.3710530647569
 30
0
 40
2.999999999999975
 50
137.2419239064783
 51
230.4272209089409
  0
ARC
  8
1
 62
7
 10
-488.1017086093655
 20
276.4411415646408
 30
0
 40
2.999999999999807
 50
49.57277909104999
 51
142.758076093518
  0
ARC
  8
1
 62
7
 10
-499.9512678067445
 20
255.9171029874843
 30
0
 40
2.999999999999973
 50
157.2419239064769
 51
250.4272209089367
  0
ARC
  8
1
 62
7
 10
-503.0453041199042
 20
247.4163080821065
 30
0
 40
2.9999999999997
 50
69.57277909105781
 51
162.7580760935152
  0
ARC
  8
1
 62
7
 10
-507.1606128414664
 20
224.0772325473936
 30
0
 40
2.999999999999885
 50
177.241923906478
 51
270.4272209089301
  0
ARC
  8
1
 62
7
 10
-507.1606128414667
 20
215.030875560714
 30
0
 40
2.999999999999763
 50
89.57277909106661
 51
182.7580760935168
  0
ARC
  8
1
 62
7
 10
-503.0453041199036
 20
191.6918000260014
 30
0
 40
2.999999999999974
 50
197.2419239064793
 51
290.4272209089247
  0
ARC
  8
1
 62
7
 10
-499.9512678067446
 20
183.1910051206233
 30
0
 40
2.999999999999929
 50
109.5727790910728
 51
202.7580760935135
  0
ARC
  8
1
 62
7
 10
-488.1017086093648
 20
162.6669665434674
 30
0
 40
2.999999999999899
 50
217.2419239064774
 51
310.427220908917
  0
ARC
  8
1
 62
7
 10
-482.2868224255262
 20
155.7370550433508
 30
0
 40
2.999999999999894
 50
129.5727790910792
 51
222.7580760935177
  0
ARC
  8
1
 62
7
 10
-464.1322444724021
 20
140.5035553787058
 30
0
 40
3.00000000000011
 50
237.2419239064801
 51
330.4272209089106
  0
ARC
  8
1
 62
7
 10
-456.2978695102349
 20
135.9803768853657
 30
0
 40
3.00000000000021
 50
149.5727790910805
 51
242.7580760935184
  0
ARC
  8
1
 62
7
 10
-434.0279828355482
 20
127.8748010152987
 30
0
 40
3.000000000000127
 50
257.2419239064782
 51
350.4272209089094
  0
ARC
  8
1
 62
7
 10
-425.1190603385501
 20
126.3039176100368
 30
0
 40
3.000000000000451
 50
169.572779091082
 51
262.7580760935175
  0
ARC
  8
1
 62
7
 10
-401.4199419437912
 20
126.3039176100373
 30
0
 40
3.000000000000082
 50
277.2419239064769
 51
10.42722090891067
  0
ARC
  8
1
 62
7
 10
-392.5110194467929
 20
127.8748010152983
 30
0
 40
3.000000000000866
 50
189.5727790910829
 51
282.7580760935151
  0
ARC
  8
1
 62
7
 10
-370.2411327721066
 20
135.9803768853661
 30
0
 40
2.999999999999941
 50
297.241923906478
 51
30.42722090891444
  0
ARC
  8
1
 62
7
 10
-362.4067578099389
 20
140.5035553787058
 30
0
 40
3.000000000001277
 50
209.5727790910796
 51
302.7580760935109
  0
ARC
  8
1
 62
7
 10
-344.2521798568155
 20
155.7370550433514
 30
0
 40
3.000000000000052
 50
317.2419239064767
 51
50.42722090891649
  0
ARC
  8
1
 62
7
 10
-326.5877344755973
 20
183.191005120624
 30
0
 40
3.000000000000097
 50
337.2419239064797
 51
70.42722090892397
  0
ARC
  8
1
 62
7
 10
-338.4372936729763
 20
162.6669665434677
 30
0
 40
3.000000000001479
 50
229.5727790910786
 51
322.7580760935119
  0
ARC
  8
1
 62
7
 10
-323.4936981624376
 20
191.6918000260019
 30
0
 40
3.000000000001592
 50
249.5727790910713
 51
342.7580760935124
  0
ARC
  8
1
 62
7
 10
-319.3783894408755
 20
215.0308755607147
 30
0
 40
3.00000000000005
 50
357.2419239064803
 51
90.42722090892708
  0
ARC
  8
1
 62
7
 10
-323.4936981624383
 20
247.4163080821069
 30
0
 40
3.000000000000217
 50
17.24192390647953
 51
110.4272209089318
  0
ARC
  8
1
 62
7
 10
-319.3783894408751
 20
224.0772325473944
 30
0
 40
3.000000000001553
 50
269.5727790910658
 51
2.758076093510864
  0
ARC
  8
1
 62
7
 10
-338.437293672977
 20
276.441141564641
 30
0
 40
3.000000000000104
 50
37.2419239064772
 51
130.427220908941
  0
ARC
  8
1
 62
7
 10
-326.5877344755973
 20
255.9171029874849
 30
0
 40
3.00000000000141
 50
289.5727790910615
 51
22.75807609351337
  0
ARC
  8
1
 62
7
 10
-362.4067578099396
 20
298.6045527294026
 30
0
 40
3.000000000000301
 50
57.24192390648239
 51
150.4272209089432
  0
ARC
  8
1
 62
7
 10
-344.2521798568158
 20
283.3710530647577
 30
0
 40
3.000000000001216
 50
309.5727790910569
 51
42.75807609351168
  0
ARC
  8
1
 62
7
 10
-370.2411327721068
 20
303.1277312227428
 30
0
 40
3.000000000000779
 50
329.5727790910491
 51
62.75807609351542
  0
ARC
  8
1
 62
7
 10
-392.5110194467935
 20
311.2333070928099
 30
0
 40
3.000000000000002
 50
77.24192390647761
 51
170.4272209089521
  0
ARC
  8
1
 62
7
 10
-401.4199419437917
 20
312.8041904980715
 30
0
 40
3.000000000000496
 50
349.5727790910474
 51
82.75807609351831
  0
ARC
  8
1
 62
7
 10
-425.1190603385506
 20
312.8041904980711
 30
0
 40
3.000000000000315
 50
97.24192390647532
 51
190.4272209089475
  0
ARC
  8
1
 62
7
 10
-433.8933707762145
 20
245.3155757730198
 30
0
 40
3.000000000000171
 50
308.6796733831018
 51
29.5727790910482
  0
ARC
  8
1
 62
7
 10
-442.2209448379668
 20
235.3911594673321
 30
0
 40
3.000000000000111
 50
250.4272209089515
 51
331.3203266168985
  0
ARC
  8
1
 62
7
 10
-464.0538575540757
 20
243.1538240471507
 30
0
 40
2.999999999999988
 50
155.0754474253534
 51
250.427220908947
  0
ARC
  8
1
 62
7
 10
-445.3293485447669
 20
265.4688249285573
 30
0
 40
2.999999999999927
 50
29.57277909105613
 51
124.9245525746461
  0
ARC
  8
1
 62
7
 10
-445.627488838328
 20
226.0317567479601
 30
0
 40
2.999999999999957
 50
348.679673383101
 51
69.5727790910522
  0
ARC
  8
1
 62
7
 10
-445.6274888383279
 20
213.0763513601473
 30
0
 40
3.000000000000026
 50
290.427220908948
 51
11.32032661690088
  0
ARC
  8
1
 62
7
 10
-467.3422149116653
 20
234.1191364600758
 30
0
 40
2.999999999999886
 50
69.57277909104985
 51
164.9245525746453
  0
ARC
  8
1
 62
7
 10
-467.3422149116649
 20
204.9889716480315
 30
0
 40
3.000000000000231
 50
195.0754474253536
 51
290.4272209089478
  0
ARC
  8
1
 62
7
 10
-445.3293485447661
 20
173.63928317955
 30
0
 40
3.000000000000141
 50
235.0754474253534
 51
330.4272209089497
  0
ARC
  8
1
 62
7
 10
-464.0538575540753
 20
195.9542840609566
 30
0
 40
2.999999999999836
 50
109.5727790910515
 51
204.924552574651
  0
ARC
  8
1
 62
7
 10
-442.2209448379663
 20
203.7169486407754
 30
0
 40
2.99999999999993
 50
28.6796733831031
 51
109.5727790910495
  0
ARC
  8
1
 62
7
 10
-433.8933707762139
 20
193.7925323350878
 30
0
 40
2.999999999999885
 50
330.427220908954
 51
51.32032661689961
  0
ARC
  8
1
 62
7
 10
-437.0029354256347
 20
168.8320263238358
 30
0
 40
2.999999999999734
 50
149.5727790910531
 51
244.9245525746496
  0
ARC
  8
1
 62
7
 10
-425.2676985724179
 20
188.8124981662851
 30
0
 40
2.9999999999998
 50
68.67967338310218
 51
149.5727790910539
  0
ARC
  8
1
 62
7
 10
-392.6456315061276
 20
245.3155757730198
 30
0
 40
2.999999999999836
 50
150.4272209089491
 51
231.3203266169025
  0
ARC
  8
1
 62
7
 10
-381.2096537375749
 20
265.4688249285573
 30
0
 40
3.000000000000085
 50
55.07544742535393
 51
150.4272209089471
  0
ARC
  8
1
 62
7
 10
-384.3180574443753
 20
235.3911594673321
 30
0
 40
3.00000000000003
 50
208.6796733831021
 51
289.5727790910536
  0
ARC
  8
1
 62
7
 10
-362.4851447282661
 20
243.1538240471506
 30
0
 40
2.999999999999798
 50
289.5727790910495
 51
24.92455257464811
  0
ARC
  8
1
 62
7
 10
-380.9115134440139
 20
213.0763513601473
 30
0
 40
3.000000000000146
 50
168.6796733830995
 51
249.57277909105
  0
ARC
  8
1
 62
7
 10
-380.9115134440138
 20
226.0317567479601
 30
0
 40
3.000000000000092
 50
110.4272209089498
 51
191.3203266168992
  0
ARC
  8
1
 62
7
 10
-359.196787370677
 20
204.9889716480313
 30
0
 40
3.000000000000052
 50
249.5727790910522
 51
344.9245525746498
  0
ARC
  8
1
 62
7
 10
-359.1967873706768
 20
234.1191364600758
 30
0
 40
2.999999999999989
 50
15.07544742535314
 51
110.4272209089499
  0
ARC
  8
1
 62
7
 10
-384.3180574443755
 20
203.7169486407754
 30
0
 40
3.00000000000013
 50
70.42722090895049
 51
151.3203266168969
  0
ARC
  8
1
 62
7
 10
-362.4851447282666
 20
195.9542840609565
 30
0
 40
3.000000000000023
 50
335.0754474253519
 51
70.42722090895023
  0
ARC
  8
1
 62
7
 10
-381.2096537375757
 20
173.63928317955
 30
0
 40
2.999999999999984
 50
209.5727790910493
 51
304.9245525746476
  0
ARC
  8
1
 62
7
 10
-392.6456315061279
 20
193.7925323350878
 30
0
 40
3.000000000000225
 50
128.6796733830995
 51
209.572779091046
  0
ARC
  8
1
 62
7
 10
-401.2713037099239
 20
188.8124981662851
 30
0
 40
2.999999999999875
 50
30.4272209089472
 51
111.3203266168978
  0
ARC
  8
1
 62
7
 10
-389.5360668567071
 20
168.8320263238358
 30
0
 40
3.000000000000308
 50
295.0754474253514
 51
30.4272209089469
  0
ARC
  8
1
 62
7
 10
-401.2713037099239
 20
250.2956099418233
 30
0
 40
2.9999999999998
 50
248.6796733831022
 51
329.5727790910477
  0
ARC
  8
1
 62
7
 10
-389.5360668567071
 20
270.2760817842725
 30
0
 40
2.99999999999967
 50
329.5727790910531
 51
64.92455257465116
  0
ARC
  8
1
 62
7
 10
-437.0029354256347
 20
270.2760817842725
 30
0
 40
3.000000000000178
 50
115.0754474253537
 51
210.4272209089453
  0
ARC
  8
1
 62
7
 10
-425.2676985724179
 20
250.2956099418233
 30
0
 40
3.000000000000131
 50
210.4272209089513
 51
291.3203266168978
  0
ARC
  8
1
 62
7
 10
-470.7695011411711
 20
54.05405405405418
 30
0
 40
20
 50
90
 51
180
  0
ARC
  8
1
 62
7
 10
-355.7695011411711
 20
54.05405405405418
 30
0
 40
20
 50
0
 51
90
  0
ARC
  8
1
 62
7
 10
-285.7695011411711
 20
34.05405405405418
 30
0
 40
9.999999999999996
 50
270
 51
0
  0
ARC
  8
1
 62
7
 10
-325.7695011411711
 20
34.05405405405418
 30
0
 40
10
 50
180
 51
270
  0
ARC
  8
1
 62
7
 10
-500.7695011411711
 20
34.05405405405418
 30
0
 40
9.999999999999996
 50
270
 51
0
  0
ARC
  8
1
 62
7
 10
-540.7695011411711
 20
34.05405405405418
 30
0
 40
10
 50
180
 51
270
  0
TEXT
  8
1
 62
7
 10
-532.9270682862401
 20
393.837667022238
 30
0
 40
15
  1
ACSB 50
 41
0.9
  7
SIMPLEX
 72
1
 11
-485.6770682862401
 21
393.837667022238
 31
0
  0
ENDSEC
  0
EOF
