  0
SECTION
  2
HEADER
  9
$ACADVER
  1
AC1009
  9
$INSBASE
 10
0
 20
0
  9
$EXTMIN
 10
-1304.661893346841
 20
-292.346929422548
  9
$EXTMAX
 10
475.1310816744252
 20
569.7609973426161
  9
$LIMMIN
 10
-1304.661893346841
 20
-292.346929422548
  9
$LIMMAX
 10
475.1310816744252
 20
569.7609973426161
  9
$VIEWCTR
 10
10
 20
10
  9
$VIEWSIZE
 40
10
  9
$SNAPMODE
 70
0
  9
$SNAPUNIT
 10
1
 20
1
  9
$SNAPBASE
 10
0
 20
0
  9
$SNAPANG
 50
0
  9
$SNAPSTYLE
 70
0
  9
$SNAPISOPAIR
 70
0
  9
$GRIDMODE
 70
0
  9
$GRIDUNIT
 10
0
 20
0
  9
$ORTHOMODE
 70
0
  9
$REGENMODE
 70
1
  9
$FILLMODE
 70
1
  9
$QTEXTMODE
 70
0
  9
$DRAGMODE
 70
2
  9
$LTSCALE
 40
1
  9
$OSMODE
 70
0
  9
$ATTMODE
 70
1
  9
$TEXTSIZE
 40
3.5
  9
$TRACEWID
 40
0.5
  9
$TEXTSTYLE
  7
STANDARD
  9
$CLAYER
  8
0
  9
$CELTYPE
  6
BYLAYER
  9
$CECOLOR
 62
256
  9
$DIMSCALE
 40
1
  9
$DIMASZ
 40
0.18
  9
$DIMEXO
 40
0.0625
  9
$DIMDLI
 40
0.38
  9
$DIMRND
 40
0
  9
$DIMDLE
 40
0
  9
$DIMEXE
 40
0.18
  9
$DIMTP
 40
0
  9
$DIMTM
 40
0
  9
$DIMTXT
 40
0.18
  9
$DIMCEN
 40
0.09
  9
$DIMTSZ
 40
0
  9
$DIMTOL
 70
0
  9
$DIMLIM
 70
0
  9
$DIMTIH
 70
1
  9
$DIMTOH
 70
1
  9
$DIMSE1
 70
0
  9
$DIMSE2
 70
0
  9
$DIMTAD
 70
0
  9
$DIMZIN
 70
0
  9
$DIMBLK
  1

  9
$DIMASO
 70
1
  9
$DIMSHO
 70
1
  9
$DIMPOST
  1

  9
$DIMAPOST
  1

  9
$DIMALT
 70
0
  9
$DIMALTD
 70
2
  9
$DIMALTF
 40
25.4
  9
$DIMLFAC
 40
1
  9
$DIMTOFL
 70
0
  9
$DIMTVP
 40
0
  9
$DIMTIX
 70
0
  9
$DIMSOXD
 70
0
  9
$DIMSAH
 70
0
  9
$DIMBLK1
  1

  9
$DIMBLK2
  1

  9
$DIMSTYLE
  2
*UNNAMED
  9
$DIMCLRD
 70
0
  9
$DIMCLRE
 70
0
  9
$DIMCLRT
 70
0
  9
$DIMTFAC
 40
1
  9
$DIMGAP
 40
0.09
  9
$LUNITS
 70
2
  9
$LUPREC
 70
4
  9
$AXISMODE
 70
0
  9
$AXISUNIT
 10
0
 20
0
  9
$SKETCHINC
 40
0.1
  9
$FILLETRAD
 40
2
  9
$AUNITS
 70
0
  9
$AUPREC
 70
0
  9
$MENU
  1
ACAD
  9
$ELEVATION
 40
0
  9
$THICKNESS
 40
0
  9
$VIEWDIR
 10
0
 20
0
 30
1
  9
$LIMCHECK
 70
0
  9
$BLIPMODE
 70
1
  9
$CHAMFERA
 40
0
  9
$CHAMFERB
 40
0
  9
$FASTZOOM
 70
1
  9
$SKPOLY
 70
0
  9
$ANGBASE
 50
0
  9
$ANGDIR
 70
0
  9
$PDMODE
 70
0
  9
$PDSIZE
 40
0
  9
$PLINEWID
 40
0
  9
$COORDS
 70
2
  0
ENDSEC
  0
SECTION
  2
TABLES
  0
TABLE
  2
DIMSTYLE
 70
0
  0
ENDTAB
  0
TABLE
  2
LTYPE
 70
9
  0
LTYPE
  2
CONTINUOUS
 70
64
  3
Solid line
 72
65
 73
0
 40
0
  0
LTYPE
  2
BORDER
 70
64
  3
__ __ . __ __ .
 72
65
 73
6
 40
81.96415016545305
 49
23.41832861870087
 49
-11.70916430935044
 49
23.41832861870087
 49
-11.70916430935044
 49
0
 49
-11.70916430935044
  0
LTYPE
  2
CENTER
 70
64
  3
____ _ ____ _
 72
65
 73
4
 40
93.67331447480348
 49
58.54582154675217
 49
-11.70916430935044
 49
11.70916430935044
 49
-11.70916430935044
  0
LTYPE
  2
DASHDOT
 70
64
  3
__ . __ . __ .
 72
65
 73
4
 40
46.83665723740174
 49
23.41832861870087
 49
-11.70916430935044
 49
0
 49
-11.70916430935044
  0
LTYPE
  2
DASHED
 70
64
  3
__ __ __ __ __
 72
65
 73
2
 40
35.1274929280513
 49
23.41832861870087
 49
-11.70916430935044
  0
LTYPE
  2
DIVIDE
 70
64
  3
__ . . __ . . 
 72
65
 73
6
 40
58.54582154675217
 49
23.41832861870087
 49
-11.70916430935044
 49
0
 49
-11.70916430935044
 49
0
 49
-11.70916430935044
  0
LTYPE
  2
DOT
 70
64
  3
..............
 72
65
 73
4
 40
23.41832861870087
 49
0
 49
-11.70916430935044
 49
0
 49
-11.70916430935044
  0
LTYPE
  2
HIDDEN
 70
64
  3
_ _ _ _ _ _ _
 72
65
 73
2
 40
17.56374646402565
 49
11.70916430935044
 49
-5.854582154675217
  0
LTYPE
  2
PHANTOM
 70
64
  3
_____ _ _ _____ _ _ 
 72
65
 73
6
 40
117.0916430935044
 49
58.54582154675217
 49
-11.70916430935044
 49
11.70916430935044
 49
-11.70916430935044
 49
11.70916430935044
 49
-11.70916430935044
  0
ENDTAB
  0
TABLE
  2
LAYER
 70
3
  0
LAYER
  2
1
 70
0
 62
7
  6
CONTINUOUS
  0
LAYER
  2
0
 70
0
 62
7
  6
CONTINUOUS
  0
ENDTAB
  0
TABLE
  2
STYLE
 70
4
  0
STYLE
  2
STANDARD
 70
0
 40
0
 41
1
 50
0
 71
0
 42
3.5
  3
txt
  4

  0
STYLE
  2
SIMPLEX
 70
0
 40
0
 41
1
 50
0
 71
0
 42
3.5
  3
simplex
  4

  0
STYLE
  2
COMPLEX
 70
0
 40
0
 41
1
 50
0
 71
0
 42
3.5
  3
complex
  4

  0
STYLE
  2
ITALIC
 70
0
 40
0
 41
1
 50
0
 71
0
 42
3.5
  3
italic
  4

  0
ENDTAB
  0
TABLE
  2
VIEW
 70
0
  0
ENDTAB
  0
ENDSEC
  0
SECTION
  2
BLOCKS
  0
ENDSEC
  0
SECTION
  2
ENTITIES
  0
LINE
  8
1
 62
3
 10
-294.2750149388849
 20
248.353070577452
 30
0
 11
-298.275014938885
 21
248.353070577452
 31
0
  0
LINE
  8
1
 62
3
 10
-294.2750149388849
 20
261.953070577452
 30
0
 11
-298.275014938885
 21
261.953070577452
 31
0
  0
LINE
  8
1
 62
3
 10
-294.2750149388849
 20
259.313070577452
 30
0
 11
-283.2750149388849
 21
250.993070577452
 31
0
  0
LINE
  8
1
 62
3
 10
-283.2750149388849
 20
259.313070577452
 30
0
 11
-294.2750149388849
 21
250.993070577452
 31
0
  0
LINE
  8
1
 62
7
 10
-520.7750149388851
 20
372.653070577452
 30
0
 11
-520.775014938885
 21
-77.34692942254799
 31
0
  0
LINE
  8
1
 62
3
  6
DASHDOT
 10
-54.86891832557498
 20
-196.846929422548
 30
0
 11
-54.86891832557499
 21
-247.846929422548
 31
0
  0
LINE
  8
1
 62
3
  6
DASHDOT
 10
-29.36891832557498
 20
-222.346929422548
 30
0
 11
-80.36891832557498
 21
-222.346929422548
 31
0
  0
LINE
  8
1
 62
7
 10
-932.7826586635119
 20
85.38112033136747
 30
0
 11
-913.76993558865
 21
69.4275514115742
 31
0
  0
LINE
  8
1
 62
7
 10
-930.8542958344531
 20
87.67925366072439
 30
0
 11
-911.84157275959
 21
71.725684740931
 31
0
  0
LINE
  8
1
 62
7
 10
-909.571566992832
 20
146.1530705774522
 30
0
 11
-884.75221970085
 21
146.1530705774522
 31
0
  0
LINE
  8
1
 62
7
 10
-909.571566992832
 20
149.1530705774522
 30
0
 11
-884.75221970085
 21
149.1530705774521
 31
0
  0
LINE
  8
1
 62
7
 10
-930.8542958344531
 20
207.6268874941802
 30
0
 11
-911.84157275959
 21
223.5804564139732
 31
0
  0
LINE
  8
1
 62
7
 10
-932.7826586635119
 20
209.925020823537
 30
0
 11
-913.76993558865
 21
225.8785897433301
 31
0
  0
LINE
  8
1
 62
7
 10
-1095.553851105033
 20
69.4275514115742
 30
0
 11
-1076.54112803017
 21
85.38112033136747
 31
0
  0
LINE
  8
1
 62
7
 10
-1097.482213934092
 20
71.725684740931
 30
0
 11
-1078.46949085923
 21
87.67925366072439
 31
0
  0
LINE
  8
1
 62
7
 10
-1124.571566992832
 20
149.1530705774521
 30
0
 11
-1099.75221970085
 21
149.1530705774522
 31
0
  0
LINE
  8
1
 62
7
 10
-1124.571566992832
 20
146.1530705774522
 30
0
 11
-1099.75221970085
 21
146.1530705774522
 31
0
  0
LINE
  8
1
 62
7
 10
-1095.553851105033
 20
225.8785897433301
 30
0
 11
-1076.54112803017
 21
209.925020823537
 31
0
  0
LINE
  8
1
 62
7
 10
-1097.482213934092
 20
223.5804564139732
 30
0
 11
-1078.46949085923
 21
207.6268874941802
 31
0
  0
LINE
  8
1
 62
7
 10
-1119.661893346841
 20
-177.3469294225479
 30
0
 11
-889.661893346841
 21
-177.3469294225479
 31
0
  0
LINE
  8
1
 62
7
 10
-819.661893346841
 20
-292.3469294225479
 30
0
 11
-729.661893346841
 21
-292.3469294225479
 31
0
  0
LINE
  8
1
 62
7
 10
-844.661893346841
 20
-222.3469294225479
 30
0
 11
-844.661893346841
 21
-267.3469294225479
 31
0
  0
LINE
  8
1
 62
7
 10
-1164.661893346841
 20
-222.3469294225479
 30
0
 11
-1164.661893346841
 21
-267.3469294225479
 31
0
  0
LINE
  8
1
 62
7
 10
-1279.661893346841
 20
-292.3469294225479
 30
0
 11
-1189.661893346841
 21
-292.3469294225479
 31
0
  0
LINE
  8
1
 62
7
 10
-704.661893346841
 20
147.6530705774521
 30
0
 11
-704.661893346841
 21
-267.3469294225479
 31
0
  0
LINE
  8
1
 62
7
 10
-1304.661893346841
 20
147.6530705774521
 30
0
 11
-1304.661893346841
 21
-267.3469294225479
 31
0
  0
LINE
  8
1
 62
3
  6
DASHDOT
 10
155.1310816744249
 20
147.653070577452
 30
0
 11
195.1310816744249
 21
147.6530705774521
 31
0
  0
LINE
  8
1
 62
7
 10
319.9669495772106
 20
407.5161525434112
 30
0
 11
219.0942391581872
 21
234.7547619134958
 31
0
  0
LINE
  8
1
 62
7
 10
-308.2750149388851
 20
69.65307057745201
 30
0
 11
-312.2750149388851
 21
69.65307057745201
 31
0
  0
LINE
  8
1
 62
3
  6
DASHDOT
 10
-403.2750149388851
 20
-222.346929422548
 30
0
 11
-378.2750149388851
 21
-222.346929422548
 31
0
  0
LINE
  8
1
 62
3
  6
DASHED
 10
-381.2750149388851
 20
-244.846929422548
 30
0
 11
-400.2750149388851
 21
-244.846929422548
 31
0
  0
LINE
  8
1
 62
3
  6
DASHED
 10
-400.2750149388851
 20
-199.846929422548
 30
0
 11
-381.2750149388851
 21
-199.846929422548
 31
0
  0
LINE
  8
1
 62
3
  6
DASHED
 10
-516.2750149388851
 20
-135.346929422548
 30
0
 11
-497.2750149388851
 21
-135.346929422548
 31
0
  0
LINE
  8
1
 62
3
  6
DASHED
 10
-497.2750149388851
 20
-140.346929422548
 30
0
 11
-478.2750149388851
 21
-140.346929422548
 31
0
  0
LINE
  8
1
 62
3
  6
DASHED
 10
-478.2190681276182
 20
-114.346929422548
 30
0
 11
-497.2750149388851
 21
-114.346929422548
 31
0
  0
LINE
  8
1
 62
3
  6
DASHED
 10
-497.2750149388851
 20
-114.346929422548
 30
0
 11
-497.2750149388851
 21
-140.346929422548
 31
0
  0
LINE
  8
1
 62
3
  6
DASHED
 10
-516.2750149388851
 20
-119.346929422548
 30
0
 11
-497.2750149388851
 21
-119.346929422548
 31
0
  0
LINE
  8
1
 62
3
  6
DASHDOT
 10
-519.2750149388851
 20
-127.346929422548
 30
0
 11
-475.2750149388851
 21
-127.346929422548
 31
0
  0
LINE
  8
1
 62
3
  6
DASHDOT
 10
-475.2750149388851
 20
422.653070577452
 30
0
 11
-519.2750149388851
 21
422.653070577452
 31
0
  0
LINE
  8
1
 62
3
  6
DASHED
 10
-516.2750149388851
 20
431.153070577452
 30
0
 11
-478.2750149388851
 21
431.153070577452
 31
0
  0
LINE
  8
1
 62
3
  6
DASHED
 10
-478.2750149388851
 20
414.153070577452
 30
0
 11
-516.2750149388851
 21
414.153070577452
 31
0
  0
LINE
  8
1
 62
3
  6
DASHED
 10
-336.2750149388851
 20
97.65307057745201
 30
0
 11
-336.2750149388851
 21
81.65307057745201
 31
0
  0
LINE
  8
1
 62
3
  6
DASHED
 10
-352.2750149388851
 20
97.65307057745201
 30
0
 11
-352.2750149388851
 21
81.65307057745201
 31
0
  0
LINE
  8
1
 62
3
  6
DASHED
 10
-533.2750149388851
 20
133.653070577452
 30
0
 11
-533.2750149388851
 21
95.15307057745201
 31
0
  0
LINE
  8
1
 62
3
  6
DASHED
 10
-538.2750149388851
 20
133.653070577452
 30
0
 11
-414.6601797460196
 21
133.653070577452
 31
0
  0
LINE
  8
1
 62
3
  6
DASHED
 10
-538.2750149388851
 20
161.653070577452
 30
0
 11
-414.6601797460196
 21
161.653070577452
 31
0
  0
LINE
  8
1
 62
3
  6
DASHED
 10
-283.275014938885
 20
95.65307057745201
 30
0
 11
-285.2750149388851
 21
97.65307057745201
 31
0
  0
LINE
  8
1
 62
3
  6
DASHED
 10
-393.2750149388851
 20
95.15307057745201
 30
0
 11
-533.2750149388851
 21
95.15307057745201
 31
0
  0
LINE
  8
1
 62
3
  6
DASHED
 10
-538.2750149388851
 20
90.15307057745201
 30
0
 11
-533.2750149388851
 21
95.15307057745201
 31
0
  0
LINE
  8
1
 62
7
 10
-332.2750149388851
 20
78.65307057745201
 30
0
 11
-332.2750149388851
 21
81.65307057745201
 31
0
  0
LINE
  8
1
 62
3
  6
DASHED
 10
-332.2750149388851
 20
81.65307057745201
 30
0
 11
-356.2750149388851
 21
81.65307057745201
 31
0
  0
LINE
  8
1
 62
7
 10
-356.2750149388851
 20
81.65307057745201
 30
0
 11
-356.2750149388851
 21
78.65307057745201
 31
0
  0
LINE
  8
1
 62
3
  6
DASHED
 10
-285.2750149388851
 20
97.65307057745201
 30
0
 11
-393.2750149388851
 21
97.65307057745201
 31
0
  0
LINE
  8
1
 62
3
  6
DASHED
 10
-285.2750149388851
 20
197.653070577452
 30
0
 11
-283.2750149388851
 21
199.653070577452
 31
0
  0
LINE
  8
1
 62
3
  6
DASHED
 10
-285.2750149388851
 20
197.653070577452
 30
0
 11
-285.2750149388851
 21
97.65307057745201
 31
0
  0
LINE
  8
1
 62
3
  6
DASHED
 10
-533.2750149388851
 20
200.153070577452
 30
0
 11
-393.2750149388851
 21
200.153070577452
 31
0
  0
LINE
  8
1
 62
3
  6
DASHED
 10
-533.2750149388851
 20
200.153070577452
 30
0
 11
-538.2750149388851
 21
205.153070577452
 31
0
  0
LINE
  8
1
 62
3
  6
DASHED
 10
-533.2750149388851
 20
200.153070577452
 30
0
 11
-533.2750149388851
 21
161.653070577452
 31
0
  0
LINE
  8
1
 62
3
  6
DASHED
 10
-393.2750149388851
 20
197.653070577452
 30
0
 11
-285.2750149388851
 21
197.653070577452
 31
0
  0
LINE
  8
1
 62
3
  6
DASHED
 10
-393.2750149388851
 20
200.153070577452
 30
0
 11
-393.2750149388851
 21
95.15307057745201
 31
0
  0
LINE
  8
1
 62
3
  6
DASHED
 10
-363.275014938885
 20
78.65307057745201
 30
0
 11
-325.2750149388851
 21
78.65307057745201
 31
0
  0
LINE
  8
1
 62
7
 10
92.81362056193373
 20
72.05348287184917
 30
0
 11
99.17686361320151
 21
77.39287776925941
 31
0
  0
LINE
  8
1
 62
7
 10
86.38574446506837
 20
79.71392730303906
 30
0
 11
92.7489875163362
 21
85.05332220044924
 31
0
  0
LINE
  8
1
 62
7
 10
63.47776974296619
 20
142.6530705774521
 30
0
 11
71.78439360588413
 21
142.6530705774522
 31
0
  0
LINE
  8
1
 62
7
 10
63.47776974296627
 20
152.6530705774522
 30
0
 11
71.78439360588421
 21
152.6530705774523
 31
0
  0
LINE
  8
1
 62
7
 10
251.0852997356485
 20
77.39287776925941
 30
0
 11
257.4485427869163
 21
72.05348287184917
 31
0
  0
LINE
  8
1
 62
7
 10
257.5131758325139
 20
85.05332220044924
 30
0
 11
263.8764188837816
 21
79.71392730303906
 31
0
  0
LINE
  8
1
 62
7
 10
278.477769742966
 20
142.6530705774522
 30
0
 11
286.7843936058838
 21
142.6530705774521
 31
0
  0
LINE
  8
1
 62
7
 10
278.4777697429658
 20
152.6530705774522
 30
0
 11
286.7843936058837
 21
152.6530705774522
 31
0
  0
LINE
  8
1
 62
7
 10
257.5131758325138
 20
210.2528189544551
 30
0
 11
263.8764188837816
 21
215.5922138518653
 31
0
  0
LINE
  8
1
 62
7
 10
251.0852997356483
 20
217.9132633856448
 30
0
 11
257.4485427869162
 21
223.252658283055
 31
0
  0
LINE
  8
1
 62
7
 10
86.38574446506829
 20
215.5922138518653
 30
0
 11
92.74898751633607
 21
210.2528189544551
 31
0
  0
LINE
  8
1
 62
7
 10
92.81362056193373
 20
223.252658283055
 30
0
 11
99.1768636132016
 21
217.9132633856448
 31
0
  0
LINE
  8
1
 62
7
 10
154.131081674425
 20
285.653070577452
 30
0
 11
149.6687530273812
 21
285.653070577452
 31
0
  0
LINE
  8
1
 62
7
 10
127.9082939201022
 20
441.3812754143559
 30
0
 11
119.0450241429922
 21
439.8184418153535
 31
0
  0
LINE
  8
1
 62
7
 10
145.3021511945398
 20
345.4787477053201
 30
0
 11
135.5007410875381
 21
343.7504946544671
 31
0
  0
LINE
  8
1
 62
7
 10
119.0450241429922
 20
439.8184418153535
 30
0
 11
144.7405301037761
 21
289.8089030494975
 31
0
  0
LINE
  8
1
 62
7
 10
127.9082939201022
 20
441.3812754143559
 30
0
 11
153.2312867432802
 21
301.7607770635057
 31
0
  0
LINE
  8
1
 62
7
 10
192.1111395917683
 20
297.653070577452
 30
0
 11
158.1510237570818
 21
297.653070577452
 31
0
  0
LINE
  8
1
 62
7
 10
157.131081674425
 20
242.9158649937402
 30
0
 11
157.131081674425
 21
282.653070577452
 31
0
  0
LINE
  8
1
 62
7
 10
79.44068937177016
 20
323.3463044985036
 30
0
 11
70.8214739770801
 21
318.3699981701759
 31
0
  0
LINE
  8
1
 62
7
 10
131.1679241906629
 20
234.7547619134958
 30
0
 11
30.29521377163937
 21
407.5161525434112
 31
0
  0
LINE
  8
1
 62
7
 10
22.50098513757948
 20
403.0161525434112
 30
0
 11
121.6803830067016
 21
229.277127456988
 31
0
  0
LINE
  8
1
 62
7
 10
30.29521377163937
 20
407.5161525434112
 30
0
 11
22.50098513757948
 21
403.0161525434112
 31
0
  0
LINE
  8
1
 62
7
 10
-55.63361164517144
 20
335.4133068286683
 30
0
 11
-49.84852315799256
 21
342.3077068167391
 31
0
  0
LINE
  8
1
 62
7
 10
25.12090110048334
 20
280.0226643248331
 30
0
 11
18.72348500077587
 21
272.3985207046866
 31
0
  0
LINE
  8
1
 62
7
 10
83.45352139799903
 20
231.5595772752584
 30
0
 11
-49.84852315799256
 21
342.3077068167391
 31
0
  0
LINE
  8
1
 62
7
 10
-105.9345806894252
 20
245.1638055760664
 30
0
 11
-102.8563993994943
 21
253.6210391631396
 31
0
  0
LINE
  8
1
 62
7
 10
-11.10544547910948
 20
220.7332975780855
 30
0
 11
-14.50943948640352
 21
211.380900907086
 31
0
  0
LINE
  8
1
 62
7
 10
62.90300314578124
 20
194.2052820154552
 30
0
 11
-102.8563993994943
 21
253.6210391631396
 31
0
  0
LINE
  8
1
 62
7
 10
-105.9345806894252
 20
245.1638055760664
 30
0
 11
59.23620103978081
 21
184.1308260276104
 31
0
  0
LINE
  8
1
 62
7
 10
-24.8689183255747
 20
152.6293769057796
 30
0
 11
-24.86891832557481
 21
142.6767642491243
 31
0
  0
LINE
  8
1
 62
7
 10
50.96793318853329
 20
152.9999839428548
 30
0
 11
-59.81977940445407
 21
152.4585755762275
 31
0
  0
LINE
  8
1
 62
7
 10
-59.81977940445395
 20
142.8475655786764
 30
0
 11
50.96793318853324
 21
142.3061572120494
 31
0
  0
LINE
  8
1
 62
7
 10
-105.9345806894252
 20
50.14233557883762
 30
0
 11
-102.8563993994943
 21
41.68510199176446
 31
0
  0
LINE
  8
1
 62
7
 10
-14.50943948640352
 20
83.92524024781798
 30
0
 11
-11.10544547910948
 21
74.57284357681849
 31
0
  0
LINE
  8
1
 62
7
 10
-102.8563993994943
 20
41.68510199176446
 30
0
 11
62.9030031457813
 21
101.1008591394486
 31
0
  0
LINE
  8
1
 62
7
 10
59.2362010397807
 20
111.1753151272938
 30
0
 11
-105.9345806894252
 21
50.14233557883762
 31
0
  0
LINE
  8
1
 62
7
 10
100.2463251459432
 20
236.897248200813
 30
0
 11
120.4941348510692
 21
212.7668482425651
 31
0
  0
LINE
  8
1
 62
7
 10
93.26832331627603
 20
237.4346878161457
 30
0
 11
100.2463251459432
 21
236.897248200813
 31
0
  0
LINE
  8
1
 62
7
 10
103.3959272098379
 20
207.8460122311322
 30
0
 11
105.8020669407249
 21
221.4919087423714
 31
0
  0
LINE
  8
1
 62
7
 10
105.8020669407249
 20
221.4919087423714
 30
0
 11
95.18744377002187
 21
230.3986351299941
 31
0
  0
LINE
  8
1
 62
7
 10
95.18744377002187
 20
230.3986351299941
 30
0
 11
82.16668086843194
 21
225.6594650063777
 31
0
  0
LINE
  8
1
 62
7
 10
82.16668086843194
 20
225.6594650063777
 30
0
 11
79.76054113754495
 21
212.0135684951386
 31
0
  0
LINE
  8
1
 62
7
 10
79.76054113754495
 20
212.0135684951386
 30
0
 11
90.375164308248
 21
203.1068421075159
 31
0
  0
LINE
  8
1
 62
7
 10
90.375164308248
 20
203.1068421075159
 30
0
 11
103.3959272098379
 21
207.8460122311322
 31
0
  0
LINE
  8
1
 62
7
 10
81.48748813497608
 20
147.653070577452
 30
0
 11
74.5592849047006
 21
159.653070577452
 31
0
  0
LINE
  8
1
 62
7
 10
74.5592849047006
 20
159.653070577452
 30
0
 11
60.70287844414955
 21
159.653070577452
 31
0
  0
LINE
  8
1
 62
7
 10
60.70287844414955
 20
159.653070577452
 30
0
 11
53.77467521387408
 21
147.653070577452
 31
0
  0
LINE
  8
1
 62
7
 10
53.77467521387408
 20
147.653070577452
 30
0
 11
60.70287844414955
 21
135.653070577452
 31
0
  0
LINE
  8
1
 62
7
 10
60.70287844414955
 20
135.653070577452
 30
0
 11
74.5592849047006
 21
135.653070577452
 31
0
  0
LINE
  8
1
 62
7
 10
74.5592849047006
 20
135.653070577452
 30
0
 11
81.48748813497608
 21
147.653070577452
 31
0
  0
LINE
  8
1
 62
7
 10
100.2463251459432
 20
58.40889295409107
 30
0
 11
120.4941348510692
 21
82.53929291233889
 31
0
  0
LINE
  8
1
 62
7
 10
100.2463251459432
 20
58.40889295409107
 30
0
 11
93.26832331627603
 21
57.8714533387583
 31
0
  0
LINE
  8
1
 62
7
 10
103.395927209838
 20
87.46012892377172
 30
0
 11
90.37516430824806
 21
92.1992990473882
 31
0
  0
LINE
  8
1
 62
7
 10
90.37516430824806
 20
92.1992990473882
 30
0
 11
79.76054113754501
 21
83.29257265976555
 31
0
  0
LINE
  8
1
 62
7
 10
79.76054113754501
 20
83.29257265976555
 30
0
 11
82.16668086843188
 21
69.64667614852644
 31
0
  0
LINE
  8
1
 62
7
 10
82.16668086843188
 20
69.64667614852644
 30
0
 11
95.18744377002182
 21
64.90750602490996
 31
0
  0
LINE
  8
1
 62
7
 10
95.18744377002182
 20
64.90750602490996
 30
0
 11
105.8020669407249
 21
73.8142324125326
 31
0
  0
LINE
  8
1
 62
7
 10
105.8020669407249
 20
73.8142324125326
 30
0
 11
103.395927209838
 21
87.46012892377172
 31
0
  0
LINE
  8
1
 62
7
 10
18.72348500077587
 20
22.90762045021737
 30
0
 11
25.12090110048334
 21
15.28347683007092
 31
0
  0
LINE
  8
1
 62
7
 10
-49.84852315799256
 20
-47.00156566183505
 30
0
 11
83.45352139799908
 21
63.74656387964563
 31
0
  0
LINE
  8
1
 62
7
 10
76.57966207530299
 20
71.93851042245586
 30
0
 11
-55.63361164517144
 21
-40.10716567376431
 31
0
  0
LINE
  8
1
 62
7
 10
-55.63361164517144
 20
-40.10716567376431
 30
0
 11
-49.84852315799256
 21
-47.00156566183505
 31
0
  0
LINE
  8
1
 62
7
 10
70.8214739770801
 20
-23.06385701527186
 30
0
 11
79.44068937177016
 21
-28.04016334359954
 31
0
  0
LINE
  8
1
 62
7
 10
30.29521377163937
 20
-112.2100113885071
 30
0
 11
131.1679241906626
 21
60.55137924140837
 31
0
  0
LINE
  8
1
 62
7
 10
121.6803830067015
 20
66.02901369791593
 30
0
 11
22.50098513757948
 21
-107.7100113885072
 31
0
  0
LINE
  8
1
 62
7
 10
22.50098513757948
 20
-107.7100113885072
 30
0
 11
30.29521377163937
 21
-112.2100113885071
 31
0
  0
LINE
  8
1
 62
7
 10
157.131081674425
 20
12.65307057745201
 30
0
 11
157.131081674425
 21
52.39027616116378
 31
0
  0
LINE
  8
1
 62
7
 10
149.6687530273812
 20
9.653070577452013
 30
0
 11
154.131081674425
 21
9.653070577452013
 31
0
  0
LINE
  8
1
 62
7
 10
158.1510237570818
 20
-2.346929422547987
 30
0
 11
192.1111395917683
 21
-2.346929422547987
 31
0
  0
LINE
  8
1
 62
7
 10
119.0450241429922
 20
-144.5123006604495
 30
0
 11
127.9082939201022
 21
-146.0751342594519
 31
0
  0
LINE
  8
1
 62
7
 10
135.5007410875381
 20
-48.44435349956307
 30
0
 11
145.3021511945398
 21
-50.17260655041611
 31
0
  0
LINE
  8
1
 62
7
 10
153.2312867432802
 20
-6.454635908601631
 30
0
 11
127.9082939201022
 21
-146.0751342594519
 31
0
  0
LINE
  8
1
 62
7
 10
144.7405301037761
 20
5.497238105406524
 30
0
 11
119.0450241429922
 21
-144.5123006604495
 31
0
  0
LINE
  8
1
 62
7
 10
-124.868918325575
 20
147.653070577452
 30
0
 11
-124.8689183255751
 21
-267.346929422548
 31
0
  0
LINE
  8
1
 62
7
 10
-99.86891832557505
 20
-292.346929422548
 30
0
 11
-9.868918325575095
 21
-292.346929422548
 31
0
  0
LINE
  8
1
 62
7
 10
15.1310816744249
 20
-267.346929422548
 30
0
 11
15.13108167442496
 21
-222.346929422548
 31
0
  0
LINE
  8
1
 62
7
 10
60.13108167442496
 20
-177.346929422548
 30
0
 11
290.131081674425
 21
-177.346929422548
 31
0
  0
LINE
  8
1
 62
7
 10
157.6310816744249
 20
79.15307057745201
 30
0
 11
157.631081674427
 21
63.45307057745201
 31
0
  0
LINE
  8
1
 62
7
 10
157.6310816744249
 20
79.15307057745201
 30
0
 11
124.8046472686378
 21
79.15307057745201
 31
0
  0
LINE
  8
1
 62
7
 10
173.6310816744249
 20
67.15307057745201
 30
0
 11
176.6310816744249
 21
67.15307057745201
 31
0
  0
LINE
  8
1
 62
7
 10
173.6310816744249
 20
86.25639131057312
 30
0
 11
173.6310816744249
 21
61.66615296785284
 31
0
  0
LINE
  8
1
 62
3
 10
176.6310816744249
 20
67.95307057745201
 30
0
 11
173.6310816744249
 21
67.95307057745201
 31
0
  0
LINE
  8
1
 62
3
 10
176.6310816744249
 20
74.35307057745202
 30
0
 11
173.6310816744249
 21
74.35307057745202
 31
0
  0
LINE
  8
1
 62
7
 10
176.6310816744249
 20
75.15307057745201
 30
0
 11
173.6310816744249
 21
75.15307057745201
 31
0
  0
LINE
  8
1
 62
7
 10
148.131081674425
 20
64.65307057745201
 30
0
 11
148.131081674425
 21
77.65307057745201
 31
0
  0
LINE
  8
1
 62
7
 10
148.131081674425
 20
77.65307057745201
 30
0
 11
155.631081674425
 21
77.65307057745201
 31
0
  0
LINE
  8
1
 62
7
 10
147.631081674425
 20
76.78704517366758
 30
0
 11
148.131081674425
 21
77.65307057745201
 31
0
  0
LINE
  8
1
 62
7
 10
147.631081674425
 20
65.51909598123645
 30
0
 11
147.631081674425
 21
76.78704517366758
 31
0
  0
LINE
  8
1
 62
7
 10
148.131081674425
 20
64.65307057745201
 30
0
 11
147.631081674425
 21
65.51909598123645
 31
0
  0
LINE
  8
1
 62
7
 10
155.631081674425
 20
64.65307057745201
 30
0
 11
148.131081674425
 21
64.65307057745201
 31
0
  0
LINE
  8
1
 62
7
 10
155.631081674425
 20
78.85307057745202
 30
0
 11
157.631081674425
 21
78.85307057745202
 31
0
  0
LINE
  8
1
 62
7
 10
155.631081674425
 20
63.45307057745201
 30
0
 11
155.631081674425
 21
78.85307057745202
 31
0
  0
LINE
  8
1
 62
7
 10
157.631081674425
 20
63.45307057745201
 30
0
 11
155.631081674425
 21
63.45307057745201
 31
0
  0
LINE
  8
1
 62
7
 10
157.631081674425
 20
73.15307057745201
 30
0
 11
155.631081674425
 21
71.15307057745201
 31
0
  0
LINE
  8
1
 62
7
 10
157.631081674425
 20
71.15307057745201
 30
0
 11
155.631081674425
 21
69.15307057745201
 31
0
  0
LINE
  8
1
 62
7
 10
176.6310816744249
 20
86.25639131057312
 30
0
 11
176.6310816744249
 21
61.66615296785284
 31
0
  0
LINE
  8
1
 62
7
 10
229.7680284977808
 20
82.53929291233889
 30
0
 11
250.0158382029068
 21
58.40889295409107
 31
0
  0
LINE
  8
1
 62
7
 10
229.7680284977808
 20
212.7668482425651
 30
0
 11
250.0158382029068
 21
236.897248200813
 31
0
  0
LINE
  8
1
 62
7
 10
266.808641950851
 20
63.74656387964563
 30
0
 11
400.1106865068426
 21
-47.00156566183505
 31
0
  0
LINE
  8
1
 62
7
 10
299.2942301603167
 20
142.3061572120494
 30
0
 11
410.081942753304
 21
142.8475655786764
 31
0
  0
LINE
  8
1
 62
7
 10
273.6825012735471
 20
223.367630732448
 30
0
 11
405.8957749940215
 21
335.4133068286683
 31
0
  0
LINE
  8
1
 62
7
 10
256.993840032574
 20
57.8714533387583
 30
0
 11
250.0158382029068
 21
58.40889295409107
 31
0
  0
LINE
  8
1
 62
7
 10
250.0158382029068
 20
236.897248200813
 30
0
 11
256.993840032574
 21
237.4346878161457
 31
0
  0
LINE
  8
1
 62
7
 10
275.7028784441494
 20
159.653070577452
 30
0
 11
268.7746752138739
 21
147.653070577452
 31
0
  0
LINE
  8
1
 62
7
 10
289.5592849047005
 20
159.653070577452
 30
0
 11
275.7028784441494
 21
159.653070577452
 31
0
  0
LINE
  8
1
 62
7
 10
296.4874881349759
 20
147.653070577452
 30
0
 11
289.5592849047005
 21
159.653070577452
 31
0
  0
LINE
  8
1
 62
7
 10
289.5592849047005
 20
135.653070577452
 30
0
 11
296.4874881349759
 21
147.653070577452
 31
0
  0
LINE
  8
1
 62
7
 10
275.7028784441494
 20
135.653070577452
 30
0
 11
289.5592849047005
 21
135.653070577452
 31
0
  0
LINE
  8
1
 62
7
 10
268.7746752138739
 20
147.653070577452
 30
0
 11
275.7028784441494
 21
135.653070577452
 31
0
  0
LINE
  8
1
 62
7
 10
259.8869990406019
 20
92.1992990473882
 30
0
 11
246.866236139012
 21
87.46012892377172
 31
0
  0
LINE
  8
1
 62
7
 10
270.5016222113051
 20
83.29257265976555
 30
0
 11
259.8869990406019
 21
92.1992990473882
 31
0
  0
LINE
  8
1
 62
7
 10
268.0954824804181
 20
69.64667614852644
 30
0
 11
270.5016222113051
 21
83.29257265976555
 31
0
  0
LINE
  8
1
 62
7
 10
255.0747195788283
 20
64.90750602490996
 30
0
 11
268.0954824804181
 21
69.64667614852644
 31
0
  0
LINE
  8
1
 62
7
 10
244.4600964081251
 20
73.8142324125326
 30
0
 11
255.0747195788283
 21
64.90750602490996
 31
0
  0
LINE
  8
1
 62
7
 10
246.866236139012
 20
87.46012892377172
 30
0
 11
244.4600964081251
 21
73.8142324125326
 31
0
  0
LINE
  8
1
 62
7
 10
244.4600964081251
 20
221.4919087423714
 30
0
 11
246.8662361390121
 21
207.8460122311322
 31
0
  0
LINE
  8
1
 62
7
 10
255.0747195788281
 20
230.3986351299941
 30
0
 11
244.4600964081251
 21
221.4919087423714
 31
0
  0
LINE
  8
1
 62
7
 10
268.0954824804181
 20
225.6594650063777
 30
0
 11
255.0747195788281
 21
230.3986351299941
 31
0
  0
LINE
  8
1
 62
7
 10
270.5016222113051
 20
212.0135684951386
 30
0
 11
268.0954824804181
 21
225.6594650063777
 31
0
  0
LINE
  8
1
 62
7
 10
259.8869990406021
 20
203.1068421075159
 30
0
 11
270.5016222113051
 21
212.0135684951386
 31
0
  0
LINE
  8
1
 62
7
 10
246.8662361390121
 20
207.8460122311322
 30
0
 11
259.8869990406021
 21
203.1068421075159
 31
0
  0
LINE
  8
1
 62
7
 10
291.0259623090693
 20
184.1308260276104
 30
0
 11
456.1967440382754
 21
245.1638055760664
 31
0
  0
LINE
  8
1
 62
7
 10
287.3591602030688
 20
101.1008591394486
 30
0
 11
453.1185627483442
 21
41.68510199176446
 31
0
  0
LINE
  8
1
 62
3
  6
DASHDOT
 10
405.131081674425
 20
-196.846929422548
 30
0
 11
405.131081674425
 21
-247.846929422548
 31
0
  0
LINE
  8
1
 62
3
  6
DASHDOT
 10
430.631081674425
 20
-222.346929422548
 30
0
 11
379.631081674425
 21
-222.346929422548
 31
0
  0
LINE
  8
1
 62
7
 10
475.1310816744252
 20
-267.346929422548
 30
0
 11
475.1310816744249
 21
147.653070577452
 31
0
  0
LINE
  8
1
 62
7
 10
360.1310816744252
 20
-292.346929422548
 30
0
 11
450.131081674425
 21
-292.346929422548
 31
0
  0
LINE
  8
1
 62
7
 10
335.131081674425
 20
-222.346929422548
 30
0
 11
335.1310816744252
 21
-267.346929422548
 31
0
  0
LINE
  8
1
 62
7
 10
410.081942753304
 20
152.4585755762275
 30
0
 11
299.2942301603167
 21
152.9999839428548
 31
0
  0
LINE
  8
1
 62
7
 10
375.1310816744248
 20
142.6767642491243
 30
0
 11
375.1310816744248
 21
152.6293769057796
 31
0
  0
LINE
  8
1
 62
7
 10
279.44068937177
 20
318.3699981701759
 30
0
 11
270.8214739770798
 21
323.3463044985036
 31
0
  0
LINE
  8
1
 62
7
 10
331.5386783480741
 20
272.3985207046866
 30
0
 11
325.1412622483666
 21
280.0226643248331
 31
0
  0
LINE
  8
1
 62
7
 10
364.7716028352535
 20
211.380900907086
 30
0
 11
361.3676088279594
 21
220.7332975780855
 31
0
  0
LINE
  8
1
 62
7
 10
361.3676088279594
 20
74.57284357681849
 30
0
 11
364.7716028352535
 21
83.92524024781798
 31
0
  0
LINE
  8
1
 62
7
 10
325.1412622483666
 20
15.28347683007092
 30
0
 11
331.5386783480741
 21
22.90762045021737
 31
0
  0
LINE
  8
1
 62
7
 10
270.8214739770798
 20
-28.04016334359954
 30
0
 11
279.44068937177
 21
-23.06385701527186
 31
0
  0
LINE
  8
1
 62
7
 10
400.1106865068426
 20
342.3077068167391
 30
0
 11
405.8957749940215
 21
335.4133068286683
 31
0
  0
LINE
  8
1
 62
7
 10
453.1185627483442
 20
253.6210391631396
 30
0
 11
456.1967440382754
 21
245.1638055760664
 31
0
  0
LINE
  8
1
 62
7
 10
453.1185627483442
 20
41.68510199176446
 30
0
 11
456.1967440382754
 21
50.14233557883762
 31
0
  0
LINE
  8
1
 62
7
 10
400.1106865068426
 20
-47.00156566183505
 30
0
 11
405.8957749940215
 21
-40.10716567376431
 31
0
  0
LINE
  8
1
 62
7
 10
327.7611782112705
 20
403.0161525434112
 30
0
 11
319.9669495772106
 21
407.5161525434112
 31
0
  0
LINE
  8
1
 62
7
 10
231.2171392058577
 20
439.8184418153535
 30
0
 11
222.3538694287479
 21
441.3812754143559
 31
0
  0
LINE
  8
1
 62
7
 10
200.5934103214688
 20
285.653070577452
 30
0
 11
196.131081674425
 21
285.653070577452
 31
0
  0
LINE
  8
1
 62
7
 10
214.7614222613118
 20
343.7504946544671
 30
0
 11
204.9600121543102
 21
345.4787477053201
 31
0
  0
LINE
  8
1
 62
7
 10
197.0308766055697
 20
301.7607770635057
 30
0
 11
222.3538694287479
 21
441.3812754143559
 31
0
  0
LINE
  8
1
 62
7
 10
205.521633245074
 20
289.8089030494975
 30
0
 11
231.2171392058577
 21
439.8184418153535
 31
0
  0
LINE
  8
1
 62
7
 10
193.131081674425
 20
282.653070577452
 30
0
 11
193.131081674425
 21
242.9158649937402
 31
0
  0
LINE
  8
1
 62
7
 10
228.5817803421484
 20
229.277127456988
 30
0
 11
327.7611782112705
 21
403.0161525434112
 31
0
  0
LINE
  8
1
 62
7
 10
400.1106865068426
 20
342.3077068167391
 30
0
 11
266.808641950851
 21
231.5595772752584
 31
0
  0
LINE
  8
1
 62
7
 10
453.1185627483442
 20
253.6210391631396
 30
0
 11
287.3591602030688
 21
194.2052820154552
 31
0
  0
LINE
  8
1
 62
7
 10
456.1967440382754
 20
50.14233557883762
 30
0
 11
291.0259623090693
 21
111.1753151272938
 31
0
  0
LINE
  8
1
 62
7
 10
405.8957749940215
 20
-40.10716567376431
 30
0
 11
273.682501273547
 21
71.93851042245586
 31
0
  0
LINE
  8
1
 62
7
 10
219.0942391581874
 20
60.55137924140837
 30
0
 11
319.9669495772106
 21
-112.2100113885071
 31
0
  0
LINE
  8
1
 62
7
 10
319.9669495772106
 20
-112.2100113885071
 30
0
 11
327.7611782112705
 21
-107.7100113885072
 31
0
  0
LINE
  8
1
 62
7
 10
327.7611782112705
 20
-107.7100113885072
 30
0
 11
228.5817803421485
 21
66.02901369791593
 31
0
  0
LINE
  8
1
 62
7
 10
204.9600121543102
 20
-50.17260655041611
 30
0
 11
214.7614222613118
 21
-48.44435349956307
 31
0
  0
LINE
  8
1
 62
7
 10
222.3538694287479
 20
-146.0751342594519
 30
0
 11
231.2171392058577
 21
-144.5123006604495
 31
0
  0
LINE
  8
1
 62
7
 10
196.131081674425
 20
9.653070577452013
 30
0
 11
200.5934103214688
 21
9.653070577452013
 31
0
  0
LINE
  8
1
 62
7
 10
231.2171392058577
 20
-144.5123006604495
 30
0
 11
205.521633245074
 21
5.497238105406524
 31
0
  0
LINE
  8
1
 62
7
 10
222.3538694287479
 20
-146.0751342594519
 30
0
 11
197.0308766055697
 21
-6.454635908601631
 31
0
  0
LINE
  8
1
 62
7
 10
193.131081674425
 20
52.39027616116378
 30
0
 11
193.131081674425
 21
12.65307057745201
 31
0
  0
LINE
  8
1
 62
3
  6
DASHDOT
 10
175.1310816744249
 20
167.653070577452
 30
0
 11
175.1310816744249
 21
127.653070577452
 31
0
  0
LINE
  8
1
 62
7
 10
-55.63361164517144
 20
335.4133068286683
 30
0
 11
76.57966207530293
 21
223.367630732448
 31
0
  0
LINE
  8
1
 62
7
 10
-308.2750149388851
 20
226.653070577452
 30
0
 11
-312.275014938885
 21
226.653070577452
 31
0
  0
LINE
  8
1
 62
7
 10
-312.2750149388851
 20
269.153070577452
 30
0
 11
-308.275014938885
 21
269.153070577452
 31
0
  0
LINE
  8
1
 62
7
 10
-284.2750149388849
 20
248.653070577452
 30
0
 11
-284.2750149388849
 21
250.993070577452
 31
0
  0
LINE
  8
1
 62
7
 10
-284.2750149388849
 20
261.653070577452
 30
0
 11
-284.2750149388849
 21
259.313070577452
 31
0
  0
LINE
  8
1
 62
7
 10
-284.2750149388849
 20
248.653070577452
 30
0
 11
-283.2750149388849
 21
249.653070577452
 31
0
  0
LINE
  8
1
 62
7
 10
-283.2750149388849
 20
260.653070577452
 30
0
 11
-284.2750149388849
 21
261.653070577452
 31
0
  0
LINE
  8
1
 62
7
 10
-294.2750149388849
 20
250.993070577452
 30
0
 11
-283.2750149388849
 21
250.993070577452
 31
0
  0
LINE
  8
1
 62
7
 10
-294.2750149388849
 20
259.313070577452
 30
0
 11
-283.2750149388849
 21
259.313070577452
 31
0
  0
LINE
  8
1
 62
7
 10
-294.2750149388849
 20
248.653070577452
 30
0
 11
-284.2750149388849
 21
248.653070577452
 31
0
  0
LINE
  8
1
 62
7
 10
-283.2750149388849
 20
249.653070577452
 30
0
 11
-283.2750149388849
 21
260.653070577452
 31
0
  0
LINE
  8
1
 62
7
 10
-294.2750149388849
 20
261.653070577452
 30
0
 11
-284.2750149388849
 21
261.653070577452
 31
0
  0
LINE
  8
1
 62
7
 10
-295.475014938885
 20
247.153070577452
 30
0
 11
-294.2750149388849
 21
248.353070577452
 31
0
  0
LINE
  8
1
 62
7
 10
-298.275014938885
 20
247.153070577452
 30
0
 11
-295.475014938885
 21
247.153070577452
 31
0
  0
LINE
  8
1
 62
7
 10
-299.6317880714807
 20
241.303070577452
 30
0
 11
-306.9182418062894
 21
241.303070577452
 31
0
  0
LINE
  8
1
 62
7
 10
-299.6317880714807
 20
248.228070577452
 30
0
 11
-306.9182418062894
 21
248.228070577452
 31
0
  0
LINE
  8
1
 62
7
 10
-299.6317880714807
 20
262.078070577452
 30
0
 11
-306.9182418062894
 21
262.078070577452
 31
0
  0
LINE
  8
1
 62
7
 10
-299.6317880714807
 20
269.003070577452
 30
0
 11
-306.9182418062894
 21
269.003070577452
 31
0
  0
LINE
  8
1
 62
7
 10
-298.275014938885
 20
265.540570577452
 30
0
 11
-298.275014938885
 21
244.765570577452
 31
0
  0
LINE
  8
1
 62
7
 10
-295.475014938885
 20
247.153070577452
 30
0
 11
-295.4750149388855
 21
263.153070577452
 31
0
  0
LINE
  8
1
 62
7
 10
-295.4750149388855
 20
263.153070577452
 30
0
 11
-298.275014938885
 21
263.153070577452
 31
0
  0
LINE
  8
1
 62
7
 10
-294.2750149388849
 20
261.953070577452
 30
0
 11
-295.4750149388855
 21
263.153070577452
 31
0
  0
LINE
  8
1
 62
7
 10
-294.2750149388849
 20
248.353070577452
 30
0
 11
-294.2750149388849
 21
261.953070577452
 31
0
  0
LINE
  8
1
 62
7
 10
-283.2750149388851
 20
62.65307057745201
 30
0
 11
-308.2750149388851
 21
62.65307057745201
 31
0
  0
LINE
  8
1
 62
7
 10
-283.2750149388851
 20
232.653070577452
 30
0
 11
-283.2750149388851
 21
62.65307057745201
 31
0
  0
LINE
  8
1
 62
7
 10
-308.2750149388851
 20
232.653070577452
 30
0
 11
-283.2750149388851
 21
232.653070577452
 31
0
  0
LINE
  8
1
 62
7
 10
-308.2750149388851
 20
62.65307057745201
 30
0
 11
-308.275014938885
 21
269.153070577452
 31
0
  0
LINE
  8
1
 62
7
 10
-312.275014938885
 20
225.653070577452
 30
0
 11
-308.2750149388851
 21
225.653070577452
 31
0
  0
LINE
  8
1
 62
7
 10
-312.275014938885
 20
272.653070577452
 30
0
 11
-312.2750149388851
 21
54.653070577452
 31
0
  0
LINE
  8
1
 62
7
 10
-312.2750149388851
 20
54.653070577452
 30
0
 11
-322.2750149388849
 21
54.65307057745206
 31
0
  0
LINE
  8
1
 62
7
 10
-322.2750149388852
 20
347.653070577452
 30
0
 11
-322.2750149388852
 21
-52.34692942254799
 31
0
  0
LINE
  8
1
 62
7
 10
-357.550998538249
 20
-147.8860516708255
 30
0
 11
-322.2750149388852
 21
-52.34692942254799
 31
0
  0
LINE
  8
1
 62
7
 10
-360.3652879606671
 20
-149.846929422548
 30
0
 11
-366.198091861962
 21
-149.846929422548
 31
0
  0
LINE
  8
1
 62
7
 10
-366.198091861962
 20
-152.346929422548
 30
0
 11
-376.2750149388851
 21
-152.346929422548
 31
0
  0
LINE
  8
1
 62
7
 10
-376.275014938885
 20
447.653070577452
 30
0
 11
-376.2750149388851
 21
-152.346929422548
 31
0
  0
LINE
  8
1
 62
7
 10
-322.2750149388852
 20
272.653070577452
 30
0
 11
-312.275014938885
 21
272.653070577452
 31
0
  0
LINE
  8
1
 62
7
 10
-322.2750149388852
 20
347.653070577452
 30
0
 11
-357.550998538249
 21
443.1921928257295
 31
0
  0
LINE
  8
1
 62
7
 10
-366.1980918619619
 20
445.153070577452
 30
0
 11
-360.3652879606671
 21
445.153070577452
 31
0
  0
LINE
  8
1
 62
7
 10
-376.275014938885
 20
447.653070577452
 30
0
 11
-366.1980918619619
 21
447.653070577452
 31
0
  0
LINE
  8
1
 62
7
 10
-400.2750149388851
 20
-292.346929422548
 30
0
 11
-381.2750149388851
 21
-292.346929422548
 31
0
  0
LINE
  8
1
 62
7
 10
-376.2750149388851
 20
-151.3469294225479
 30
0
 11
-381.2750149388851
 21
-151.3469294225479
 31
0
  0
LINE
  8
1
 62
7
 10
-405.2750149388851
 20
-151.3469294225479
 30
0
 11
-400.2750149388851
 21
-151.3469294225479
 31
0
  0
LINE
  8
1
 62
7
 10
-381.2750149388851
 20
446.653070577452
 30
0
 11
-376.275014938885
 21
446.653070577452
 31
0
  0
LINE
  8
1
 62
7
 10
-400.2750149388851
 20
446.653070577452
 30
0
 11
-405.275014938885
 21
446.653070577452
 31
0
  0
LINE
  8
1
 62
7
 10
-400.2750149388851
 20
447.653070577452
 30
0
 11
-381.2750149388851
 21
447.653070577452
 31
0
  0
LINE
  8
1
 62
7
 10
-435.8091658352271
 20
-77.34692942254804
 30
0
 11
-442.2750149388851
 21
-77.34692942254804
 31
0
  0
LINE
  8
1
 62
7
 10
-415.275014938885
 20
-149.846929422548
 30
0
 11
-420.6244017666285
 21
-149.846929422548
 31
0
  0
LINE
  8
1
 62
7
 10
-405.2750149388851
 20
-152.346929422548
 30
0
 11
-415.275014938885
 21
-152.346929422548
 31
0
  0
LINE
  8
1
 62
7
 10
-423.6015502019976
 20
-147.2165064696973
 30
0
 11
-431.8396345880683
 21
-80.85416002634901
 31
0
  0
LINE
  8
1
 62
7
 10
-405.275014938885
 20
447.653070577452
 30
0
 11
-405.2750149388851
 21
-152.346929422548
 31
0
  0
LINE
  8
1
 62
7
 10
-420.6244017666285
 20
445.153070577452
 30
0
 11
-415.275014938885
 21
445.153070577452
 31
0
  0
LINE
  8
1
 62
7
 10
-415.275014938885
 20
447.653070577452
 30
0
 11
-405.275014938885
 21
447.653070577452
 31
0
  0
LINE
  8
1
 62
7
 10
-431.8396345880683
 20
376.160301181253
 30
0
 11
-423.6015502019976
 21
442.5226476246013
 31
0
  0
LINE
  8
1
 62
7
 10
-442.2750149388851
 20
372.653070577452
 30
0
 11
-435.8091658352271
 21
372.653070577452
 31
0
  0
LINE
  8
1
 62
7
 10
-444.7365534004236
 20
-98.37257044818898
 30
0
 11
-475.8134764773467
 21
-111.3212883969069
 31
0
  0
LINE
  8
1
 62
7
 10
-478.2750149388851
 20
-144.846929422548
 30
0
 11
-516.275014938885
 21
-144.846929422548
 31
0
  0
LINE
  8
1
 62
7
 10
-442.2750149388851
 20
389.9864039107854
 30
0
 11
-442.2750149388851
 21
-94.68026275588136
 31
0
  0
LINE
  8
1
 62
7
 10
-475.8134764773467
 20
406.627429551811
 30
0
 11
-444.7365534004236
 21
393.678711603093
 31
0
  0
LINE
  8
1
 62
7
 10
-516.275014938885
 20
440.153070577452
 30
0
 11
-478.2750149388851
 21
440.153070577452
 31
0
  0
LINE
  8
1
 62
7
 10
-516.275014938885
 20
-144.846929422548
 30
0
 11
-516.275014938885
 21
440.153070577452
 31
0
  0
LINE
  8
1
 62
7
 10
-516.275014938885
 20
-77.34692942254799
 30
0
 11
-520.775014938885
 21
-77.34692942254799
 31
0
  0
LINE
  8
1
 62
7
 10
-538.2750149388851
 20
72.65307057745201
 30
0
 11
-535.2489545089079
 21
71.55167465384966
 31
0
  0
LINE
  8
1
 62
7
 10
-533.275014938885
 20
3.653070577452013
 30
0
 11
-520.775014938885
 21
-77.34692942254799
 31
0
  0
LINE
  8
1
 62
7
 10
-538.2750149388851
 20
72.65307057745201
 30
0
 11
-538.2750149388851
 21
222.653070577452
 31
0
  0
LINE
  8
1
 62
7
 10
-533.2750149388851
 20
291.653070577452
 30
0
 11
-533.275014938885
 21
3.653070577452013
 31
0
  0
LINE
  8
1
 62
7
 10
-520.7750149388851
 20
372.653070577452
 30
0
 11
-516.275014938885
 21
372.653070577452
 31
0
  0
LINE
  8
1
 62
7
 10
-520.7750149388851
 20
372.653070577452
 30
0
 11
-533.2750149388851
 21
291.653070577452
 31
0
  0
LINE
  8
1
 62
3
  6
DASHDOT
 10
-546.5270615774359
 20
147.653070577452
 30
0
 11
-538.2750149388851
 21
147.653070577452
 31
0
  0
LINE
  8
1
 62
7
 10
-381.2750149388851
 20
447.653070577452
 30
0
 11
-381.2750149388851
 21
-292.346929422548
 31
0
  0
LINE
  8
1
 62
7
 10
-400.2750149388851
 20
447.653070577452
 30
0
 11
-400.2750149388851
 21
-292.346929422548
 31
0
  0
LINE
  8
1
 62
3
  6
DASHDOT
 10
-283.275014938885
 20
147.653070577452
 30
0
 11
-275.5848636116712
 21
147.653070577452
 31
0
  0
LINE
  8
1
 62
7
 10
-366.1980918619619
 20
447.653070577452
 30
0
 11
-366.198091861962
 21
-152.346929422548
 31
0
  0
LINE
  8
1
 62
7
 10
-415.275014938885
 20
447.653070577452
 30
0
 11
-415.275014938885
 21
-152.346929422548
 31
0
  0
LINE
  8
1
 62
7
 10
-538.2750149388851
 20
222.653070577452
 30
0
 11
-534.423915209461
 21
225.6726976847174
 31
0
  0
LINE
  8
1
 62
7
 10
-435.8091658352271
 20
372.653070577452
 30
0
 11
-435.8091658352271
 21
-77.34692942254804
 31
0
  0
LINE
  8
1
 62
7
 10
-478.2750149388851
 20
440.153070577452
 30
0
 11
-478.2750149388851
 21
-144.846929422548
 31
0
  0
LINE
  8
1
 62
3
  6
DASHDOT
 10
-1024.661893346841
 20
147.6530705774521
 30
0
 11
-984.661893346841
 21
147.6530705774521
 31
0
  0
LINE
  8
1
 62
7
 10
-942.876270216701
 20
262.9246964803518
 30
0
 11
-968.387099701195
 21
219.4106889310629
 31
0
  0
LINE
  8
1
 62
7
 10
-963.8419912962449
 20
358.6098115469162
 30
0
 11
-975.0508787047161
 21
292.4674302789045
 31
0
  0
LINE
  8
1
 62
7
 10
-900.8600478275509
 20
334.5920728526241
 30
0
 11
-934.260370447772
 21
277.620899432787
 31
0
  0
LINE
  8
1
 62
7
 10
-960.655369760369
 20
214.9467725684257
 30
0
 11
-935.7265485444641
 21
258.7968027482548
 31
0
  0
LINE
  8
1
 62
7
 10
-982.9577172393231
 20
293.8616192446611
 30
0
 11
-970.868599303097
 21
359.8487921213863
 31
0
  0
LINE
  8
1
 62
7
 10
-927.307213332947
 20
273.6064923008253
 30
0
 11
-894.6688911780711
 21
331.0176068944511
 31
0
  0
LINE
  8
1
 62
7
 10
-888.893664004343
 20
239.5537127883781
 30
0
 11
-837.7916549372969
 21
283.0167824688587
 31
0
  0
LINE
  8
1
 62
7
 10
-883.2361872045481
 20
196.2412260448419
 30
0
 11
-930.7488812709889
 21
179.3056074693304
 31
0
  0
LINE
  8
1
 62
7
 10
-803.9983608935531
 20
224.4850802299796
 30
0
 11
-867.189487896826
 21
201.9609770337351
 31
0
  0
LINE
  8
1
 62
7
 10
-927.695382642703
 20
170.9161889377792
 30
0
 11
-880.4125415927781
 21
188.4833234859618
 31
0
  0
LINE
  8
1
 62
7
 10
-894.0544863336679
 20
245.7041413400913
 30
0
 11
-842.3779475930101
 21
288.4825132179924
 31
0
  0
LINE
  8
1
 62
7
 10
-864.443471691543
 20
194.4163595162654
 30
0
 11
-801.558045542414
 21
217.7803689063759
 31
0
  0
LINE
  8
1
 62
7
 10
-856.9056904338781
 20
143.6386634454902
 30
0
 11
-789.821757686296
 21
144.0855681967287
 31
0
  0
LINE
  8
1
 62
7
 10
-880.4125415927781
 20
106.8228176689423
 30
0
 11
-927.695382642703
 21
124.389952217125
 31
0
  0
LINE
  8
1
 62
7
 10
-930.7488812709889
 20
116.0005336855738
 30
0
 11
-883.2361872045481
 21
99.06491511006226
 31
0
  0
LINE
  8
1
 62
7
 10
-856.9056904338781
 20
151.667477709414
 30
0
 11
-789.821757686296
 21
151.2205729581755
 31
0
  0
LINE
  8
1
 62
7
 10
-803.9983608935531
 20
70.82106092492455
 30
0
 11
-867.189487896826
 21
93.34516412116903
 31
0
  0
LINE
  8
1
 62
7
 10
-837.7916549372969
 20
12.28935868604555
 30
0
 11
-888.893664004343
 21
55.75242836652592
 31
0
  0
LINE
  8
1
 62
7
 10
-864.443471691543
 20
100.8897816386387
 30
0
 11
-801.558045542414
 21
77.52577224852837
 31
0
  0
LINE
  8
1
 62
7
 10
-894.0544863336679
 20
49.60199981481287
 30
0
 11
-842.3779475930089
 21
6.823627936911748
 31
0
  0
LINE
  8
1
 62
7
 10
-935.726548544463
 20
36.50933840664936
 30
0
 11
-960.655369760369
 21
80.35936858647847
 31
0
  0
LINE
  8
1
 62
7
 10
-968.387099701195
 20
75.89545222384123
 30
0
 11
-942.876270216701
 21
32.38144467455226
 31
0
  0
LINE
  8
1
 62
7
 10
-934.260370447772
 20
17.68524172211704
 30
0
 11
-900.3313732063359
 21
-40.18769584743666
 31
0
  0
LINE
  8
1
 62
7
 10
-927.307213332947
 20
21.69964885407887
 30
0
 11
-894.1522778268
 21
-36.62019346671315
 31
0
  0
LINE
  8
1
 62
7
 10
-982.9577172393231
 20
1.444521910242827
 30
0
 11
-970.868599303097
 21
-64.54265096648226
 31
0
  0
LINE
  8
1
 62
7
 10
-975.0508787047161
 20
2.838710875999425
 30
0
 11
-963.8419912962449
 21
-63.30367039201215
 31
0
  0
LINE
  8
1
 62
3
  6
DASHDOT
 10
-1004.661893346841
 20
167.6530705774521
 30
0
 11
-1004.661893346841
 21
127.6530705774521
 31
0
  0
LINE
  8
1
 62
7
 10
-1040.936686992487
 20
219.4106889310629
 30
0
 11
-1066.447516476981
 21
262.9246964803518
 31
0
  0
LINE
  8
1
 62
7
 10
-1034.272907988965
 20
292.4674302789045
 30
0
 11
-1045.481795397436
 21
358.6098115469162
 31
0
  0
LINE
  8
1
 62
7
 10
-1075.06341624591
 20
277.620899432787
 30
0
 11
-1108.46373886613
 21
334.5920728526241
 31
0
  0
LINE
  8
1
 62
7
 10
-1073.597238149218
 20
258.7968027482548
 30
0
 11
-1048.668416933313
 21
214.9467725684257
 31
0
  0
LINE
  8
1
 62
7
 10
-1038.455187390584
 20
359.8487921213863
 30
0
 11
-1026.366069454358
 21
293.8616192446611
 31
0
  0
LINE
  8
1
 62
7
 10
-1114.654895515611
 20
331.017606894451
 30
0
 11
-1082.016573360735
 21
273.6064923008253
 31
0
  0
LINE
  8
1
 62
7
 10
-1082.016573360735
 20
273.6064923008253
 30
0
 11
-1115.171508866881
 21
331.9263346216173
 31
0
  0
LINE
  8
1
 62
7
 10
-1115.269300360013
 20
245.7041413400913
 30
0
 11
-1166.945839100672
 21
288.4825132179924
 31
0
  0
LINE
  8
1
 62
7
 10
-1108.992413487345
 20
335.4938370023407
 30
0
 11
-1075.06341624591
 21
277.620899432787
 31
0
  0
LINE
  8
1
 62
7
 10
-1171.532131756384
 20
283.0167824688587
 30
0
 11
-1120.430122689338
 21
239.5537127883781
 31
0
  0
LINE
  8
1
 62
7
 10
-1078.574905422692
 20
179.3056074693304
 30
0
 11
-1126.087599489134
 21
196.2412260448419
 31
0
  0
LINE
  8
1
 62
7
 10
-1142.134298796856
 20
201.9609770337351
 30
0
 11
-1205.325425800128
 21
224.4850802299796
 31
0
  0
LINE
  8
1
 62
7
 10
-1128.911245100904
 20
188.4833234859618
 30
0
 11
-1081.628404050978
 21
170.9161889377792
 31
0
  0
LINE
  8
1
 62
7
 10
-1207.765741151268
 20
217.7803689063759
 30
0
 11
-1144.880315002138
 21
194.4163595162654
 31
0
  0
LINE
  8
1
 62
7
 10
-1219.502029007385
 20
144.0855681967287
 30
0
 11
-1152.418096259803
 21
143.6386634454902
 31
0
  0
LINE
  8
1
 62
7
 10
-1081.628404050978
 20
124.389952217125
 30
0
 11
-1128.911245100904
 21
106.8228176689423
 31
0
  0
LINE
  8
1
 62
7
 10
-1144.880315002138
 20
100.8897816386387
 30
0
 11
-1207.765741151268
 21
77.52577224852837
 31
0
  0
LINE
  8
1
 62
7
 10
-1126.087599489134
 20
99.06491511006226
 30
0
 11
-1078.574905422692
 21
116.0005336855738
 31
0
  0
LINE
  8
1
 62
7
 10
-1219.502029007385
 20
151.2205729581755
 30
0
 11
-1152.418096259803
 21
151.667477709414
 31
0
  0
LINE
  8
1
 62
7
 10
-1205.325425800128
 20
70.82106092492455
 30
0
 11
-1142.134298796856
 21
93.34516412116903
 31
0
  0
LINE
  8
1
 62
7
 10
-1120.430122689338
 20
55.75242836652592
 30
0
 11
-1171.532131756385
 21
12.28935868604555
 31
0
  0
LINE
  8
1
 62
7
 10
-1048.668416933313
 20
80.35936858647847
 30
0
 11
-1073.597238149218
 21
36.50933840664936
 31
0
  0
LINE
  8
1
 62
7
 10
-1115.269300360014
 20
49.60199981481287
 30
0
 11
-1166.945839100672
 21
6.823627936911748
 31
0
  0
LINE
  8
1
 62
7
 10
-1066.447516476981
 20
32.38144467455226
 30
0
 11
-1040.936686992487
 21
75.89545222384123
 31
0
  0
LINE
  8
1
 62
7
 10
-1075.06341624591
 20
17.68524172211704
 30
0
 11
-1108.992413487345
 21
-40.18769584743666
 31
0
  0
LINE
  8
1
 62
7
 10
-1034.272907988965
 20
2.838710875999425
 30
0
 11
-1045.481795397436
 21
-63.30367039201215
 31
0
  0
LINE
  8
1
 62
7
 10
-1115.171508866881
 20
-36.62019346671315
 30
0
 11
-1082.016573360735
 21
21.69964885407887
 31
0
  0
LINE
  8
1
 62
7
 10
-1026.366069454358
 20
1.444521910242827
 30
0
 11
-1038.455187390584
 21
-64.54265096648226
 31
0
  0
LINE
  8
1
 62
7
 10
-1055.260806378644
 20
161.6530705774521
 30
0
 11
-1066.161893346841
 21
161.6530705774521
 31
0
  0
LINE
  8
1
 62
7
 10
-1066.161893346841
 20
161.6530705774521
 30
0
 11
-1066.161893346841
 21
133.6530705774521
 31
0
  0
LINE
  8
1
 62
7
 10
-1066.161893346841
 20
133.6530705774521
 30
0
 11
-1055.260806378644
 21
133.6530705774521
 31
0
  0
LINE
  8
1
 62
3
  6
DASHDOT
 10
-749.161893346841
 20
-222.3469294225479
 30
0
 11
-800.161893346841
 21
-222.3469294225479
 31
0
  0
LINE
  8
1
 62
3
  6
DASHDOT
 10
-774.661893346841
 20
-196.8469294225479
 30
0
 11
-774.661893346841
 21
-247.8469294225479
 31
0
  0
LINE
  8
1
 62
3
  6
DASHDOT
 10
-1209.161893346841
 20
-222.3469294225479
 30
0
 11
-1260.161893346841
 21
-222.3469294225479
 31
0
  0
LINE
  8
1
 62
3
  6
DASHDOT
 10
-1234.661893346841
 20
-196.8469294225479
 30
0
 11
-1234.661893346841
 21
-247.8469294225479
 31
0
  0
LINE
  8
1
 62
3
  6
DASHDOT
 10
-1004.661893346841
 20
433.6530705774521
 30
0
 11
-1004.661893346841
 21
411.6530705774521
 31
0
  0
LINE
  8
1
 62
3
  6
DASHDOT
 10
-1028.161893346841
 20
420.4167045171693
 30
0
 11
-1051.161893346841
 21
420.4167045171693
 31
0
  0
LINE
  8
1
 62
3
  6
DASHDOT
 10
-1039.661893346841
 20
431.9167045171693
 30
0
 11
-1039.661893346841
 21
408.9167045171693
 31
0
  0
LINE
  8
1
 62
3
  6
DASHDOT
 10
-1267.967560112557
 20
256.7178488015024
 30
0
 11
-1249.489969462331
 21
249.064180154201
 31
0
  0
LINE
  8
1
 62
3
  6
DASHDOT
 10
-1254.734700135807
 20
262.0587539788704
 30
0
 11
-1262.722829439083
 21
243.7232749768333
 31
0
  0
LINE
  8
1
 62
3
  6
DASHDOT
 10
-759.8338172313499
 20
46.24196100070316
 30
0
 11
-741.356226581124
 21
38.58829235340193
 31
0
  0
LINE
  8
1
 62
3
  6
DASHDOT
 10
-754.259320264279
 20
33.11066981255692
 30
0
 11
-746.9307235481961
 21
51.71958354154731
 31
0
  0
LINE
  8
1
 62
3
  6
DASHDOT
 10
-958.661893346841
 20
-125.110563362265
 30
0
 11
-980.661893346841
 21
-125.110563362265
 31
0
  0
LINE
  8
1
 62
3
  6
DASHDOT
 10
-969.661893346841
 20
-114.110563362265
 30
0
 11
-969.661893346841
 21
-136.110563362265
 31
0
  0
LINE
  8
1
 62
3
  6
DASHDOT
 10
-1206.894432766193
 20
349.8856099968048
 30
0
 11
-1191.338083580089
 21
334.3292608107006
 31
0
  0
LINE
  8
1
 62
3
  6
DASHDOT
 10
-1290.661893346841
 20
147.6530705774522
 30
0
 11
-1268.661893346841
 21
147.6530705774521
 31
0
  0
LINE
  8
1
 62
3
  6
DASHDOT
 10
-1206.894432766193
 20
-54.57946884190028
 30
0
 11
-1191.338083580089
 21
-39.02311965579634
 31
0
  0
LINE
  8
1
 62
3
  6
DASHDOT
 10
-1004.661893346841
 20
-138.3469294225477
 30
0
 11
-1004.661893346841
 21
-116.3469294225477
 31
0
  0
LINE
  8
1
 62
3
  6
DASHDOT
 10
-802.4293539274891
 20
-54.57946884190051
 30
0
 11
-817.985703113593
 21
-39.02311965579656
 31
0
  0
LINE
  8
1
 62
3
  6
DASHDOT
 10
-718.661893346841
 20
147.6530705774517
 30
0
 11
-740.661893346841
 21
147.6530705774516
 31
0
  0
LINE
  8
1
 62
3
  6
DASHDOT
 10
-802.4293539274879
 20
349.8856099968042
 30
0
 11
-817.9857031135921
 21
334.3292608107
 31
0
  0
LINE
  8
1
 62
7
 10
249.8742340954704
 20
357.2283422568601
 30
0
 11
252.5868930333017
 21
356.2410151477734
 31
0
  0
LINE
  8
1
 62
7
 10
252.5868930333017
 20
356.2410151477734
 30
0
 11
253.0881721439032
 21
353.3981200412652
 31
0
  0
LINE
  8
1
 62
7
 10
253.0881721439032
 20
353.3981200412652
 30
0
 11
250.8767923166735
 21
351.5425520438439
 31
0
  0
LINE
  8
1
 62
7
 10
250.8767923166735
 20
351.5425520438439
 30
0
 11
248.1641333788423
 21
352.5298791529306
 31
0
  0
LINE
  8
1
 62
7
 10
248.1641333788423
 20
352.5298791529306
 30
0
 11
247.6628542682408
 21
355.3727742594385
 31
0
  0
LINE
  8
1
 62
7
 10
247.6628542682408
 20
355.3727742594385
 30
0
 11
249.8742340954704
 21
357.2283422568601
 31
0
  0
LINE
  8
1
 62
7
 10
-990.661893346841
 20
267.2375441183951
 30
0
 11
-1018.661893346841
 21
267.2375441183951
 31
0
  0
LINE
  8
1
 62
7
 10
-1018.661893346841
 20
241.2375441183951
 30
0
 11
-990.661893346841
 21
241.2375441183951
 31
0
  0
LINE
  8
1
 62
7
 10
-1018.661893346841
 20
28.06859703650906
 30
0
 11
-990.661893346841
 21
28.06859703650906
 31
0
  0
LINE
  8
1
 62
7
 10
-990.661893346841
 20
54.06859703650909
 30
0
 11
-1018.661893346841
 21
54.06859703650909
 31
0
  0
ARC
  8
1
 62
7
 10
175.1310816744249
 20
147.653070577452
 30
0
 40
85.99999999999999
 50
254.8218210620501
 51
256.8945361984548
  0
ARC
  8
1
 62
7
 10
-1004.661893346841
 20
147.6530705774521
 30
0
 40
54.9999999999992
 50
194.7466528752449
 51
165.2533471247551
  0
ARC
  8
1
 62
3
 10
92.78130403913494
 20
78.55340253614908
 30
0
 40
6.399999999999897
 50
271.375167126947
 51
348.6248328730505
  0
ARC
  8
1
 62
3
 10
92.78130403913494
 20
78.55340253614908
 30
0
 40
6.400000000000153
 50
91.37516712694688
 51
168.6248328730511
  0
ARC
  8
1
 62
7
 10
92.78130403913494
 20
78.55340253614908
 30
0
 40
6.499999999999966
 50
169.7151372318241
 51
270.2848627681742
  0
ARC
  8
1
 62
7
 10
92.78130403913494
 20
78.55340253614908
 30
0
 40
6.499999999999911
 50
349.7151372318268
 51
90.28486276817365
  0
ARC
  8
1
 62
7
 10
67.63108167442508
 20
147.653070577452
 30
0
 40
6.500000000000007
 50
129.7151372318236
 51
230.2848627681744
  0
ARC
  8
1
 62
3
 10
67.63108167442508
 20
147.653070577452
 30
0
 40
6.399999999999864
 50
231.3751671269473
 51
308.624832873051
  0
ARC
  8
1
 62
3
 10
67.63108167442508
 20
147.653070577452
 30
0
 40
6.400000000000245
 50
51.37516712694715
 51
128.6248328730506
  0
ARC
  8
1
 62
7
 10
67.63108167442508
 20
147.653070577452
 30
0
 40
6.499999999999861
 50
309.7151372318275
 51
50.28486276817478
  0
ARC
  8
1
 62
3
 10
257.4808593097151
 20
78.55340253614908
 30
0
 40
6.400000000000031
 50
191.3751671269493
 51
268.624832873053
  0
ARC
  8
1
 62
3
 10
257.4808593097151
 20
78.55340253614908
 30
0
 40
6.399999999999965
 50
11.37516712694889
 51
88.62483287305261
  0
ARC
  8
1
 62
7
 10
257.4808593097151
 20
78.55340253614908
 30
0
 40
6.499999999999881
 50
269.7151372318259
 51
10.28486276817596
  0
ARC
  8
1
 62
7
 10
257.4808593097151
 20
78.55340253614908
 30
0
 40
6.500000000000137
 50
89.71513723182534
 51
190.2848627681732
  0
ARC
  8
1
 62
3
 10
282.6310816744249
 20
147.653070577452
 30
0
 40
6.399999999999858
 50
231.3751671269502
 51
308.6248328730529
  0
ARC
  8
1
 62
3
 10
282.6310816744249
 20
147.653070577452
 30
0
 40
6.399999999999943
 50
51.37516712694891
 51
128.624832873052
  0
ARC
  8
1
 62
7
 10
282.6310816744249
 20
147.653070577452
 30
0
 40
6.499999999999856
 50
309.7151372318259
 51
50.28486276817651
  0
ARC
  8
1
 62
7
 10
282.6310816744249
 20
147.653070577452
 30
0
 40
6.500000000000185
 50
129.7151372318254
 51
230.2848627681739
  0
ARC
  8
1
 62
3
 10
257.4808593097151
 20
216.752738618755
 30
0
 40
6.399999999999991
 50
271.37516712695
 51
348.6248328730527
  0
ARC
  8
1
 62
3
 10
257.4808593097151
 20
216.752738618755
 30
0
 40
6.39999999999999
 50
91.37516712694946
 51
168.6248328730529
  0
ARC
  8
1
 62
7
 10
257.4808593097151
 20
216.752738618755
 30
0
 40
6.499999999999861
 50
349.7151372318265
 51
90.28486276817468
  0
ARC
  8
1
 62
7
 10
257.4808593097151
 20
216.752738618755
 30
0
 40
6.500000000000132
 50
169.7151372318259
 51
270.2848627681737
  0
ARC
  8
1
 62
3
 10
92.78130403913494
 20
216.752738618755
 30
0
 40
6.400000000000012
 50
191.3751671269471
 51
268.6248328730498
  0
ARC
  8
1
 62
3
 10
92.78130403913494
 20
216.752738618755
 30
0
 40
6.39999999999999
 50
11.37516712694742
 51
88.62483287305231
  0
ARC
  8
1
 62
7
 10
92.78130403913494
 20
216.752738618755
 30
0
 40
6.499999999999995
 50
89.71513723182584
 51
190.2848627681733
  0
ARC
  8
1
 62
7
 10
92.78130403913494
 20
216.752738618755
 30
0
 40
6.499999999999853
 50
269.7151372318252
 51
10.28486276817424
  0
ARC
  8
1
 62
7
 10
175.1310816744249
 20
147.653070577452
 30
0
 40
300
 50
0
 51
180
  0
ARC
  8
1
 62
7
 10
175.1310816744249
 20
147.653070577452
 30
0
 40
92.99999999999997
 50
49.99999999999995
 51
129.9999999999999
  0
ARC
  8
1
 62
7
 10
92.78130403913494
 20
216.752738618755
 30
0
 40
17.49999999999999
 50
100.4165808059342
 51
180
  0
ARC
  8
1
 62
7
 10
67.63108167442508
 20
147.653070577452
 30
0
 40
17.50000000000004
 50
139.9999999999999
 51
219.5834191940658
  0
ARC
  8
1
 62
7
 10
92.78130403913494
 20
78.55340253614908
 30
0
 40
17.5
 50
180
 51
259.5834191940658
  0
ARC
  8
1
 62
7
 10
175.1310816744249
 20
147.653070577452
 30
0
 40
121.4999999999999
 50
132.3585170233473
 51
227.6414829766527
  0
ARC
  8
1
 62
7
 10
175.1310816744249
 20
147.653070577452
 30
0
 40
92.99999999999989
 50
230.0000000000001
 51
310
  0
ARC
  8
1
 62
7
 10
175.1310816744249
 20
147.653070577452
 30
0
 40
85
 50
258.1188439789893
 51
268.9888455218948
  0
ARC
  8
1
 62
7
 10
175.1310816744249
 20
147.653070577452
 30
0
 40
299.9999999999999
 50
180
 51
0
  0
ARC
  8
1
 62
7
 10
175.1310816744249
 20
147.653070577452
 30
0
 40
235
 50
261.1717206276125
 51
278.8282793723876
  0
ARC
  8
1
 62
7
 10
175.1310816744249
 20
147.653070577452
 30
0
 40
85.99999999999994
 50
230.0000000000001
 51
251.3511386584338
  0
ARC
  8
1
 62
7
 10
175.1310816744249
 20
147.653070577452
 30
0
 40
84.99999999999999
 50
271.0111544781051
 51
233.6955551386138
  0
ARC
  8
1
 62
7
 10
175.1310816744249
 20
147.653070577452
 30
0
 40
86.00000000000006
 50
49.99999999999992
 51
130
  0
ARC
  8
1
 62
7
 10
175.1310816744249
 20
147.653070577452
 30
0
 40
85.99999999999999
 50
258.2568374876142
 51
269.0006043316831
  0
ARC
  8
1
 62
7
 10
175.1310816744249
 20
147.653070577452
 30
0
 40
62.50000000000001
 50
271.3752307520186
 51
268.6247692479814
  0
ARC
  8
1
 62
7
 10
175.1310816744249
 20
147.653070577452
 30
0
 40
61.41499999999997
 50
271.3995313238281
 51
268.6004686761719
  0
ARC
  8
1
 62
7
 10
175.1310816744249
 20
147.653070577452
 30
0
 40
80.99999999999999
 50
271.0610936076226
 51
237.7447595736786
  0
ARC
  8
1
 62
7
 10
282.6310816744249
 20
147.653070577452
 30
0
 40
17.49999999999994
 50
320.4165808059341
 51
39.99999999999991
  0
ARC
  8
1
 62
7
 10
257.4808593097151
 20
78.55340253614908
 30
0
 40
17.5
 50
280.4165808059343
 51
0
  0
ARC
  8
1
 62
7
 10
257.4808593097151
 20
216.752738618755
 30
0
 40
17.5
 50
0
 51
79.5834191940658
  0
ARC
  8
1
 62
7
 10
175.1310816744249
 20
147.653070577452
 30
0
 40
121.5
 50
312.3585170233474
 51
47.64148297665263
  0
ARC
  8
1
 62
7
 10
175.1310816744249
 20
147.653070577452
 30
0
 40
85.99999999999999
 50
270.9993956683169
 51
310.0000000000001
  0
ARC
  8
1
 62
7
 10
175.1310816744249
 20
147.653070577452
 30
0
 40
235.0000000000001
 50
61.17172062761239
 51
78.8282793723876
  0
ARC
  8
1
 62
7
 10
175.1310816744249
 20
147.653070577452
 30
0
 40
234.9999999999999
 50
81.1717206276124
 51
98.82827937238756
  0
ARC
  8
1
 62
7
 10
175.1310816744249
 20
147.653070577452
 30
0
 40
234.9999999999999
 50
101.1717206276123
 51
118.8282793723875
  0
ARC
  8
1
 62
7
 10
175.1310816744249
 20
147.653070577452
 30
0
 40
234.9999999999998
 50
121.1717206276124
 51
138.8282793723876
  0
ARC
  8
1
 62
7
 10
175.1310816744249
 20
147.653070577452
 30
0
 40
234.9999999999998
 50
141.1717206276124
 51
158.8282793723876
  0
ARC
  8
1
 62
7
 10
175.1310816744249
 20
147.653070577452
 30
0
 40
234.9999999999998
 50
161.1717206276123
 51
198.8282793723876
  0
ARC
  8
1
 62
7
 10
175.1310816744249
 20
147.653070577452
 30
0
 40
235
 50
201.1717206276125
 51
218.8282793723876
  0
ARC
  8
1
 62
7
 10
175.1310816744249
 20
147.653070577452
 30
0
 40
235
 50
221.1717206276124
 51
238.8282793723876
  0
ARC
  8
1
 62
7
 10
175.1310816744249
 20
147.653070577452
 30
0
 40
235
 50
241.1717206276124
 51
258.8282793723877
  0
ARC
  8
1
 62
7
 10
175.1310816744249
 20
147.653070577452
 30
0
 40
235
 50
281.1717206276124
 51
298.8282793723876
  0
ARC
  8
1
 62
7
 10
175.1310816744249
 20
147.653070577452
 30
0
 40
235
 50
301.1717206276124
 51
318.8282793723877
  0
ARC
  8
1
 62
7
 10
175.1310816744249
 20
147.653070577452
 30
0
 40
235
 50
321.1717206276124
 51
338.8282793723876
  0
ARC
  8
1
 62
7
 10
175.1310816744249
 20
147.653070577452
 30
0
 40
235
 50
341.1717206276124
 51
18.82827937238761
  0
ARC
  8
1
 62
7
 10
175.1310816744249
 20
147.653070577452
 30
0
 40
235.0000000000001
 50
21.17172062761242
 51
38.82827937238756
  0
ARC
  8
1
 62
7
 10
175.1310816744249
 20
147.653070577452
 30
0
 40
235.0000000000001
 50
41.17172062761235
 51
58.82827937238764
  0
ARC
  8
1
 62
7
 10
-303.1784592763788
 20
244.765570577452
 30
0
 40
5.096555662506254
 50
137.204756109736
 51
222.795243890264
  0
ARC
  8
1
 62
7
 10
-289.9239519877537
 20
255.153070577452
 30
0
 40
18.35106295113139
 50
157.8296048630373
 51
202.1703951369627
  0
ARC
  8
1
 62
7
 10
-303.1784592763789
 20
265.5405705774521
 30
0
 40
5.096555662506115
 50
137.2047561097367
 51
222.7952438902652
  0
ARC
  8
1
 62
7
 10
-303.3715706013913
 20
244.765570577452
 30
0
 40
5.096555662506254
 50
317.204756109736
 51
42.79524389026403
  0
ARC
  8
1
 62
7
 10
-316.6260778900165
 20
255.153070577452
 30
0
 40
18.35106295113149
 50
337.8296048630375
 51
22.17039513696256
  0
ARC
  8
1
 62
7
 10
-303.3715706013913
 20
265.5405705774521
 30
0
 40
5.096555662506312
 50
317.2047561097353
 51
42.79524389026285
  0
ARC
  8
1
 62
7
 10
-1004.661893346841
 20
147.6530705774521
 30
0
 40
143.9999999999999
 50
63.10413059447397
 51
76.89586940552594
  0
ARC
  8
1
 62
7
 10
-1004.661893346841
 20
147.6530705774521
 30
0
 40
135.0000000000007
 50
343.5571619729976
 51
16.44283802700237
  0
ARC
  8
1
 62
7
 10
-1004.661893346841
 20
147.6530705774521
 30
0
 40
219
 50
62.29628923107337
 51
77.98292820553711
  0
ARC
  8
1
 62
7
 10
-1004.661893346841
 20
147.6530705774521
 30
0
 40
143.9999999999998
 50
43.10413059447399
 51
56.89586940552596
  0
ARC
  8
1
 62
7
 10
-1004.661893346841
 20
147.6530705774521
 30
0
 40
219.0000000000003
 50
42.01707179446285
 51
57.70371076892679
  0
ARC
  8
1
 62
7
 10
-1004.661893346841
 20
147.6530705774521
 30
0
 40
144.0000000000001
 50
23.1041305944739
 51
36.89586940552601
  0
ARC
  8
1
 62
7
 10
-1004.661893346841
 20
147.6530705774521
 30
0
 40
218.9999999999996
 50
22.017071794463
 51
37.98292820553705
  0
ARC
  8
1
 62
7
 10
-1004.661893346841
 20
147.6530705774521
 30
0
 40
144.0000000000004
 50
3.104130594473948
 51
16.89586940552601
  0
ARC
  8
1
 62
7
 10
-1004.661893346841
 20
147.6530705774521
 30
0
 40
219.0000000000001
 50
2.017071794462943
 51
17.98292820553703
  0
ARC
  8
1
 62
7
 10
-1004.661893346841
 20
147.6530705774521
 30
0
 40
144.0000000000001
 50
343.1041305944739
 51
356.895869405526
  0
ARC
  8
1
 62
7
 10
-1004.661893346841
 20
147.6530705774521
 30
0
 40
219.0000000000002
 50
342.017071794463
 51
357.9829282055371
  0
ARC
  8
1
 62
7
 10
-1004.661893346841
 20
147.6530705774521
 30
0
 40
144.0000000000001
 50
323.104130594474
 51
336.8958694055261
  0
ARC
  8
1
 62
7
 10
-1004.661893346841
 20
147.6530705774521
 30
0
 40
218.9999999999998
 50
322.0170717944629
 51
337.982928205537
  0
ARC
  8
1
 62
7
 10
-1004.661893346841
 20
147.6530705774521
 30
0
 40
144.0000000000003
 50
303.104130594474
 51
316.8958694055262
  0
ARC
  8
1
 62
7
 10
-1004.661893346841
 20
147.6530705774521
 30
0
 40
219.0000000000004
 50
302.0170717944631
 51
317.9829282055372
  0
ARC
  8
1
 62
7
 10
-1004.661893346841
 20
147.6530705774521
 30
0
 40
144.0000000000002
 50
283.104130594474
 51
296.895869405526
  0
ARC
  8
1
 62
7
 10
-1004.661893346841
 20
147.6530705774521
 30
0
 40
219.0000000000001
 50
282.0170717944629
 51
297.9829282055372
  0
ARC
  8
1
 62
7
 10
-1004.661893346841
 20
147.6530705774521
 30
0
 40
134.9999999999996
 50
23.55716197299758
 51
56.44283802700255
  0
ARC
  8
1
 62
7
 10
-1004.661893346841
 20
147.6530705774521
 30
0
 40
134.9999999999999
 50
303.5571619729974
 51
336.4428380270026
  0
ARC
  8
1
 62
7
 10
-1004.661893346841
 20
147.6530705774521
 30
0
 40
225
 50
0
 51
38.12363927265227
  0
ARC
  8
1
 62
7
 10
-1004.661893346841
 20
300.153070577452
 30
0
 40
6
 50
0
 51
90
  0
ARC
  8
1
 62
7
 10
-1004.661893346841
 20
300.153070577452
 30
0
 40
6
 50
270
 51
0
  0
ARC
  8
1
 62
7
 10
-1004.661893346841
 20
147.6530705774521
 30
0
 40
224.9999999999995
 50
38.12363927265227
 51
0
  0
ARC
  8
1
 62
7
 10
-1004.661893346841
 20
147.6530705774521
 30
0
 40
52.49999999999968
 50
195.4660099534206
 51
164.5339900465794
  0
ARC
  8
1
 62
7
 10
-1004.661893346841
 20
147.6530705774521
 30
0
 40
144
 50
83.10413059447404
 51
96.895869405526
  0
ARC
  8
1
 62
7
 10
-1004.661893346841
 20
147.6530705774521
 30
0
 40
143.9999999999997
 50
103.1041305944737
 51
116.895869405526
  0
ARC
  8
1
 62
7
 10
-1004.661893346841
 20
147.6530705774521
 30
0
 40
134.9999999999999
 50
63.55716197299755
 51
116.4428380270025
  0
ARC
  8
1
 62
7
 10
-1004.661893346841
 20
147.6530705774521
 30
0
 40
134.9999999999996
 50
163.5571619729975
 51
196.4428380270025
  0
ARC
  8
1
 62
7
 10
-1004.661893346841
 20
147.6530705774521
 30
0
 40
218.9999999999999
 50
82.01707179446301
 51
97.98292820553698
  0
ARC
  8
1
 62
7
 10
-1004.661893346841
 20
147.6530705774521
 30
0
 40
218.9999999999999
 50
102.0170717944629
 51
117.7037107689266
  0
ARC
  8
1
 62
7
 10
-1004.661893346841
 20
147.6530705774521
 30
0
 40
143.9999999999996
 50
123.1041305944737
 51
136.895869405526
  0
ARC
  8
1
 62
7
 10
-1004.661893346841
 20
147.6530705774521
 30
0
 40
218.9999999999995
 50
122.296289231073
 51
137.982928205537
  0
ARC
  8
1
 62
7
 10
-1004.661893346841
 20
147.6530705774521
 30
0
 40
144.0000000000001
 50
143.104130594474
 51
156.8958694055261
  0
ARC
  8
1
 62
7
 10
-1004.661893346841
 20
147.6530705774521
 30
0
 40
218.9999999999998
 50
142.0170717944629
 51
157.982928205537
  0
ARC
  8
1
 62
7
 10
-1004.661893346841
 20
147.6530705774521
 30
0
 40
144.0000000000001
 50
163.104130594474
 51
176.895869405526
  0
ARC
  8
1
 62
7
 10
-1004.661893346841
 20
147.6530705774521
 30
0
 40
218.9999999999994
 50
162.0170717944629
 51
177.9829282055371
  0
ARC
  8
1
 62
7
 10
-1004.661893346841
 20
147.6530705774521
 30
0
 40
143.9999999999993
 50
183.104130594474
 51
196.895869405526
  0
ARC
  8
1
 62
7
 10
-1004.661893346841
 20
147.6530705774521
 30
0
 40
218.9999999999992
 50
182.017071794463
 51
197.982928205537
  0
ARC
  8
1
 62
7
 10
-1004.661893346841
 20
147.6530705774521
 30
0
 40
144.0000000000001
 50
203.1041305944739
 51
216.895869405526
  0
ARC
  8
1
 62
7
 10
-1004.661893346841
 20
147.6530705774521
 30
0
 40
218.9999999999996
 50
202.017071794463
 51
217.9829282055371
  0
ARC
  8
1
 62
7
 10
-1004.661893346841
 20
147.6530705774521
 30
0
 40
143.9999999999999
 50
223.104130594474
 51
236.8958694055263
  0
ARC
  8
1
 62
7
 10
-1004.661893346841
 20
147.6530705774521
 30
0
 40
218.9999999999995
 50
222.0170717944631
 51
237.9829282055372
  0
ARC
  8
1
 62
7
 10
-1004.661893346841
 20
147.6530705774521
 30
0
 40
144.0000000000001
 50
243.104130594474
 51
256.8958694055263
  0
ARC
  8
1
 62
7
 10
-1004.661893346841
 20
147.6530705774521
 30
0
 40
218.9999999999998
 50
242.0170717944631
 51
257.9829282055371
  0
ARC
  8
1
 62
7
 10
-1004.661893346841
 20
147.6530705774521
 30
0
 40
135.0000000000001
 50
243.5571619729975
 51
296.4428380270024
  0
ARC
  8
1
 62
7
 10
-1004.661893346841
 20
147.6530705774521
 30
0
 40
134.9999999999999
 50
123.5571619729975
 51
156.4428380270024
  0
ARC
  8
1
 62
7
 10
-1004.661893346841
 20
147.6530705774521
 30
0
 40
134.9999999999996
 50
203.5571619729976
 51
236.4428380270026
  0
ARC
  8
1
 62
7
 10
-1004.661893346841
 20
147.6530705774521
 30
0
 40
219.0000000000001
 50
262.0170717944631
 51
277.9829282055372
  0
ARC
  8
1
 62
7
 10
-1004.661893346841
 20
147.6530705774521
 30
0
 40
144.0000000000001
 50
263.104130594474
 51
276.895869405526
  0
ARC
  8
1
 62
7
 10
-1004.661893346841
 20
300.153070577452
 30
0
 40
6
 50
90
 51
180
  0
ARC
  8
1
 62
7
 10
-1004.661893346841
 20
300.153070577452
 30
0
 40
6
 50
180
 51
270
  0
ARC
  8
1
 62
3
  6
DASHDOT
 10
-1004.661893346841
 20
147.6530705774521
 30
0
 40
275.0000000000002
 50
87.34344949150005
 51
92.43318432491103
  0
ARC
  8
1
 62
3
  6
DASHDOT
 10
-1004.661893346841
 20
147.6530705774521
 30
0
 40
275.0000000000001
 50
132.3434494915
 51
137.4331843249109
  0
ARC
  8
1
 62
3
  6
DASHDOT
 10
-1004.661893346841
 20
147.6530705774521
 30
0
 40
274.9999999999999
 50
177.3434494915001
 51
182.433184324911
  0
ARC
  8
1
 62
3
  6
DASHDOT
 10
-1004.661893346841
 20
147.6530705774521
 30
0
 40
274.9999999999999
 50
222.3434494915
 51
227.433184324911
  0
ARC
  8
1
 62
3
  6
DASHDOT
 10
-1004.661893346841
 20
147.6530705774521
 30
0
 40
275.0000000000001
 50
267.3434494915
 51
272.4331843249108
  0
ARC
  8
1
 62
3
  6
DASHDOT
 10
-1004.661893346841
 20
147.6530705774521
 30
0
 40
275.0000000000003
 50
312.3434494915
 51
317.4331843249109
  0
ARC
  8
1
 62
3
  6
DASHDOT
 10
-1004.661893346841
 20
147.6530705774521
 30
0
 40
275
 50
357.3434494914999
 51
2.433184324910907
  0
ARC
  8
1
 62
3
  6
DASHDOT
 10
-1004.661893346841
 20
147.6530705774521
 30
0
 40
274.9999999999997
 50
42.34344949149998
 51
47.43318432491093
  0
ARC
  8
1
 62
7
 10
-990.661893346841
 20
254.2375441183951
 30
0
 40
13
 50
270
 51
90
  0
ARC
  8
1
 62
7
 10
-1018.661893346841
 20
254.2375441183951
 30
0
 40
12.99999999999997
 50
90
 51
270
  0
ARC
  8
1
 62
7
 10
-990.661893346841
 20
41.06859703650895
 30
0
 40
12.99999999999989
 50
270
 51
90
  0
ARC
  8
1
 62
7
 10
-1018.661893346841
 20
41.06859703650895
 30
0
 40
13.00000000000014
 50
90
 51
270
  0
CIRCLE
  8
1
 62
7
 10
-54.86891832557498
 20
-222.346929422548
 30
0
 40
22.5
  0
CIRCLE
  8
1
 62
7
 10
-922.3121157115511
 20
78.55340253614907
 30
0
 40
12.49999999999983
  0
CIRCLE
  8
1
 62
7
 10
-922.3121157115511
 20
78.55340253614907
 30
0
 40
19.99999999999985
  0
CIRCLE
  8
1
 62
7
 10
-897.161893346841
 20
147.6530705774521
 30
0
 40
19.9999999999995
  0
CIRCLE
  8
1
 62
7
 10
-897.161893346841
 20
147.6530705774521
 30
0
 40
12.49999999999967
  0
CIRCLE
  8
1
 62
7
 10
-922.3121157115511
 20
216.7527386187551
 30
0
 40
12.5
  0
CIRCLE
  8
1
 62
7
 10
-922.3121157115511
 20
216.7527386187551
 30
0
 40
20
  0
CIRCLE
  8
1
 62
7
 10
-1087.011670982131
 20
78.55340253614918
 30
0
 40
20.00000000000012
  0
CIRCLE
  8
1
 62
7
 10
-1087.011670982131
 20
78.55340253614918
 30
0
 40
12.5000000000001
  0
CIRCLE
  8
1
 62
7
 10
-1112.161893346841
 20
147.6530705774521
 30
0
 40
12.49999999999967
  0
CIRCLE
  8
1
 62
7
 10
-1112.161893346841
 20
147.6530705774521
 30
0
 40
20.00000000000037
  0
CIRCLE
  8
1
 62
7
 10
-1087.01167098213
 20
216.7527386187551
 30
0
 40
12.50000000000091
  0
CIRCLE
  8
1
 62
7
 10
-1087.01167098213
 20
216.7527386187551
 30
0
 40
20.00000000000091
  0
CIRCLE
  8
1
 62
7
 10
-1004.661893346841
 20
147.6530705774521
 30
0
 40
50
  0
CIRCLE
  8
1
 62
3
  6
DASHED
 10
-409.2750149388851
 20
147.653070577452
 30
0
 40
15
  0
CIRCLE
  8
1
 62
7
 10
175.1310816744249
 20
147.653070577452
 30
0
 40
50
  0
CIRCLE
  8
1
 62
7
 10
-90.76701163887095
 20
194.5380785475232
 30
0
 40
17.49999999999994
  0
CIRCLE
  8
1
 62
7
 10
-58.69577734737325
 20
282.653070577452
 30
0
 40
17.49999999999991
  0
CIRCLE
  8
1
 62
7
 10
1.578427059059583
 20
354.485070219576
 30
0
 40
17.49999999999998
  0
CIRCLE
  8
1
 62
7
 10
82.78564297649464
 20
401.3700781896472
 30
0
 40
17.50000000000005
  0
CIRCLE
  8
1
 62
7
 10
92.78130403913494
 20
216.752738618755
 30
0
 40
8
  0
CIRCLE
  8
1
 62
7
 10
92.78130403913494
 20
216.752738618755
 30
0
 40
12
  0
CIRCLE
  8
1
 62
7
 10
67.63108167442508
 20
147.653070577452
 30
0
 40
8.000000000000007
  0
CIRCLE
  8
1
 62
7
 10
67.63108167442508
 20
147.653070577452
 30
0
 40
11.99999999999999
  0
CIRCLE
  8
1
 62
7
 10
92.78130403913494
 20
78.55340253614908
 30
0
 40
8
  0
CIRCLE
  8
1
 62
7
 10
92.78130403913494
 20
78.55340253614908
 30
0
 40
12
  0
CIRCLE
  8
1
 62
7
 10
-90.76701163887086
 20
100.7680626073807
 30
0
 40
17.50000000000019
  0
CIRCLE
  8
1
 62
7
 10
-90.76701163887086
 20
100.7680626073807
 30
0
 40
17.50000000000019
  0
CIRCLE
  8
1
 62
7
 10
-58.69577734737337
 20
12.65307057745207
 30
0
 40
17.50000000000001
  0
CIRCLE
  8
1
 62
7
 10
1.578427059059461
 20
-59.17892906467203
 30
0
 40
17.49999999999995
  0
CIRCLE
  8
1
 62
7
 10
82.78564297649453
 20
-106.0639370347432
 30
0
 40
17.50000000000001
  0
CIRCLE
  8
1
 62
7
 10
107.6878758011011
 20
119.7171800148004
 30
0
 40
5.25
  0
CIRCLE
  8
1
 62
7
 10
147.1951911117735
 20
215.0962764507759
 30
0
 40
5.250000000000043
  0
CIRCLE
  8
1
 62
7
 10
107.6878758011011
 20
175.5889611401036
 30
0
 40
5.25
  0
CIRCLE
  8
1
 62
7
 10
242.5742875477488
 20
119.7171800148004
 30
0
 40
5.25
  0
CIRCLE
  8
1
 62
7
 10
203.0669722370766
 20
215.0962764507759
 30
0
 40
5.249999999999882
  0
CIRCLE
  8
1
 62
7
 10
242.5742875477488
 20
175.5889611401036
 30
0
 40
5.25
  0
CIRCLE
  8
1
 62
7
 10
282.6310816744249
 20
147.653070577452
 30
0
 40
8
  0
CIRCLE
  8
1
 62
7
 10
282.6310816744249
 20
147.653070577452
 30
0
 40
12
  0
CIRCLE
  8
1
 62
7
 10
257.4808593097151
 20
78.55340253614908
 30
0
 40
8
  0
CIRCLE
  8
1
 62
7
 10
257.4808593097151
 20
78.55340253614908
 30
0
 40
12
  0
CIRCLE
  8
1
 62
7
 10
257.4808593097151
 20
216.752738618755
 30
0
 40
8
  0
CIRCLE
  8
1
 62
7
 10
257.4808593097151
 20
216.752738618755
 30
0
 40
12
  0
CIRCLE
  8
1
 62
7
 10
405.131081674425
 20
-222.346929422548
 30
0
 40
22.5
  0
CIRCLE
  8
1
 62
7
 10
267.4765203723555
 20
401.3700781896472
 30
0
 40
17.50000000000006
  0
CIRCLE
  8
1
 62
7
 10
348.6837362897904
 20
354.485070219576
 30
0
 40
17.49999999999985
  0
CIRCLE
  8
1
 62
7
 10
408.9579406962233
 20
282.653070577452
 30
0
 40
17.49999999999991
  0
CIRCLE
  8
1
 62
7
 10
441.0291749877209
 20
194.5380785475232
 30
0
 40
17.49999999999995
  0
CIRCLE
  8
1
 62
7
 10
441.029174987721
 20
100.7680626073809
 30
0
 40
17.49999999999996
  0
CIRCLE
  8
1
 62
7
 10
408.9579406962233
 20
12.65307057745207
 30
0
 40
17.50000000000001
  0
CIRCLE
  8
1
 62
7
 10
348.6837362897907
 20
-59.17892906467203
 30
0
 40
17.4999999999999
  0
CIRCLE
  8
1
 62
7
 10
267.4765203723555
 20
-106.0639370347432
 30
0
 40
17.50000000000012
  0
CIRCLE
  8
1
 62
7
 10
-1004.661893346841
 20
147.6530705774521
 30
0
 40
75.00000000000004
  0
CIRCLE
  8
1
 62
7
 10
-906.6367828696441
 20
264.4748481530962
 30
0
 40
6.000000000000132
  0
CIRCLE
  8
1
 62
7
 10
-854.4787110124789
 20
174.1344176716589
 30
0
 40
5.999999999999935
  0
CIRCLE
  8
1
 62
7
 10
-872.593019269714
 20
71.40307057745207
 30
0
 40
6
  0
CIRCLE
  8
1
 62
7
 10
-952.5038214896761
 20
4.349945907600954
 30
0
 40
6.000000000000465
  0
CIRCLE
  8
1
 62
7
 10
-922.3121157115511
 20
216.7527386187551
 30
0
 40
24
  0
CIRCLE
  8
1
 62
7
 10
-922.3121157115511
 20
78.55340253614907
 30
0
 40
24
  0
CIRCLE
  8
1
 62
7
 10
-897.161893346841
 20
147.6530705774521
 30
0
 40
24
  0
CIRCLE
  8
1
 62
7
 10
-1102.687003824038
 20
264.4748481530962
 30
0
 40
6.000000000000132
  0
CIRCLE
  8
1
 62
7
 10
-1154.845075681202
 20
174.1344176716589
 30
0
 40
6.000000000000132
  0
CIRCLE
  8
1
 62
7
 10
-1136.730767423967
 20
71.40307057745207
 30
0
 40
6
  0
CIRCLE
  8
1
 62
7
 10
-1056.819965204005
 20
4.349945907600954
 30
0
 40
5.99999999999961
  0
CIRCLE
  8
1
 62
7
 10
-1087.01167098213
 20
216.7527386187551
 30
0
 40
24
  0
CIRCLE
  8
1
 62
7
 10
-1087.011670982131
 20
78.55340253614918
 30
0
 40
23.99999999999909
  0
CIRCLE
  8
1
 62
7
 10
-1112.161893346841
 20
147.6530705774521
 30
0
 40
24
  0
CIRCLE
  8
1
 62
7
 10
-1004.661893346841
 20
147.6530705774521
 30
0
 40
292.5
  0
CIRCLE
  8
1
 62
3
 10
-1004.661893346841
 20
147.6530705774521
 30
0
 40
240
  0
CIRCLE
  8
1
 62
7
 10
-1004.661893346841
 20
147.6530705774521
 30
0
 40
231
  0
CIRCLE
  8
1
 62
7
 10
-1004.661893346841
 20
147.6530705774521
 30
0
 40
300
  0
CIRCLE
  8
1
 62
7
 10
-774.661893346841
 20
-222.3469294225479
 30
0
 40
22.5
  0
CIRCLE
  8
1
 62
7
 10
-1234.661893346841
 20
-222.3469294225479
 30
0
 40
22.5
  0
CIRCLE
  8
1
 62
7
 10
-1004.661893346841
 20
147.6530705774521
 30
0
 40
297.5
  0
CIRCLE
  8
1
 62
7
 10
-1004.661893346841
 20
422.6530705774521
 30
0
 40
8
  0
CIRCLE
  8
1
 62
7
 10
-1039.661893346841
 20
420.4167045171693
 30
0
 40
8.5
  0
CIRCLE
  8
1
 62
7
 10
-1258.728764787445
 20
252.8910144778518
 30
0
 40
5.599999999999909
  0
CIRCLE
  8
1
 62
3
 10
-1258.728764787445
 20
252.8910144778518
 30
0
 40
7
  0
CIRCLE
  8
1
 62
7
 10
-750.595021906237
 20
42.41512667705239
 30
0
 40
5.600000000000136
  0
CIRCLE
  8
1
 62
3
 10
-750.595021906237
 20
42.41512667705239
 30
0
 40
7
  0
CIRCLE
  8
1
 62
7
 10
-969.661893346841
 20
-125.110563362265
 30
0
 40
8
  0
CIRCLE
  8
1
 62
7
 10
-1199.116258173141
 20
342.1074354037527
 30
0
 40
8.000000000000426
  0
CIRCLE
  8
1
 62
7
 10
-1279.661893346841
 20
147.6530705774522
 30
0
 40
8
  0
CIRCLE
  8
1
 62
7
 10
-1199.116258173141
 20
-46.80129424884808
 30
0
 40
7.999999999999748
  0
CIRCLE
  8
1
 62
7
 10
-1004.661893346841
 20
-127.3469294225477
 30
0
 40
8
  0
CIRCLE
  8
1
 62
7
 10
-810.207528520541
 20
-46.80129424884854
 30
0
 40
8.000000000000552
  0
CIRCLE
  8
1
 62
7
 10
-729.661893346841
 20
147.6530705774517
 30
0
 40
8.000000000000114
  0
CIRCLE
  8
1
 62
7
 10
-810.2075285205401
 20
342.1074354037521
 30
0
 40
8.000000000000346
  0
CIRCLE
  8
1
 62
7
 10
175.1310816744248
 20
417.6530705774518
 30
0
 40
17.5
  0
CIRCLE
  8
1
 62
7
 10
175.1310816744249
 20
-122.346929422548
 30
0
 40
17.49999999999999
  0
CIRCLE
  8
1
 62
3
 10
250.3755132060721
 20
354.3854471503519
 30
0
 40
4.278000000000041
  0
CIRCLE
  8
1
 62
7
 10
250.3755132060721
 20
354.3854471503519
 30
0
 40
4.863999999999815
  0
CIRCLE
  8
1
 62
7
 10
250.3755132060721
 20
354.3854471503519
 30
0
 40
2.886751345948023
  0
ARC
  8
1
 62
7
 10
154.131081674425
 20
282.653070577452
 30
0
 40
3
 50
0
 51
90
  0
ARC
  8
1
 62
7
 10
149.6687530273812
 20
290.653070577452
 30
0
 40
4.999999999999958
 50
189.7200035388644
 51
270
  0
ARC
  8
1
 62
7
 10
158.1510237570818
 20
302.653070577452
 30
0
 40
4.999999999999992
 50
190.2799964611356
 51
270
  0
ARC
  8
1
 62
7
 10
152.131081674425
 20
242.9158649937402
 30
0
 40
4.999999999999956
 50
283.5735785965239
 51
0
  0
ARC
  8
1
 62
7
 10
135.4857824032109
 20
237.2758927027113
 30
0
 40
4.999999999999863
 50
210.2799964611368
 51
293.8625468557218
  0
ARC
  8
1
 62
7
 10
117.3380905907037
 20
226.7983179495898
 30
0
 40
4.999999999999991
 50
306.1374531442812
 51
29.72000353886351
  0
ARC
  8
1
 62
7
 10
117.3380905907037
 20
68.50782320531413
 30
0
 40
4.999999999999973
 50
330.2799964611361
 51
53.8625468557201
  0
ARC
  8
1
 62
7
 10
135.4857824032107
 20
58.03024845219284
 30
0
 40
5.000000000000012
 50
66.13745314427956
 51
149.7200035388635
  0
ARC
  8
1
 62
7
 10
152.131081674425
 20
52.39027616116378
 30
0
 40
5
 50
0
 51
76.42642140347614
  0
ARC
  8
1
 62
7
 10
154.131081674425
 20
12.65307057745201
 30
0
 40
2.999999999999996
 50
270
 51
0
  0
ARC
  8
1
 62
7
 10
149.6687530273812
 20
4.653070577452013
 30
0
 40
5
 50
90
 51
170.279996461136
  0
ARC
  8
1
 62
7
 10
158.1510237570818
 20
-7.346929422547987
 30
0
 40
5
 50
90
 51
169.7200035388638
  0
ARC
  8
1
 62
7
 10
-99.86891832557505
 20
-267.346929422548
 30
0
 40
25.00000000000004
 50
180
 51
270
  0
ARC
  8
1
 62
7
 10
-9.868918325575095
 20
-267.346929422548
 30
0
 40
25
 50
270
 51
0
  0
ARC
  8
1
 62
7
 10
60.13108167442496
 20
-222.346929422548
 30
0
 40
45
 50
90
 51
180
  0
ARC
  8
1
 62
7
 10
290.131081674425
 20
-222.346929422548
 30
0
 40
45
 50
0
 51
90
  0
ARC
  8
1
 62
7
 10
450.1310816744252
 20
-267.346929422548
 30
0
 40
25
 50
270
 51
0
  0
ARC
  8
1
 62
7
 10
360.1310816744252
 20
-267.346929422548
 30
0
 40
25
 50
180
 51
270
  0
ARC
  8
1
 62
7
 10
214.776380945639
 20
237.2758927027113
 30
0
 40
4.999999999999951
 50
246.1374531442803
 51
329.7200035388644
  0
ARC
  8
1
 62
7
 10
198.131081674425
 20
242.9158649937402
 30
0
 40
5
 50
180
 51
256.4264214034764
  0
ARC
  8
1
 62
7
 10
232.9240727581463
 20
226.7983179495898
 30
0
 40
5.000000000000079
 50
150.2799964611366
 51
233.8625468557187
  0
ARC
  8
1
 62
7
 10
232.9240727581463
 20
68.50782320531413
 30
0
 40
4.999999999999996
 50
126.1374531442802
 51
209.7200035388639
  0
ARC
  8
1
 62
7
 10
214.7763809456392
 20
58.03024845219284
 30
0
 40
5.000000000000046
 50
30.27999646113586
 51
113.8625468557204
  0
ARC
  8
1
 62
7
 10
198.131081674425
 20
52.39027616116378
 30
0
 40
4.999999999999976
 50
103.5735785965236
 51
180
  0
ARC
  8
1
 62
7
 10
196.131081674425
 20
282.653070577452
 30
0
 40
3
 50
90
 51
180
  0
ARC
  8
1
 62
7
 10
200.5934103214688
 20
290.653070577452
 30
0
 40
5
 50
270
 51
350.2799964611359
  0
ARC
  8
1
 62
7
 10
192.1111395917683
 20
302.653070577452
 30
0
 40
5
 50
270
 51
349.720003538864
  0
ARC
  8
1
 62
7
 10
196.131081674425
 20
12.65307057745201
 30
0
 40
3
 50
180
 51
270
  0
ARC
  8
1
 62
7
 10
200.5934103214688
 20
4.653070577452013
 30
0
 40
5.000000000000067
 50
9.720003538863823
 51
90
  0
ARC
  8
1
 62
7
 10
192.1111395917683
 20
-7.346929422547987
 30
0
 40
4.999999999999806
 50
10.27999646113664
 51
90
  0
ARC
  8
1
 62
7
 10
-360.3652879606671
 20
-146.846929422548
 30
0
 40
3
 50
270
 51
339.7343025290511
  0
ARC
  8
1
 62
7
 10
-360.3652879606671
 20
442.153070577452
 30
0
 40
2.999999999999922
 50
20.26569747094784
 51
90
  0
ARC
  8
1
 62
7
 10
-420.6244017666285
 20
-146.846929422548
 30
0
 40
3.000000000000035
 50
187.0763781776376
 51
270
  0
ARC
  8
1
 62
7
 10
-420.6244017666285
 20
442.153070577452
 30
0
 40
3
 50
90
 51
172.923621822363
  0
ARC
  8
1
 62
7
 10
-435.8091658352271
 20
376.653070577452
 30
0
 40
4
 50
270
 51
352.923621822363
  0
ARC
  8
1
 62
7
 10
-474.2750149388851
 20
-115.0135960892146
 30
0
 40
4.000000000000039
 50
112.6198649480412
 51
180
  0
ARC
  8
1
 62
7
 10
-446.2750149388851
 20
-94.68026275588136
 30
0
 40
3.999999999999917
 50
292.6198649480402
 51
0
  0
ARC
  8
1
 62
7
 10
-474.2750149388851
 20
410.3197372441186
 30
0
 40
4
 50
180
 51
247.380135051958
  0
ARC
  8
1
 62
7
 10
-446.2750149388851
 20
389.9864039107854
 30
0
 40
4
 50
0
 51
67.38013505195983
  0
ARC
  8
1
 62
7
 10
-536.2750149388851
 20
68.73259679149203
 30
0
 40
3
 50
0
 51
69.99999999999629
  0
ARC
  8
1
 62
7
 10
-536.2750149388851
 20
228.0335089418333
 30
0
 40
2.999999999999823
 50
308.0998083675867
 51
0
  0
ARC
  8
1
 62
7
 10
-435.8091658352271
 20
-81.34692942254804
 30
0
 40
4.000000000000042
 50
7.076378177637029
 51
90
  0
ARC
  8
1
 62
7
 10
-890.322205925637
 20
328.5465084916598
 30
0
 40
5.000000000000288
 50
57.70371076892636
 51
150.3816916548049
  0
ARC
  8
1
 62
7
 10
-905.173424445836
 20
337.120863502091
 30
0
 40
4.999999999999934
 50
329.6183083451975
 51
62.29628923107781
  0
ARC
  8
1
 62
7
 10
-1104.150362247845
 20
337.120863502091
 30
0
 40
5.000000000000247
 50
117.7037107689337
 51
210.3816916548025
  0
ARC
  8
1
 62
7
 10
-1119.001580768044
 20
328.5465084916598
 30
0
 40
4.999999999999542
 50
29.61830834520043
 51
122.2962892310714
  0
ARC
  8
1
 62
7
 10
-923.829865131001
 20
271.6296135785922
 30
0
 40
3.999999999999305
 50
150.3816916547947
 51
236.8958694055367
  0
ARC
  8
1
 62
7
 10
-937.7110717424
 20
279.6439319523606
 30
0
 40
4.000000000000054
 50
243.1041305944723
 51
329.6183083451969
  0
ARC
  8
1
 62
7
 10
-932.249200342517
 20
256.8199240260217
 30
0
 40
4.000000000000116
 50
56.44283802700225
 51
150.3816916548027
  0
ARC
  8
1
 62
7
 10
-946.326971511329
 20
264.9477289999254
 30
0
 40
3.999999999999999
 50
329.6183083451975
 51
63.55716197299746
  0
ARC
  8
1
 62
7
 10
-971.1071079155281
 20
291.7990950618565
 30
0
 40
3.999999999999853
 50
170.3816916548011
 51
256.8958694055291
  0
ARC
  8
1
 62
7
 10
-986.8922336547191
 20
294.5824386235515
 30
0
 40
3.999999999999905
 50
263.1041305944752
 51
349.6183083451993
  0
ARC
  8
1
 62
7
 10
-959.898220507057
 20
357.9414763298681
 30
0
 40
3.999999999999962
 50
77.98292820554485
 51
170.3816916547995
  0
ARC
  8
1
 62
7
 10
-974.8031157184921
 20
360.5696115002767
 30
0
 40
3.999999999999725
 50
349.618308345197
 51
82.01707179447335
  0
ARC
  8
1
 62
7
 10
-896.605167004469
 20
248.7853794217073
 30
0
 40
4.000000000000481
 50
223.1041305944686
 51
309.6183083451944
  0
ARC
  8
1
 62
7
 10
-863.050381573157
 20
190.6667862176014
 30
0
 40
3.999999999999833
 50
110.3816916547911
 51
196.8958694055286
  0
ARC
  8
1
 62
7
 10
-868.5324982108641
 20
205.7287778905197
 30
0
 40
3.99999999999997
 50
203.1041305944758
 51
289.6183083451927
  0
ARC
  8
1
 62
7
 10
-879.019451474391
 20
184.733750187298
 30
0
 40
4.000000000000562
 50
16.44283802699878
 51
110.3816916548074
  0
ARC
  8
1
 62
7
 10
-884.5791975185859
 20
200.0090269016266
 30
0
 40
3.99999999999996
 50
289.618308345189
 51
23.55716197300054
  0
ARC
  8
1
 62
7
 10
-886.302157902986
 20
236.506731310484
 30
0
 40
4.000000000000045
 50
130.3816916548032
 51
216.8958694055237
  0
ARC
  8
1
 62
7
 10
-835.2001488359401
 20
279.9698009909645
 30
0
 40
3.999999999999897
 50
37.98292820553813
 51
130.3816916547994
  0
ARC
  8
1
 62
7
 10
-844.9286282638111
 20
291.5637512996083
 30
0
 40
3.999999999999798
 50
309.6183083451949
 51
42.01707179445517
  0
ARC
  8
1
 62
7
 10
-800.1649554240271
 20
214.030795607712
 30
0
 40
4.000000000000248
 50
17.98292820553532
 51
110.3816916548038
  0
ARC
  8
1
 62
7
 10
-856.8790435265601
 20
155.6673889512205
 30
0
 40
3.999999999999031
 50
183.1041305944742
 51
269.6183083452067
  0
ARC
  8
1
 62
7
 10
-805.3413712075919
 20
228.2528810867642
 30
0
 40
4.000000000000184
 50
289.6183083452018
 51
22.01707179446416
  0
ARC
  8
1
 62
7
 10
-789.7951107789779
 20
155.220484199982
 30
0
 40
3.999999999999955
 50
269.6183083452067
 51
2.017071794462486
  0
ARC
  8
1
 62
7
 10
-868.5324982108641
 20
89.57736326438453
 30
0
 40
3.999999999999849
 50
70.38169165480691
 51
156.8958694055264
  0
ARC
  8
1
 62
7
 10
-863.050381573157
 20
104.6393549373028
 30
0
 40
3.999999999999493
 50
163.1041305944727
 51
249.6183083452094
  0
ARC
  8
1
 62
7
 10
-884.5791975185859
 20
95.29711425327764
 30
0
 40
4.000000000000062
 50
336.4428380270035
 51
70.38169165481054
  0
ARC
  8
1
 62
7
 10
-879.019451474391
 20
110.5723909676062
 30
0
 40
4.000000000000136
 50
249.6183083451931
 51
343.5571619730013
  0
ARC
  8
1
 62
7
 10
-856.8790435265601
 20
139.6387522036836
 30
0
 40
4.000000000000068
 50
90.38169165479323
 51
176.8958694055258
  0
ARC
  8
1
 62
7
 10
-789.7951107789779
 20
140.0856569549222
 30
0
 40
4.000000000000606
 50
357.9829282055375
 51
90.38169165479326
  0
ARC
  8
1
 62
7
 10
-896.605167004469
 20
46.52076173319682
 30
0
 40
3.999999999999886
 50
50.38169165480614
 51
136.8958694055231
  0
ARC
  8
1
 62
7
 10
-886.302157902986
 20
58.79940984442004
 30
0
 40
4.000000000000223
 50
143.1041305944757
 51
229.6183083451971
  0
ARC
  8
1
 62
7
 10
-805.3413712075919
 20
67.05326006813993
 30
0
 40
3.999999999999788
 50
337.982928205537
 51
70.38169165479827
  0
ARC
  8
1
 62
7
 10
-800.1649554240271
 20
81.27534554719227
 30
0
 40
4.00000000000007
 50
249.6183083451963
 51
342.017071794464
  0
ARC
  8
1
 62
7
 10
-835.2001488359401
 20
15.33634016393967
 30
0
 40
3.99999999999992
 50
229.6183083451996
 51
322.0170717944619
  0
ARC
  8
1
 62
7
 10
-937.7110717424
 20
15.66220920254347
 30
0
 40
3.999999999999996
 50
30.3816916548024
 51
116.895869405528
  0
ARC
  8
1
 62
7
 10
-923.8298651310001
 20
23.67652757631186
 30
0
 40
4.000000000000006
 50
123.1041305944746
 51
209.6183083451976
  0
ARC
  8
1
 62
7
 10
-946.326971511329
 20
30.35841215497862
 30
0
 40
3.999999999999961
 50
296.4428380270029
 51
30.38169165480331
  0
ARC
  8
1
 62
7
 10
-932.249200342517
 20
38.48621712888235
 30
0
 40
3.999999999999253
 50
209.618308345204
 51
303.5571619729986
  0
ARC
  8
1
 62
7
 10
-844.92862826381
 20
3.742389855295755
 30
0
 40
3.999999999999722
 50
317.9829282055346
 51
50.38169165480563
  0
ARC
  8
1
 62
7
 10
-903.782074500964
 20
-42.21072836701018
 30
0
 40
3.999999999999917
 50
297.9829282055365
 51
30.38169165480176
  0
ARC
  8
1
 62
7
 10
-986.892233654718
 20
0.7237025313524441
 30
0
 40
3.999999999999491
 50
10.38169165480278
 51
96.89586940554082
  0
ARC
  8
1
 62
7
 10
-971.1071079155281
 20
3.507046093047336
 30
0
 40
4.000000000000036
 50
103.1041305944708
 51
189.6183083451981
  0
ARC
  8
1
 62
7
 10
-890.674929624854
 20
-34.64331474448017
 30
0
 40
3.999999999999246
 50
209.6183083452038
 51
302.0170717944707
  0
ARC
  8
1
 62
7
 10
-959.898220507057
 20
-62.63533517496416
 30
0
 40
3.999999999999856
 50
189.6183083451992
 51
282.0170717944553
  0
ARC
  8
1
 62
7
 10
-974.8031157184921
 20
-65.26347034537267
 30
0
 40
4.000000000000032
 50
277.9829282055425
 51
10.38169165480259
  0
ARC
  8
1
 62
7
 10
-973.563151643137
 20
222.4452377104232
 30
0
 40
5.999999999999884
 50
247.4223552013739
 51
329.6183083451974
  0
ARC
  8
1
 62
7
 10
-955.439347457449
 20
211.9814544850761
 30
0
 40
5.999999999999918
 50
150.3816916548005
 51
232.5776447986324
  0
ARC
  8
1
 62
7
 10
-932.763396742047
 20
184.9573087545073
 30
0
 40
6.000000000000086
 50
207.4223552013698
 51
289.6183083452008
  0
ARC
  8
1
 62
7
 10
-925.6057474651229
 20
165.2918289897834
 30
0
 40
5.999999999999933
 50
110.3816916548009
 51
192.5776447986306
  0
ARC
  8
1
 62
7
 10
-925.6057474651229
 20
130.0143121651208
 30
0
 40
6.000000000001039
 50
167.4223552013702
 51
249.6183083451991
  0
ARC
  8
1
 62
7
 10
-932.763396742047
 20
110.3488324003969
 30
0
 40
6.000000000000212
 50
70.38169165479918
 51
152.577644798632
  0
ARC
  8
1
 62
7
 10
-955.439347457449
 20
83.32468666982794
 30
0
 40
5.999999999999822
 50
127.4223552013672
 51
209.6183083451986
  0
ARC
  8
1
 62
7
 10
-973.563151643137
 20
72.86090344448093
 30
0
 40
5.999999999999871
 50
30.38169165480255
 51
112.5776447986261
  0
ARC
  8
1
 62
7
 10
-1071.612714951281
 20
279.6439319523606
 30
0
 40
4.000000000000812
 50
210.3816916547966
 51
296.895869405516
  0
ARC
  8
1
 62
7
 10
-1077.074586351165
 20
256.8199240260217
 30
0
 40
4.000000000000294
 50
29.6183083451973
 51
123.5571619729978
  0
ARC
  8
1
 62
7
 10
-1062.996815182353
 20
264.9477289999254
 30
0
 40
4.000000000000116
 50
116.4428380270055
 51
210.3816916548025
  0
ARC
  8
1
 62
7
 10
-1038.216678778153
 20
291.7990950618565
 30
0
 40
3.999999999999982
 50
283.104130594471
 51
9.618308345198944
  0
ARC
  8
1
 62
7
 10
-1022.431553038963
 20
294.5824386235515
 30
0
 40
3.999999999999613
 50
190.3816916548033
 51
276.8958694055248
  0
ARC
  8
1
 62
7
 10
-1049.425566186624
 20
357.9414763298681
 30
0
 40
4.000000000000096
 50
9.618308345200006
 51
102.0170717944679
  0
ARC
  8
1
 62
7
 10
-1034.520670975189
 20
360.5696115002767
 30
0
 40
3.999999999999888
 50
97.98292820553955
 51
190.3816916548036
  0
ARC
  8
1
 62
7
 10
-1123.021628790695
 20
236.506731310484
 30
0
 40
3.999999999999461
 50
323.1041305944685
 51
49.61830834519684
  0
ARC
  8
1
 62
7
 10
-1112.718619689212
 20
248.7853794217073
 30
0
 40
3.999999999999842
 50
230.3816916548057
 51
316.8958694055203
  0
ARC
  8
1
 62
7
 10
-1085.493921562681
 20
271.6296135785922
 30
0
 40
4.000000000000054
 50
303.1041305944742
 51
29.61830834520534
  0
ARC
  8
1
 62
7
 10
-1164.395158429871
 20
291.5637512996083
 30
0
 40
3.999999999999762
 50
137.9829282055339
 51
230.3816916548051
  0
ARC
  8
1
 62
7
 10
-1146.273405120525
 20
190.6667862176014
 30
0
 40
3.999999999999522
 50
343.1041305944714
 51
69.61830834519668
  0
ARC
  8
1
 62
7
 10
-1140.791288482817
 20
205.7287778905197
 30
0
 40
4.000000000000235
 50
250.381691654795
 51
336.8958694055191
  0
ARC
  8
1
 62
7
 10
-1130.30433521929
 20
184.733750187298
 30
0
 40
3.999999999999647
 50
69.61830834520789
 51
163.5571619730012
  0
ARC
  8
1
 62
7
 10
-1124.744589175095
 20
200.0090269016266
 30
0
 40
4.000000000000237
 50
156.442838027006
 51
250.3816916547956
  0
ARC
  8
1
 62
7
 10
-1174.123637857741
 20
279.9698009909645
 30
0
 40
4.000000000000154
 50
49.61830834519817
 51
142.0170717944699
  0
ARC
  8
1
 62
7
 10
-1152.444743167122
 20
155.6673889512205
 30
0
 40
3.999999999999961
 50
270.3816916548063
 51
356.8958694055266
  0
ARC
  8
1
 62
7
 10
-1209.158831269654
 20
214.030795607712
 30
0
 40
3.999999999999754
 50
69.61830834520846
 51
162.0170717944647
  0
ARC
  8
1
 62
7
 10
-1203.98241548609
 20
228.2528810867642
 30
0
 40
3.99999999999982
 50
157.9829282055358
 51
250.3816916548105
  0
ARC
  8
1
 62
7
 10
-1219.528675914704
 20
155.220484199982
 30
0
 40
3.999999999999697
 50
177.9829282055371
 51
270.3816916548063
  0
ARC
  8
1
 62
7
 10
-1140.791288482817
 20
89.57736326438453
 30
0
 40
3.999999999999067
 50
23.10413059447867
 51
109.6183083452054
  0
ARC
  8
1
 62
7
 10
-1146.273405120525
 20
104.6393549373028
 30
0
 40
4.000000000000257
 50
290.3816916548028
 51
16.89586940552725
  0
ARC
  8
1
 62
7
 10
-1124.744589175095
 20
95.29711425327764
 30
0
 40
4.00000000000026
 50
109.6183083452048
 51
203.5571619729952
  0
ARC
  8
1
 62
7
 10
-1130.304335219291
 20
110.5723909676062
 30
0
 40
3.999999999999472
 50
196.4428380270034
 51
290.3816916548068
  0
ARC
  8
1
 62
7
 10
-1152.444743167122
 20
139.6387522036836
 30
0
 40
4.000000000000167
 50
3.104130594473283
 51
89.61830834519374
  0
ARC
  8
1
 62
7
 10
-1219.528675914704
 20
140.0856569549222
 30
0
 40
3.999999999999961
 50
89.61830834519373
 51
182.017071794463
  0
ARC
  8
1
 62
7
 10
-1203.98241548609
 20
67.05326006813993
 30
0
 40
3.999999999999879
 50
109.6183083451895
 51
202.017071794463
  0
ARC
  8
1
 62
7
 10
-1112.718619689212
 20
46.52076173319682
 30
0
 40
3.999999999999612
 50
43.1041305944791
 51
129.6183083452064
  0
ARC
  8
1
 62
7
 10
-1123.021628790695
 20
58.79940984442004
 30
0
 40
4.000000000000068
 50
310.3816916548029
 51
36.89586940553215
  0
ARC
  8
1
 62
7
 10
-1209.158831269654
 20
81.27534554719227
 30
0
 40
4.000000000001131
 50
197.9829282055321
 51
290.3816916547915
  0
ARC
  8
1
 62
7
 10
-1174.123637857741
 20
15.33634016393967
 30
0
 40
4.000000000000616
 50
217.9829282055302
 51
310.3816916547905
  0
ARC
  8
1
 62
7
 10
-1071.612714951282
 20
15.66220920254347
 30
0
 40
4.000000000000003
 50
63.10413059447197
 51
149.6183083451976
  0
ARC
  8
1
 62
7
 10
-1085.493921562681
 20
23.67652757631186
 30
0
 40
3.999999999999253
 50
330.381691654796
 51
56.89586940552536
  0
ARC
  8
1
 62
7
 10
-1062.996815182353
 20
30.35841215497862
 30
0
 40
4.000000000000033
 50
149.6183083451967
 51
243.5571619729942
  0
ARC
  8
1
 62
7
 10
-1077.074586351165
 20
38.48621712888235
 30
0
 40
4.000000000000028
 50
236.4428380270014
 51
330.3816916548041
  0
ARC
  8
1
 62
7
 10
-1164.395158429871
 20
3.742389855295755
 30
0
 40
3.999999999999843
 50
129.6183083451944
 51
222.0170717944655
  0
ARC
  8
1
 62
7
 10
-1105.541712192717
 20
-42.21072836701018
 30
0
 40
3.99999999999997
 50
149.6183083451982
 51
242.0170717944606
  0
ARC
  8
1
 62
7
 10
-1022.431553038963
 20
0.7237025313524441
 30
0
 40
3.999999999999962
 50
83.10413059447534
 51
169.6183083451975
  0
ARC
  8
1
 62
7
 10
-1038.216678778153
 20
3.507046093047336
 30
0
 40
3.999999999999843
 50
350.3816916548018
 51
76.89586940552924
  0
ARC
  8
1
 62
7
 10
-1118.648857068828
 20
-34.64331474448017
 30
0
 40
3.99999999999993
 50
237.9829282055404
 51
330.3816916548042
  0
ARC
  8
1
 62
7
 10
-1034.520670975189
 20
-65.26347034537267
 30
0
 40
3.999999999999496
 50
169.6183083451968
 51
262.0170717944607
  0
ARC
  8
1
 62
7
 10
-1049.425566186625
 20
-62.63533517496416
 30
0
 40
3.999999999999901
 50
257.9829282055447
 51
350.3816916548034
  0
ARC
  8
1
 62
7
 10
-1035.760635050545
 20
222.4452377104232
 30
0
 40
5.999999999999871
 50
210.3816916548026
 51
292.5776447986342
  0
ARC
  8
1
 62
7
 10
-1053.884439236233
 20
211.9814544850761
 30
0
 40
5.999999999999755
 50
307.4223552013677
 51
29.61830834519951
  0
ARC
  8
1
 62
7
 10
-1076.560389951634
 20
184.9573087545073
 30
0
 40
6.000000000000136
 50
250.3816916548012
 51
332.5776447986302
  0
ARC
  8
1
 62
7
 10
-1083.718039228558
 20
165.2918289897834
 30
0
 40
5.999999999999727
 50
347.4223552013666
 51
69.61830834519911
  0
ARC
  8
1
 62
7
 10
-1083.718039228558
 20
130.0143121651208
 30
0
 40
5.999999999999933
 50
290.3816916548009
 51
12.5776447986326
  0
ARC
  8
1
 62
7
 10
-1076.560389951635
 20
110.3488324003969
 30
0
 40
6.000000000000795
 50
27.422355201364
 51
109.6183083451906
  0
ARC
  8
1
 62
7
 10
-1053.884439236233
 20
83.32468666982794
 30
0
 40
5.999999999999863
 50
330.3816916548014
 51
52.57764479863282
  0
ARC
  8
1
 62
7
 10
-1035.760635050545
 20
72.86090344448093
 30
0
 40
6.000000000000259
 50
67.42235520136592
 51
149.6183083451974
  0
ARC
  8
1
 62
7
 10
-1119.661893346841
 20
-222.3469294225479
 30
0
 40
45
 50
90
 51
180
  0
ARC
  8
1
 62
7
 10
-889.661893346841
 20
-222.3469294225479
 30
0
 40
45
 50
0
 51
90
  0
ARC
  8
1
 62
7
 10
-1279.661893346841
 20
-267.3469294225479
 30
0
 40
25
 50
180
 51
270
  0
ARC
  8
1
 62
7
 10
-1189.661893346841
 20
-267.3469294225479
 30
0
 40
25
 50
270
 51
0
  0
ARC
  8
1
 62
7
 10
-819.661893346841
 20
-267.3469294225479
 30
0
 40
25
 50
180
 51
270
  0
ARC
  8
1
 62
7
 10
-729.661893346841
 20
-267.3469294225479
 30
0
 40
25
 50
270
 51
0
  0
TEXT
  8
1
 62
7
 10
-1135.978401415846
 20
539.7609973426161
 30
0
 40
30
  1
ACSB 580
 41
0.9
  7
SIMPLEX
  0
ENDSEC
  0
EOF
