  0
SECTION
  2
HEADER
  9
$ACADVER
  1
AC1009
  9
$INSBASE
 10
0
 20
0
  9
$EXTMIN
 10
-3021.80664886313
 20
-401.9999999999999
  9
$EXTMAX
 10
-867.1027140577101
 20
541.4152882239421
  9
$LIMMIN
 10
-3021.80664886313
 20
-401.9999999999999
  9
$LIMMAX
 10
-867.1027140577101
 20
541.4152882239421
  9
$VIEWCTR
 10
10
 20
10
  9
$VIEWSIZE
 40
10
  9
$SNAPMODE
 70
0
  9
$SNAPUNIT
 10
1
 20
1
  9
$SNAPBASE
 10
0
 20
0
  9
$SNAPANG
 50
0
  9
$SNAPSTYLE
 70
0
  9
$SNAPISOPAIR
 70
0
  9
$GRIDMODE
 70
0
  9
$GRIDUNIT
 10
0
 20
0
  9
$ORTHOMODE
 70
0
  9
$REGENMODE
 70
1
  9
$FILLMODE
 70
1
  9
$QTEXTMODE
 70
0
  9
$DRAGMODE
 70
2
  9
$LTSCALE
 40
1
  9
$OSMODE
 70
0
  9
$ATTMODE
 70
1
  9
$TEXTSIZE
 40
3.5
  9
$TRACEWID
 40
0.5
  9
$TEXTSTYLE
  7
STANDARD
  9
$CLAYER
  8
0
  9
$CELTYPE
  6
BYLAYER
  9
$CECOLOR
 62
256
  9
$DIMSCALE
 40
1
  9
$DIMASZ
 40
0.18
  9
$DIMEXO
 40
0.0625
  9
$DIMDLI
 40
0.38
  9
$DIMRND
 40
0
  9
$DIMDLE
 40
0
  9
$DIMEXE
 40
0.18
  9
$DIMTP
 40
0
  9
$DIMTM
 40
0
  9
$DIMTXT
 40
0.18
  9
$DIMCEN
 40
0.09
  9
$DIMTSZ
 40
0
  9
$DIMTOL
 70
0
  9
$DIMLIM
 70
0
  9
$DIMTIH
 70
1
  9
$DIMTOH
 70
1
  9
$DIMSE1
 70
0
  9
$DIMSE2
 70
0
  9
$DIMTAD
 70
0
  9
$DIMZIN
 70
0
  9
$DIMBLK
  1

  9
$DIMASO
 70
1
  9
$DIMSHO
 70
1
  9
$DIMPOST
  1

  9
$DIMAPOST
  1

  9
$DIMALT
 70
0
  9
$DIMALTD
 70
2
  9
$DIMALTF
 40
25.4
  9
$DIMLFAC
 40
1
  9
$DIMTOFL
 70
0
  9
$DIMTVP
 40
0
  9
$DIMTIX
 70
0
  9
$DIMSOXD
 70
0
  9
$DIMSAH
 70
0
  9
$DIMBLK1
  1

  9
$DIMBLK2
  1

  9
$DIMSTYLE
  2
*UNNAMED
  9
$DIMCLRD
 70
0
  9
$DIMCLRE
 70
0
  9
$DIMCLRT
 70
0
  9
$DIMTFAC
 40
1
  9
$DIMGAP
 40
0.09
  9
$LUNITS
 70
2
  9
$LUPREC
 70
4
  9
$AXISMODE
 70
0
  9
$AXISUNIT
 10
0
 20
0
  9
$SKETCHINC
 40
0.1
  9
$FILLETRAD
 40
2
  9
$AUNITS
 70
0
  9
$AUPREC
 70
0
  9
$MENU
  1
ACAD
  9
$ELEVATION
 40
0
  9
$THICKNESS
 40
0
  9
$VIEWDIR
 10
0
 20
0
 30
1
  9
$LIMCHECK
 70
0
  9
$BLIPMODE
 70
1
  9
$CHAMFERA
 40
0
  9
$CHAMFERB
 40
0
  9
$FASTZOOM
 70
1
  9
$SKPOLY
 70
0
  9
$ANGBASE
 50
0
  9
$ANGDIR
 70
0
  9
$PDMODE
 70
0
  9
$PDSIZE
 40
0
  9
$PLINEWID
 40
0
  9
$COORDS
 70
2
  0
ENDSEC
  0
SECTION
  2
TABLES
  0
TABLE
  2
DIMSTYLE
 70
0
  0
ENDTAB
  0
TABLE
  2
LTYPE
 70
9
  0
LTYPE
  2
CONTINUOUS
 70
64
  3
Solid line
 72
65
 73
0
 40
0
  0
LTYPE
  2
BORDER
 70
64
  3
__ __ . __ __ .
 72
65
 73
6
 40
99.22978647130222
 49
28.3513675632292
 49
-14.1756837816146
 49
28.3513675632292
 49
-14.1756837816146
 49
0
 49
-14.1756837816146
  0
LTYPE
  2
CENTER
 70
64
  3
____ _ ____ _
 72
65
 73
4
 40
113.4054702529168
 49
70.878418908073
 49
-14.1756837816146
 49
14.1756837816146
 49
-14.1756837816146
  0
LTYPE
  2
DASHDOT
 70
64
  3
__ . __ . __ .
 72
65
 73
4
 40
56.70273512645841
 49
28.3513675632292
 49
-14.1756837816146
 49
0
 49
-14.1756837816146
  0
LTYPE
  2
DASHED
 70
64
  3
__ __ __ __ __
 72
65
 73
2
 40
42.52705134484381
 49
28.3513675632292
 49
-14.1756837816146
  0
LTYPE
  2
DIVIDE
 70
64
  3
__ . . __ . . 
 72
65
 73
6
 40
70.878418908073
 49
28.3513675632292
 49
-14.1756837816146
 49
0
 49
-14.1756837816146
 49
0
 49
-14.1756837816146
  0
LTYPE
  2
DOT
 70
64
  3
..............
 72
65
 73
4
 40
28.3513675632292
 49
0
 49
-14.1756837816146
 49
0
 49
-14.1756837816146
  0
LTYPE
  2
HIDDEN
 70
64
  3
_ _ _ _ _ _ _
 72
65
 73
2
 40
21.2635256724219
 49
14.1756837816146
 49
-7.087841890807301
  0
LTYPE
  2
PHANTOM
 70
64
  3
_____ _ _ _____ _ _ 
 72
65
 73
6
 40
141.756837816146
 49
70.878418908073
 49
-14.1756837816146
 49
14.1756837816146
 49
-14.1756837816146
 49
14.1756837816146
 49
-14.1756837816146
  0
ENDTAB
  0
TABLE
  2
LAYER
 70
3
  0
LAYER
  2
1
 70
0
 62
7
  6
CONTINUOUS
  0
LAYER
  2
0
 70
0
 62
7
  6
CONTINUOUS
  0
ENDTAB
  0
TABLE
  2
STYLE
 70
4
  0
STYLE
  2
STANDARD
 70
0
 40
0
 41
1
 50
0
 71
0
 42
3.5
  3
txt
  4

  0
STYLE
  2
SIMPLEX
 70
0
 40
0
 41
1
 50
0
 71
0
 42
3.5
  3
simplex
  4

  0
STYLE
  2
COMPLEX
 70
0
 40
0
 41
1
 50
0
 71
0
 42
3.5
  3
complex
  4

  0
STYLE
  2
ITALIC
 70
0
 40
0
 41
1
 50
0
 71
0
 42
3.5
  3
italic
  4

  0
ENDTAB
  0
TABLE
  2
VIEW
 70
0
  0
ENDTAB
  0
ENDSEC
  0
SECTION
  2
BLOCKS
  0
ENDSEC
  0
SECTION
  2
ENTITIES
  0
LINE
  8
1
 62
7
 10
-1131.875488239067
 20
316.8627876496696
 30
0
 11
-1129.664108411838
 21
318.7183556470911
 31
0
  0
LINE
  8
1
 62
7
 10
-1131.374209128466
 20
314.0198925431616
 30
0
 11
-1131.875488239067
 21
316.8627876496696
 31
0
  0
LINE
  8
1
 62
7
 10
-1128.661550190634
 20
313.032565434075
 30
0
 11
-1131.374209128466
 21
314.0198925431616
 31
0
  0
LINE
  8
1
 62
7
 10
-1126.450170363405
 20
314.8881334314963
 30
0
 11
-1128.661550190634
 21
313.032565434075
 31
0
  0
LINE
  8
1
 62
7
 10
-1126.951449474006
 20
317.7310285380045
 30
0
 11
-1126.450170363405
 21
314.8881334314963
 31
0
  0
LINE
  8
1
 62
7
 10
-1129.664108411838
 20
318.7183556470911
 30
0
 11
-1126.951449474006
 21
317.7310285380045
 31
0
  0
LINE
  8
1
 62
3
 10
-1812.59667624361
 20
214.1533119314589
 30
0
 11
-1799.59667624361
 21
205.846688068541
 31
0
  0
LINE
  8
1
 62
3
 10
-1799.59667624361
 20
214.1533119314589
 30
0
 11
-1812.59667624361
 21
205.846688068541
 31
0
  0
LINE
  8
1
 62
3
 10
-1210.60271405771
 20
-4.000000000000021
 30
0
 11
-1213.60271405771
 21
-4.000000000000021
 31
0
  0
LINE
  8
1
 62
3
 10
-1213.60271405771
 20
3.999999999999979
 30
0
 11
-1210.60271405771
 21
3.999999999999979
 31
0
  0
LINE
  8
1
 62
7
 10
-1210.60271405771
 20
-5.000000000000021
 30
0
 11
-1213.60271405771
 21
-5.000000000000021
 31
0
  0
LINE
  8
1
 62
7
 10
-1213.60271405771
 20
4.999999999999979
 30
0
 11
-1210.60271405771
 21
4.999999999999979
 31
0
  0
LINE
  8
1
 62
3
  6
DASHDOT
 10
-2429.806648863129
 20
-332
 30
0
 11
-2373.806648863129
 21
-332
 31
0
  0
LINE
  8
1
 62
3
  6
DASHDOT
 10
-2401.806648863129
 20
-304.0000000000001
 30
0
 11
-2401.806648863129
 21
-359.9999999999999
 31
0
  0
LINE
  8
1
 62
3
  6
DASHDOT
 10
-2979.806648863128
 20
-332
 30
0
 11
-2923.806648863128
 21
-332
 31
0
  0
LINE
  8
1
 62
3
  6
DASHDOT
 10
-2951.806648863128
 20
-304.0000000000001
 30
0
 11
-2951.806648863128
 21
-359.9999999999999
 31
0
  0
LINE
  8
1
 62
3
  6
DASHDOT
 10
-1487.10271405771
 20
-304.0000000000001
 30
0
 11
-1487.10271405771
 21
-359.9999999999999
 31
0
  0
LINE
  8
1
 62
3
  6
DASHDOT
 10
-1515.10271405771
 20
-332
 30
0
 11
-1459.10271405771
 21
-332
 31
0
  0
LINE
  8
1
 62
7
 10
-2781.502619225925
 20
-1.808461051166788
 30
0
 11
-2757.097159792308
 21
18.67015095829405
 31
0
  0
LINE
  8
1
 62
7
 10
-2783.430982054985
 20
0.4896722781901275
 30
0
 11
-2759.025522621367
 21
20.96828428765097
 31
0
  0
LINE
  8
1
 62
7
 10
-2814.736181185205
 20
86.50000000000023
 30
0
 11
-2782.877116541057
 21
86.50000000000046
 31
0
  0
LINE
  8
1
 62
7
 10
-2814.736181185205
 20
89.5
 30
0
 11
-2782.877116541057
 21
89.50000000000046
 31
0
  0
LINE
  8
1
 62
7
 10
-2783.430982054985
 20
175.5103277218104
 30
0
 11
-2759.025522621367
 21
155.0317157123498
 31
0
  0
LINE
  8
1
 62
7
 10
-2781.502619225926
 20
177.8084610511673
 30
0
 11
-2757.097159792307
 21
157.3298490417067
 31
0
  0
LINE
  8
1
 62
7
 10
-2594.587775104894
 20
155.0317157123498
 30
0
 11
-2570.182315671275
 21
175.5103277218104
 31
0
  0
LINE
  8
1
 62
7
 10
-2596.516137933953
 20
157.3298490417067
 30
0
 11
-2572.110678500335
 21
177.8084610511673
 31
0
  0
LINE
  8
1
 62
7
 10
-2570.736181185203
 20
86.50000000000046
 30
0
 11
-2538.877116541055
 21
86.50000000000023
 31
0
  0
LINE
  8
1
 62
7
 10
-2570.736181185203
 20
89.50000000000046
 30
0
 11
-2538.877116541055
 21
89.5
 31
0
  0
LINE
  8
1
 62
7
 10
-2596.516137933953
 20
18.67015095829405
 30
0
 11
-2572.110678500335
 21
-1.808461051166788
 31
0
  0
LINE
  8
1
 62
7
 10
-2594.587775104893
 20
20.96828428765097
 30
0
 11
-2570.182315671276
 21
0.4896722781901275
 31
0
  0
LINE
  8
1
 62
7
 10
-1827.596676243616
 20
180.5
 30
0
 11
-1833.696676243616
 21
180.5
 31
0
  0
LINE
  8
1
 62
3
  6
DASHDOT
 10
-2076.28671039495
 20
398
 30
0
 11
-2017.28671039495
 21
398
 31
0
  0
LINE
  8
1
 62
3
  6
DASHED
 10
-2069.59667624361
 20
388.5
 30
0
 11
-2023.59667624361
 21
388.5
 31
0
  0
LINE
  8
1
 62
3
  6
DASHED
 10
-2069.59667624361
 20
407.4999999999999
 30
0
 11
-2023.59667624361
 21
407.4999999999999
 31
0
  0
LINE
  8
1
 62
3
  6
DASHED
 10
-2045.59667624361
 20
-213
 30
0
 11
-2069.59667624361
 21
-213
 31
0
  0
LINE
  8
1
 62
3
  6
DASHED
 10
-2045.59667624361
 20
-231
 30
0
 11
-2069.59667624361
 21
-231
 31
0
  0
LINE
  8
1
 62
3
  6
DASHED
 10
-2023.59667624361
 20
-237
 30
0
 11
-2045.59667624361
 21
-237
 31
0
  0
LINE
  8
1
 62
3
  6
DASHED
 10
-2045.59667624361
 20
-207
 30
0
 11
-2045.59667624361
 21
-237
 31
0
  0
LINE
  8
1
 62
3
  6
DASHED
 10
-2023.59667624361
 20
-207
 30
0
 11
-2045.59667624361
 21
-207
 31
0
  0
LINE
  8
1
 62
7
 10
-1007.10271405771
 20
-326.9999999999998
 30
0
 11
-1007.10271405771
 21
-376.9999999999999
 31
0
  0
LINE
  8
1
 62
7
 10
-1417.10271405771
 20
-326.9999999999998
 30
0
 11
-1417.10271405771
 21
-376.9999999999999
 31
0
  0
LINE
  8
1
 62
3
  6
DASHDOT
 10
-937.1027140577106
 20
-304.0000000000001
 30
0
 11
-937.1027140577106
 21
-359.9999999999999
 31
0
  0
LINE
  8
1
 62
3
  6
DASHDOT
 10
-965.1027140577104
 20
-332
 30
0
 11
-909.1027140577106
 21
-332
 31
0
  0
LINE
  8
1
 62
7
 10
-982.1027140577104
 20
-401.9999999999999
 30
0
 11
-892.1027140577105
 21
-401.9999999999999
 31
0
  0
LINE
  8
1
 62
7
 10
-1372.10271405771
 20
-281.9999999999999
 30
0
 11
-1052.10271405771
 21
-281.9999999999999
 31
0
  0
LINE
  8
1
 62
7
 10
-1532.10271405771
 20
-401.9999999999999
 30
0
 11
-1442.10271405771
 21
-401.9999999999999
 31
0
  0
LINE
  8
1
 62
7
 10
-867.1027140577104
 20
88
 30
0
 11
-867.1027140577105
 21
-376.9999999999999
 31
0
  0
LINE
  8
1
 62
7
 10
-1557.10271405771
 20
88
 30
0
 11
-1557.10271405771
 21
-376.9999999999999
 31
0
  0
LINE
  8
1
 62
7
 10
-1243.502714057711
 20
-8.000000000000021
 30
0
 11
-1243.502714057711
 21
7.99999999999998
 31
0
  0
LINE
  8
1
 62
7
 10
-1243.502714057711
 20
7.99999999999998
 30
0
 11
-1234.102714057711
 21
7.99999999999998
 31
0
  0
LINE
  8
1
 62
7
 10
-1244.102714057711
 20
6.960769515458654
 30
0
 11
-1243.502714057711
 21
7.99999999999998
 31
0
  0
LINE
  8
1
 62
7
 10
-1244.102714057711
 20
-6.960769515458695
 30
0
 11
-1244.102714057711
 21
6.960769515458654
 31
0
  0
LINE
  8
1
 62
7
 10
-1243.502714057711
 20
-8.000000000000021
 30
0
 11
-1244.102714057711
 21
-6.960769515458695
 31
0
  0
LINE
  8
1
 62
7
 10
-1234.102714057711
 20
-8.000000000000021
 30
0
 11
-1243.502714057711
 21
-8.000000000000021
 31
0
  0
LINE
  8
1
 62
7
 10
-1234.102714057711
 20
9.199999999999978
 30
0
 11
-1231.602714057711
 21
9.199999999999978
 31
0
  0
LINE
  8
1
 62
7
 10
-1234.102714057711
 20
-9.200000000000021
 30
0
 11
-1234.102714057711
 21
9.199999999999978
 31
0
  0
LINE
  8
1
 62
7
 10
-1231.602714057711
 20
-9.200000000000021
 30
0
 11
-1234.102714057711
 21
-9.200000000000021
 31
0
  0
LINE
  8
1
 62
7
 10
-1231.602714057711
 20
2.499999999999979
 30
0
 11
-1234.102714057711
 21
-2.101013048434741e-014
 31
0
  0
LINE
  8
1
 62
7
 10
-1231.602714057711
 20
-2.131628207280301e-014
 30
0
 11
-1234.102714057711
 21
-2.500000000000021
 31
0
  0
LINE
  8
1
 62
7
 10
-1124.919575199002
 20
8.317623892119173
 30
0
 11
-1118.798884892253
 21
3.181754913175837
 31
0
  0
LINE
  8
1
 62
7
 10
-1118.491699102136
 20
15.97806832330878
 30
0
 11
-1112.371008795388
 21
10.84219934436567
 31
0
  0
LINE
  8
1
 62
7
 10
-1129.259915167898
 20
18.48663800586496
 30
0
 11
-1131.666054898785
 21
4.840741494626059
 31
0
  0
LINE
  8
1
 62
7
 10
-1131.666054898785
 20
4.840741494626059
 30
0
 11
-1121.051431728082
 21
-4.065984892996653
 31
0
  0
LINE
  8
1
 62
7
 10
-1121.051431728082
 20
-4.065984892996653
 30
0
 11
-1108.030668826491
 21
0.6731852306194242
 31
0
  0
LINE
  8
1
 62
7
 10
-1108.030668826491
 20
0.6731852306194242
 30
0
 11
-1105.624529095604
 21
14.31908174185844
 31
0
  0
LINE
  8
1
 62
7
 10
-1105.624529095604
 20
14.31908174185844
 30
0
 11
-1116.239152266308
 21
23.22580812948138
 31
0
  0
LINE
  8
1
 62
7
 10
-1116.239152266308
 20
23.22580812948138
 30
0
 11
-1129.259915167898
 21
18.48663800586496
 31
0
  0
LINE
  8
1
 62
7
 10
-1083.174510827435
 20
76.00000000000011
 30
0
 11
-1076.246307597159
 21
88
 31
0
  0
LINE
  8
1
 62
7
 10
-1076.246307597159
 20
88
 30
0
 11
-1083.174510827435
 21
100
 31
0
  0
LINE
  8
1
 62
7
 10
-1094.097710928798
 20
83.00000000000011
 30
0
 11
-1086.107717186622
 21
83.00000000000023
 31
0
  0
LINE
  8
1
 62
7
 10
-1094.097710928798
 20
93.00000000000011
 30
0
 11
-1086.107717186623
 21
93.00000000000011
 31
0
  0
LINE
  8
1
 62
7
 10
-1103.959120518261
 20
88.00000000000011
 30
0
 11
-1097.030917287986
 21
76.00000000000011
 31
0
  0
LINE
  8
1
 62
7
 10
-1097.030917287986
 20
76.00000000000011
 30
0
 11
-1083.174510827435
 21
76.00000000000011
 31
0
  0
LINE
  8
1
 62
7
 10
-1083.174510827435
 20
100
 30
0
 11
-1097.030917287986
 21
100
 31
0
  0
LINE
  8
1
 62
7
 10
-1097.030917287986
 20
100
 30
0
 11
-1103.959120518261
 21
88.00000000000011
 31
0
  0
LINE
  8
1
 62
7
 10
-1118.491699102137
 20
160.0219316766912
 30
0
 11
-1112.371008795388
 21
165.1578006556346
 31
0
  0
LINE
  8
1
 62
7
 10
-1124.919575199002
 20
167.6823761078812
 30
0
 11
-1118.798884892253
 21
172.8182450868243
 31
0
  0
LINE
  8
1
 62
7
 10
-1129.259915167898
 20
157.513361994135
 30
0
 11
-1116.239152266308
 21
152.7741918705187
 31
0
  0
LINE
  8
1
 62
7
 10
-1116.239152266308
 20
152.7741918705187
 30
0
 11
-1105.624529095605
 21
161.6809182581414
 31
0
  0
LINE
  8
1
 62
7
 10
-1105.624529095605
 20
161.6809182581414
 30
0
 11
-1108.030668826492
 21
175.3268147693805
 31
0
  0
LINE
  8
1
 62
7
 10
-1108.030668826492
 20
175.3268147693805
 30
0
 11
-1121.051431728082
 21
180.0659848929969
 31
0
  0
LINE
  8
1
 62
7
 10
-1121.051431728082
 20
180.0659848929969
 30
0
 11
-1131.666054898785
 21
171.1592585053742
 31
0
  0
LINE
  8
1
 62
7
 10
-1131.666054898785
 20
171.1592585053742
 30
0
 11
-1129.259915167898
 21
157.513361994135
 31
0
  0
LINE
  8
1
 62
7
 10
-1119.691026731043
 20
190.4894143091775
 30
0
 11
-1126.611961969401
 21
189.8839109348241
 31
0
  0
LINE
  8
1
 62
7
 10
-1305.406543223168
 20
3.181754913175837
 30
0
 11
-1299.285852916419
 21
8.317623892119173
 31
0
  0
LINE
  8
1
 62
7
 10
-1311.834419320033
 20
10.84219934436567
 30
0
 11
-1305.713729013285
 21
15.97806832330878
 31
0
  0
LINE
  8
1
 62
7
 10
-1292.539373216636
 20
4.840741494626059
 30
0
 11
-1294.945512947523
 21
18.48663800586496
 31
0
  0
LINE
  8
1
 62
7
 10
-1303.153996387339
 20
-4.065984892996653
 30
0
 11
-1292.539373216636
 21
4.840741494626059
 31
0
  0
LINE
  8
1
 62
7
 10
-1316.174759288929
 20
0.6731852306194242
 30
0
 11
-1303.153996387339
 21
-4.065984892996653
 31
0
  0
LINE
  8
1
 62
7
 10
-1318.580899019816
 20
14.31908174185844
 30
0
 11
-1316.174759288929
 21
0.6731852306194242
 31
0
  0
LINE
  8
1
 62
7
 10
-1307.966275849113
 20
23.22580812948138
 30
0
 11
-1318.580899019816
 21
14.31908174185844
 31
0
  0
LINE
  8
1
 62
7
 10
-1294.945512947523
 20
18.48663800586496
 30
0
 11
-1307.966275849113
 21
23.22580812948138
 31
0
  0
LINE
  8
1
 62
7
 10
-1338.097710928798
 20
83.00000000000023
 30
0
 11
-1330.107717186623
 21
83.00000000000011
 31
0
  0
LINE
  8
1
 62
7
 10
-1338.097710928798
 20
93.00000000000011
 30
0
 11
-1330.107717186623
 21
93.00000000000011
 31
0
  0
LINE
  8
1
 62
7
 10
-1327.174510827435
 20
76.00000000000011
 30
0
 11
-1320.24630759716
 21
88.00000000000011
 31
0
  0
LINE
  8
1
 62
7
 10
-1341.030917287986
 20
76.00000000000011
 30
0
 11
-1327.174510827435
 21
76.00000000000011
 31
0
  0
LINE
  8
1
 62
7
 10
-1347.959120518262
 20
88
 30
0
 11
-1341.030917287986
 21
76.00000000000011
 31
0
  0
LINE
  8
1
 62
7
 10
-1341.030917287987
 20
100
 30
0
 11
-1347.959120518262
 21
88
 31
0
  0
LINE
  8
1
 62
7
 10
-1327.174510827435
 20
100
 30
0
 11
-1341.030917287987
 21
100
 31
0
  0
LINE
  8
1
 62
7
 10
-1320.24630759716
 20
88.00000000000011
 30
0
 11
-1327.174510827435
 21
100
 31
0
  0
LINE
  8
1
 62
7
 10
-1311.834419320033
 20
165.1578006556346
 30
0
 11
-1305.713729013284
 21
160.0219316766912
 31
0
  0
LINE
  8
1
 62
7
 10
-1305.406543223167
 20
172.8182450868243
 30
0
 11
-1299.285852916419
 21
167.6823761078812
 31
0
  0
LINE
  8
1
 62
7
 10
-1307.966275849113
 20
152.7741918705187
 30
0
 11
-1294.945512947523
 21
157.513361994135
 31
0
  0
LINE
  8
1
 62
7
 10
-1318.580899019816
 20
161.6809182581414
 30
0
 11
-1307.966275849113
 21
152.7741918705187
 31
0
  0
LINE
  8
1
 62
7
 10
-1316.174759288929
 20
175.3268147693805
 30
0
 11
-1318.580899019816
 21
161.6809182581414
 31
0
  0
LINE
  8
1
 62
7
 10
-1303.153996387339
 20
180.0659848929969
 30
0
 11
-1316.174759288929
 21
175.3268147693805
 31
0
  0
LINE
  8
1
 62
7
 10
-1292.539373216636
 20
171.1592585053742
 30
0
 11
-1303.153996387339
 21
180.0659848929969
 31
0
  0
LINE
  8
1
 62
7
 10
-1294.945512947523
 20
157.513361994135
 30
0
 11
-1292.539373216636
 21
171.1592585053742
 31
0
  0
LINE
  8
1
 62
7
 10
-1237.608750154132
 20
265.466387448592
 30
0
 11
-1266.560004925442
 21
425.6364960595154
 31
0
  0
LINE
  8
1
 62
7
 10
-1177.150054201597
 20
253.1528884507453
 30
0
 11
-1147.797345659857
 21
423.900014282847
 31
0
  0
LINE
  8
1
 62
7
 10
-1186.596677961288
 20
265.4663874485921
 30
0
 11
-1157.645423189979
 21
425.6364960595157
 31
0
  0
LINE
  8
1
 62
7
 10
-1189.548839482103
 20
263
 30
0
 11
-1234.656588633317
 21
263
 31
0
  0
LINE
  8
1
 62
7
 10
-1182.077771931248
 20
249
 30
0
 11
-1189.10271405771
 21
249
 31
0
  0
LINE
  8
1
 62
7
 10
-1235.10271405771
 20
249
 30
0
 11
-1242.127656184173
 21
249
 31
0
  0
LINE
  8
1
 62
7
 10
-1247.055373913824
 20
253.1528884507453
 30
0
 11
-1276.408082455564
 21
423.9000142828467
 31
0
  0
LINE
  8
1
 62
7
 10
-1231.10271405771
 20
245
 30
0
 11
-1231.10271405771
 21
199.4450537260407
 31
0
  0
LINE
  8
1
 62
7
 10
-1193.10271405771
 20
245
 30
0
 11
-1193.10271405771
 21
199.4450537260402
 31
0
  0
LINE
  8
1
 62
7
 10
-1474.548370835076
 20
93.34108965446468
 30
0
 11
-1349.977582276702
 21
93.8754330560007
 31
0
  0
LINE
  8
1
 62
7
 10
-1474.548370835076
 20
82.65891034553489
 30
0
 11
-1349.977582276702
 21
82.12456694399873
 31
0
  0
LINE
  8
1
 62
7
 10
-949.6570572803453
 20
82.65891034553542
 30
0
 11
-1074.227845838718
 21
82.1245669439993
 31
0
  0
LINE
  8
1
 62
7
 10
-949.6570572803453
 20
93.34108965446461
 30
0
 11
-1074.227845838718
 21
93.87543305600104
 31
0
  0
LINE
  8
1
 62
7
 10
-1234.656588633317
 20
-87.00000000000001
 30
0
 11
-1189.548839482103
 21
-87.00000000000001
 31
0
  0
LINE
  8
1
 62
7
 10
-1189.10271405771
 20
-73
 30
0
 11
-1182.077771931248
 21
-73
 31
0
  0
LINE
  8
1
 62
7
 10
-1242.127656184173
 20
-73
 30
0
 11
-1235.10271405771
 21
-73
 31
0
  0
LINE
  8
1
 62
7
 10
-1193.10271405771
 20
-23.44505372604023
 30
0
 11
-1193.10271405771
 21
-69
 31
0
  0
LINE
  8
1
 62
7
 10
-1231.10271405771
 20
-23.44505372604074
 30
0
 11
-1231.10271405771
 21
-69
 31
0
  0
LINE
  8
1
 62
7
 10
-1297.59346614602
 20
-13.88391093482407
 30
0
 11
-1304.514401384378
 21
-14.48941430917744
 31
0
  0
LINE
  8
1
 62
7
 10
-1297.59346614602
 20
-13.88391093482407
 30
0
 11
-1276.381475026364
 21
11.39555568810216
 31
0
  0
LINE
  8
1
 62
7
 10
-1297.59346614602
 20
189.8839109348241
 30
0
 11
-1276.381475026364
 21
164.6044443118979
 31
0
  0
LINE
  8
1
 62
7
 10
-1297.59346614602
 20
189.8839109348241
 30
0
 11
-1304.514401384378
 21
190.4894143091775
 31
0
  0
LINE
  8
1
 62
7
 10
-1119.691026731043
 20
-14.48941430917744
 30
0
 11
-1126.611961969401
 21
-13.88391093482407
 31
0
  0
LINE
  8
1
 62
7
 10
-1147.823953089056
 20
11.39555568810216
 30
0
 11
-1126.611961969401
 21
-13.88391093482407
 31
0
  0
LINE
  8
1
 62
7
 10
-1147.823953089056
 20
164.6044443118979
 30
0
 11
-1126.611961969401
 21
189.8839109348241
 31
0
  0
LINE
  8
1
 62
7
 10
-1213.60271405771
 20
-11.98874936711629
 30
0
 11
-1213.60271405771
 21
16.49073049596988
 31
0
  0
LINE
  8
1
 62
7
 10
-1231.60271405771
 20
9.999999999999979
 30
0
 11
-1231.60271405771
 21
-10.08032422458651
 31
0
  0
LINE
  8
1
 62
7
 10
-1210.60271405771
 20
16.49073049596988
 30
0
 11
-1210.60271405771
 21
-11.98874936711629
 31
0
  0
LINE
  8
1
 62
7
 10
-1274.680665446359
 20
9.999999999999979
 30
0
 11
-1231.60271405771
 21
9.999999999999979
 31
0
  0
LINE
  8
1
 62
3
  6
DASHED
 10
-1924.59667624361
 20
143
 30
0
 11
-1801.59667624361
 21
143
 31
0
  0
LINE
  8
1
 62
3
  6
DASHED
 10
-1801.59667624361
 20
143
 30
0
 11
-1799.59667624361
 21
145
 31
0
  0
LINE
  8
1
 62
3
  6
DASHED
 10
-1801.59667624361
 20
143
 30
0
 11
-1801.59667624361
 21
33
 31
0
  0
LINE
  8
1
 62
3
  6
DASHED
 10
-2089.59667624361
 20
148
 30
0
 11
-1924.59667624361
 21
148
 31
0
  0
LINE
  8
1
 62
3
  6
DASHED
 10
-1924.59667624361
 20
148
 30
0
 11
-1924.59667624361
 21
28
 31
0
  0
LINE
  8
1
 62
3
  6
DASHED
 10
-2094.59667624361
 20
153
 30
0
 11
-2089.59667624361
 21
148
 31
0
  0
LINE
  8
1
 62
3
  6
DASHED
 10
-2089.59667624361
 20
148
 30
0
 11
-2089.59667624361
 21
104
 31
0
  0
LINE
  8
1
 62
3
  6
DASHED
 10
-2094.59667624361
 20
104
 30
0
 11
-1948.341238890148
 21
104
 31
0
  0
LINE
  8
1
 62
3
  6
DASHED
 10
-1859.59667624361
 20
14.49999999999997
 30
0
 11
-1885.596676243611
 21
14.49999999999997
 31
0
  0
LINE
  8
1
 62
3
  6
DASHED
 10
-1859.59667624361
 20
14.49999999999997
 30
0
 11
-1859.59667624361
 21
11
 31
0
  0
LINE
  8
1
 62
3
  6
DASHED
 10
-1885.596676243611
 20
14.49999999999997
 30
0
 11
-1885.596676243611
 21
11
 31
0
  0
LINE
  8
1
 62
3
  6
DASHED
 10
-1801.59667624361
 20
33
 30
0
 11
-1924.59667624361
 21
33
 31
0
  0
LINE
  8
1
 62
3
  6
DASHED
 10
-1799.59667624361
 20
31
 30
0
 11
-1801.59667624361
 21
33
 31
0
  0
LINE
  8
1
 62
3
  6
DASHED
 10
-1924.59667624361
 20
28
 30
0
 11
-2089.59667624361
 21
28
 31
0
  0
LINE
  8
1
 62
3
  6
DASHED
 10
-2089.59667624361
 20
28
 30
0
 11
-2094.59667624361
 21
23
 31
0
  0
LINE
  8
1
 62
3
  6
DASHED
 10
-2089.59667624361
 20
72
 30
0
 11
-2089.59667624361
 21
28
 31
0
  0
LINE
  8
1
 62
3
  6
DASHED
 10
-1948.341238890148
 20
72
 30
0
 11
-2094.59667624361
 21
72
 31
0
  0
LINE
  8
1
 62
3
  6
DASHED
 10
-1882.59667624361
 20
33
 30
0
 11
-1882.59667624361
 21
14.49999999999997
 31
0
  0
LINE
  8
1
 62
3
  6
DASHED
 10
-1862.59667624361
 20
33
 30
0
 11
-1862.59667624361
 21
14.49999999999997
 31
0
  0
LINE
  8
1
 62
3
  6
DASHED
 10
-1934.596676243617
 20
-307
 30
0
 11
-1912.596676243616
 21
-307
 31
0
  0
LINE
  8
1
 62
3
  6
DASHED
 10
-1912.596676243616
 20
-357
 30
0
 11
-1934.596676243617
 21
-357
 31
0
  0
LINE
  8
1
 62
3
  6
DASHDOT
 10
-1937.596676243616
 20
-332
 30
0
 11
-1909.596676243616
 21
-332
 31
0
  0
LINE
  8
1
 62
7
 10
-889.0520843582831
 20
200.2599245091652
 30
0
 11
-1080.53320134458
 21
129.6348811026218
 31
0
  0
LINE
  8
1
 62
7
 10
-953.3574527561364
 20
311.6400897736812
 30
0
 11
-1110.261092982731
 21
181.1250998217999
 31
0
  0
LINE
  8
1
 62
7
 10
-1045.451116907059
 20
386.6490334274283
 30
0
 11
-1160.557461533776
 21
189.2394147419855
 31
0
  0
LINE
  8
1
 62
7
 10
-1036.790862869215
 20
381.6490334274282
 30
0
 11
-1150.199435288851
 21
183.2592055012044
 31
0
  0
LINE
  8
1
 62
7
 10
-1387.414565246206
 20
381.6490334274282
 30
0
 11
-1274.005992826571
 21
183.2592055012038
 31
0
  0
LINE
  8
1
 62
7
 10
-1378.754311208361
 20
386.6490334274279
 30
0
 11
-1263.647966581645
 21
189.2394147419855
 31
0
  0
LINE
  8
1
 62
7
 10
-1477.27585145615
 20
303.9796453424913
 30
0
 11
-1321.497646272571
 21
172.1234141348653
 31
0
  0
LINE
  8
1
 62
7
 10
-1470.847975359284
 20
311.6400897736809
 30
0
 11
-1313.944335132691
 21
181.1250998217993
 31
0
  0
LINE
  8
1
 62
7
 10
-1535.153343757138
 20
200.259924509165
 30
0
 11
-1343.672226770841
 21
129.6348811026214
 31
0
  0
LINE
  8
1
 62
7
 10
-1531.73314232388
 20
209.6568507170241
 30
0
 11
-1339.653193859013
 21
140.6770832759129
 31
0
  0
LINE
  8
1
 62
7
 10
-1531.733142323882
 20
-33.65685071702478
 30
0
 11
-1339.653193859013
 21
35.32291672408653
 31
0
  0
LINE
  8
1
 62
7
 10
-1535.153343757138
 20
-24.25992450916533
 30
0
 11
-1343.672226770841
 21
46.3651188973779
 31
0
  0
LINE
  8
1
 62
7
 10
-1470.847975359284
 20
-135.6400897736817
 30
0
 11
-1313.94433513269
 21
-5.12509982180012
 31
0
  0
LINE
  8
1
 62
7
 10
-1477.275851456149
 20
-127.9796453424915
 30
0
 11
-1321.497646272571
 21
3.876585865134416
 31
0
  0
LINE
  8
1
 62
7
 10
-1378.754311208361
 20
-210.6490334274289
 30
0
 11
-1263.647966581645
 21
-13.23941474198584
 31
0
  0
LINE
  8
1
 62
7
 10
-1387.414565246205
 20
-205.6490334274284
 30
0
 11
-1274.005992826571
 21
-7.25920550120515
 31
0
  0
LINE
  8
1
 62
7
 10
-1266.560004925441
 20
-249.6364960595163
 30
0
 11
-1237.608750154132
 21
-89.46638744859203
 31
0
  0
LINE
  8
1
 62
7
 10
-1276.408082455564
 20
-247.9000142828467
 30
0
 11
-1247.055373913824
 21
-77.15288845074534
 31
0
  0
LINE
  8
1
 62
7
 10
-1147.797345659857
 20
-247.900014282847
 30
0
 11
-1177.150054201597
 21
-77.15288845074531
 31
0
  0
LINE
  8
1
 62
7
 10
-1157.645423189979
 20
-249.6364960595161
 30
0
 11
-1186.596677961288
 21
-89.46638744859206
 31
0
  0
LINE
  8
1
 62
7
 10
-1036.790862869214
 20
-205.6490334274288
 30
0
 11
-1150.19943528885
 21
-7.259205501203781
 31
0
  0
LINE
  8
1
 62
7
 10
-1045.451116907059
 20
-210.6490334274287
 30
0
 11
-1160.557461533775
 21
-13.23941474198504
 31
0
  0
LINE
  8
1
 62
7
 10
-953.3574527561354
 20
-135.6400897736814
 30
0
 11
-1110.26109298273
 21
-5.125099821799296
 31
0
  0
LINE
  8
1
 62
7
 10
-946.9295766592704
 20
-127.9796453424918
 30
0
 11
-1102.70778184285
 21
3.876585865134558
 31
0
  0
LINE
  8
1
 62
7
 10
-892.4722857915391
 20
-33.65685071702444
 30
0
 11
-1084.552234256408
 21
35.32291672408719
 31
0
  0
LINE
  8
1
 62
7
 10
-889.0520843582825
 20
-24.25992450916556
 30
0
 11
-1080.53320134458
 21
46.36511889737847
 31
0
  0
LINE
  8
1
 62
3
  6
DASHDOT
 10
-1232.10271405771
 20
88
 30
0
 11
-1192.10271405771
 21
88
 31
0
  0
LINE
  8
1
 62
3
  6
DASHDOT
 10
-1212.10271405771
 20
108
 30
0
 11
-1212.10271405771
 21
68
 31
0
  0
LINE
  8
1
 62
7
 10
-1003.934958793576
 20
255.7282558883495
 30
0
 11
-1005.4027055637
 21
254.4859026512741
 31
0
  0
LINE
  8
1
 62
7
 10
-962.7619058938764
 20
184.4144363633469
 30
0
 11
-964.5716887427183
 21
183.7645069926353
 31
0
  0
LINE
  8
1
 62
7
 10
-946.9295766592716
 20
303.9796453424913
 30
0
 11
-1102.70778184285
 21
172.1234141348655
 31
0
  0
LINE
  8
1
 62
7
 10
-892.4722857915398
 20
209.6568507170244
 30
0
 11
-1084.552234256408
 21
140.6770832759133
 31
0
  0
LINE
  8
1
 62
7
 10
-1073.855452669134
 20
316.8105698467944
 30
0
 11
-1074.809773645996
 21
315.1411407168217
 31
0
  0
LINE
  8
1
 62
7
 10
-1010.774675909016
 20
263.8795133330022
 30
0
 11
-1012.253026560776
 21
262.649797309963
 31
0
  0
LINE
  8
1
 62
7
 10
-1160.450606580434
 20
350.2949521973532
 30
0
 11
-1160.776396569946
 21
348.399804965708
 31
0
  0
LINE
  8
1
 62
7
 10
-1083.070578610281
 20
322.130925289531
 30
0
 11
-1084.039186158224
 21
320.4697445152184
 31
0
  0
LINE
  8
1
 62
7
 10
-1253.275766957411
 20
352.1426922516964
 30
0
 11
-1252.933730878691
 21
350.2504096439093
 31
0
  0
LINE
  8
1
 62
7
 10
-1170.92966115801
 20
352.142692251696
 30
0
 11
-1171.271697236729
 21
350.2504096439092
 31
0
  0
LINE
  8
1
 62
7
 10
-1341.13484950514
 20
322.1309252895313
 30
0
 11
-1340.166241957197
 21
320.4697445152185
 31
0
  0
LINE
  8
1
 62
7
 10
-1263.754821534988
 20
350.2949521973527
 30
0
 11
-1263.429031545474
 21
348.3998049657077
 31
0
  0
LINE
  8
1
 62
7
 10
-1413.430752206404
 20
263.8795133330024
 30
0
 11
-1411.952401554644
 21
262.6497973099631
 31
0
  0
LINE
  8
1
 62
7
 10
-1350.349975446286
 20
316.8105698467939
 30
0
 11
-1349.395654469424
 21
315.1411407168214
 31
0
  0
LINE
  8
1
 62
7
 10
-1461.443522221544
 20
184.414436363347
 30
0
 11
-1459.633739372702
 21
183.7645069926352
 31
0
  0
LINE
  8
1
 62
7
 10
-1420.270469321844
 20
255.7282558883491
 30
0
 11
-1418.802722551721
 21
254.4859026512738
 31
0
  0
LINE
  8
1
 62
7
 10
-1465.082859683681
 20
174.4154388643506
 30
0
 11
-1463.278719042409
 21
173.7500076557446
 31
0
  0
LINE
  8
1
 62
7
 10
-1465.082859683681
 20
1.584561135649096
 30
0
 11
-1463.278719042409
 21
2.249992344254792
 31
0
  0
LINE
  8
1
 62
7
 10
-1420.270469321844
 20
-79.72825588834962
 30
0
 11
-1418.802722551721
 21
-78.48590265127461
 31
0
  0
LINE
  8
1
 62
7
 10
-1350.349975446286
 20
-140.8105698467945
 30
0
 11
-1349.395654469425
 21
-139.1411407168225
 31
0
  0
LINE
  8
1
 62
3
  6
DASHDOT
 10
-2075.1648067342
 20
-222
 30
0
 11
-2016.1648067342
 21
-222
 31
0
  0
LINE
  8
1
 62
7
 10
-1827.596676243616
 20
225.5
 30
0
 11
-1827.596676243616
 21
-12.00000000000009
 31
0
  0
LINE
  8
1
 62
7
 10
-1833.696676243616
 20
182
 30
0
 11
-1827.596676243616
 21
182
 31
0
  0
LINE
  8
1
 62
7
 10
-1799.59667624361
 20
215.5
 30
0
 11
-1799.59667624361
 21
204.5
 31
0
  0
LINE
  8
1
 62
7
 10
-1800.59667624361
 20
203.5
 30
0
 11
-1812.59667624361
 21
203.5
 31
0
  0
LINE
  8
1
 62
7
 10
-1800.59667624361
 20
203.5
 30
0
 11
-1800.59667624361
 21
205.846688068541
 31
0
  0
LINE
  8
1
 62
7
 10
-1800.59667624361
 20
216.5
 30
0
 11
-1800.59667624361
 21
214.1533119314589
 31
0
  0
LINE
  8
1
 62
7
 10
-1799.59667624361
 20
204.5
 30
0
 11
-1800.59667624361
 21
203.5
 31
0
  0
LINE
  8
1
 62
7
 10
-1800.59667624361
 20
216.5
 30
0
 11
-1799.59667624361
 21
215.5
 31
0
  0
LINE
  8
1
 62
7
 10
-1813.59667624361
 20
218
 30
0
 11
-1813.59667624361
 21
202
 31
0
  0
LINE
  8
1
 62
7
 10
-1812.59667624361
 20
203
 30
0
 11
-1813.59667624361
 21
202
 31
0
  0
LINE
  8
1
 62
7
 10
-1812.59667624361
 20
217
 30
0
 11
-1813.59667624361
 21
218
 31
0
  0
LINE
  8
1
 62
7
 10
-1812.59667624361
 20
216.5
 30
0
 11
-1800.59667624361
 21
216.5
 31
0
  0
LINE
  8
1
 62
7
 10
-1812.59667624361
 20
217
 30
0
 11
-1812.59667624361
 21
203
 31
0
  0
LINE
  8
1
 62
7
 10
-1813.59667624361
 20
218
 30
0
 11
-1817.596676243616
 21
218
 31
0
  0
LINE
  8
1
 62
7
 10
-1799.59667624361
 20
214.1533119314589
 30
0
 11
-1812.59667624361
 21
214.1533119314589
 31
0
  0
LINE
  8
1
 62
7
 10
-1812.59667624361
 20
205.846688068541
 30
0
 11
-1799.59667624361
 21
205.846688068541
 31
0
  0
LINE
  8
1
 62
7
 10
-2069.59667624361
 20
418
 30
0
 11
-2023.59667624361
 21
418
 31
0
  0
LINE
  8
1
 62
7
 10
-2020.971002368664
 20
377.0393876067271
 30
0
 11
-1985.222350118556
 21
363.9606123932729
 31
0
  0
LINE
  8
1
 62
7
 10
-2023.59667624361
 20
418
 30
0
 11
-2023.59667624361
 21
-242
 31
0
  0
LINE
  8
1
 62
7
 10
-2069.59667624361
 20
418
 30
0
 11
-2069.59667624361
 21
-242
 31
0
  0
LINE
  8
1
 62
7
 10
-2023.59667624361
 20
-242
 30
0
 11
-2069.59667624361
 21
-242
 31
0
  0
LINE
  8
1
 62
7
 10
-1985.222350118556
 20
-187.9606123932729
 30
0
 11
-2020.971002368664
 21
-201.0393876067271
 31
0
  0
LINE
  8
1
 62
7
 10
-1982.59667624361
 20
360.2041209847916
 30
0
 11
-1982.59667624361
 21
-184.2041209847916
 31
0
  0
LINE
  8
1
 62
7
 10
-1799.596676243616
 20
188
 30
0
 11
-1799.596676243616
 21
-12.00000000000008
 31
0
  0
LINE
  8
1
 62
7
 10
-1799.596676243616
 20
-12.00000000000008
 30
0
 11
-1827.596676243616
 21
-12.00000000000009
 31
0
  0
LINE
  8
1
 62
7
 10
-1827.596676243616
 20
-4.500000000000085
 30
0
 11
-1833.696676243616
 21
-4.500000000000078
 31
0
  0
LINE
  8
1
 62
7
 10
-1833.696676243616
 20
225.5
 30
0
 11
-1833.696676243616
 21
-21.00000000000003
 31
0
  0
LINE
  8
1
 62
7
 10
-1827.596676243616
 20
188
 30
0
 11
-1799.596676243616
 21
188
 31
0
  0
LINE
  8
1
 62
7
 10
-1982.59667624361
 20
338.0000000000001
 30
0
 11
-1976.131413699434
 21
338.0000000000001
 31
0
  0
LINE
  8
1
 62
7
 10
-1962.949882681632
 20
426.3894453002617
 30
0
 11
-1971.155168196092
 21
342.5131933746731
 31
0
  0
LINE
  8
1
 62
7
 10
-1958.968886278958
 20
430.0000000000001
 30
0
 11
-1952.596676243614
 21
430.0000000000001
 31
0
  0
LINE
  8
1
 62
7
 10
-1952.596676243614
 20
433.0000000000001
 30
0
 11
-1940.596676243616
 21
433.0000000000001
 31
0
  0
LINE
  8
1
 62
7
 10
-1976.131413699434
 20
-162.0000000000001
 30
0
 11
-1982.59667624361
 21
-162.0000000000001
 31
0
  0
LINE
  8
1
 62
7
 10
-1971.155168196092
 20
-166.5131933746731
 30
0
 11
-1962.949882681632
 21
-250.3894453002617
 31
0
  0
LINE
  8
1
 62
7
 10
-1952.596676243614
 20
-254.0000000000001
 30
0
 11
-1958.968886278958
 21
-254.0000000000001
 31
0
  0
LINE
  8
1
 62
7
 10
-1940.596676243616
 20
-257.0000000000001
 30
0
 11
-1952.596676243614
 21
-257.0000000000001
 31
0
  0
LINE
  8
1
 62
7
 10
-1940.596676243616
 20
432
 30
0
 11
-1934.596676243616
 21
432
 31
0
  0
LINE
  8
1
 62
7
 10
-1934.596676243616
 20
-256
 30
0
 11
-1940.596676243616
 21
-256
 31
0
  0
LINE
  8
1
 62
7
 10
-1934.596676243616
 20
433.0000000000001
 30
0
 11
-1912.596676243616
 21
433.0000000000001
 31
0
  0
LINE
  8
1
 62
7
 10
-1934.596676243616
 20
-401.9999999999999
 30
0
 11
-1912.596676243616
 21
-401.9999999999999
 31
0
  0
LINE
  8
1
 62
7
 10
-1934.596676243616
 20
433.0000000000001
 30
0
 11
-1934.596676243616
 21
-401.9999999999999
 31
0
  0
LINE
  8
1
 62
7
 10
-1912.596676243616
 20
433.0000000000001
 30
0
 11
-1912.596676243616
 21
-401.9999999999999
 31
0
  0
LINE
  8
1
 62
7
 10
-1912.596676243616
 20
432
 30
0
 11
-1906.596676243616
 21
432
 31
0
  0
LINE
  8
1
 62
7
 10
-1906.596676243616
 20
-256
 30
0
 11
-1912.596676243616
 21
-256
 31
0
  0
LINE
  8
1
 62
7
 10
-1906.596676243616
 20
-257
 30
0
 11
-1906.596676243616
 21
433.0000000000001
 31
0
  0
LINE
  8
1
 62
7
 10
-1906.596676243616
 20
433.0000000000001
 30
0
 11
-1894.502056636712
 21
432.9999999999999
 31
0
  0
LINE
  8
1
 62
7
 10
-1894.502056636712
 20
430.0000000000001
 30
0
 11
-1887.396149433151
 21
430.0000000000001
 31
0
  0
LINE
  8
1
 62
7
 10
-1883.638002282266
 20
427.3697919521921
 30
0
 11
-1845.596676243617
 21
323.0000000000001
 31
0
  0
LINE
  8
1
 62
7
 10
-1845.596676243617
 20
225.5
 30
0
 11
-1827.596676243616
 21
225.5
 31
0
  0
LINE
  8
1
 62
7
 10
-1845.596676243617
 20
323.0000000000001
 30
0
 11
-1845.596676243617
 21
-147.0000000000001
 31
0
  0
LINE
  8
1
 62
7
 10
-1894.502056636712
 20
-257
 30
0
 11
-1906.596676243616
 21
-257
 31
0
  0
LINE
  8
1
 62
7
 10
-1887.396149433151
 20
-254.0000000000001
 30
0
 11
-1894.502056636712
 21
-254.0000000000001
 31
0
  0
LINE
  8
1
 62
7
 10
-1845.596676243617
 20
-147.0000000000001
 30
0
 11
-1883.638002282266
 21
-251.3697919521921
 31
0
  0
LINE
  8
1
 62
7
 10
-1845.596676243617
 20
-21
 30
0
 11
-1833.696676243616
 21
-21.00000000000003
 31
0
  0
LINE
  8
1
 62
7
 10
-2094.59667624361
 20
173
 30
0
 11
-2092.228595670307
 21
173.8619108410261
 31
0
  0
LINE
  8
1
 62
7
 10
-2089.59667624361
 20
248.5
 30
0
 11
-2080.596676243611
 21
338.0000000000001
 31
0
  0
LINE
  8
1
 62
7
 10
-2080.596676243611
 20
338.0000000000001
 30
0
 11
-2069.59667624361
 21
338.0000000000001
 31
0
  0
LINE
  8
1
 62
7
 10
-2089.59667624361
 20
248.5
 30
0
 11
-2089.59667624361
 21
-72.5
 31
0
  0
LINE
  8
1
 62
7
 10
-2094.59667624361
 20
173
 30
0
 11
-2094.59667624361
 21
3
 31
0
  0
LINE
  8
1
 62
7
 10
-2092.228595670307
 20
2.138089158973855
 30
0
 11
-2094.59667624361
 21
3
 31
0
  0
LINE
  8
1
 62
7
 10
-2080.596676243611
 20
-162.0000000000001
 30
0
 11
-2089.59667624361
 21
-72.5
 31
0
  0
LINE
  8
1
 62
7
 10
-2069.59667624361
 20
-162.0000000000001
 30
0
 11
-2080.596676243611
 21
-162.0000000000001
 31
0
  0
LINE
  8
1
 62
7
 10
-1940.596676243616
 20
-257.0000000000001
 30
0
 11
-1940.596676243616
 21
433.0000000000001
 31
0
  0
LINE
  8
1
 62
7
 10
-1817.596676243616
 20
220.3875
 30
0
 11
-1817.596676243616
 21
199.6125
 31
0
  0
LINE
  8
1
 62
7
 10
-1818.953449376212
 20
223.85
 30
0
 11
-1826.239903111021
 21
223.85
 31
0
  0
LINE
  8
1
 62
7
 10
-1818.953449376212
 20
216.925
 30
0
 11
-1826.239903111021
 21
216.925
 31
0
  0
LINE
  8
1
 62
7
 10
-1818.953449376212
 20
203.075
 30
0
 11
-1826.239903111021
 21
203.075
 31
0
  0
LINE
  8
1
 62
7
 10
-1818.953449376212
 20
196.15
 30
0
 11
-1826.239903111021
 21
196.15
 31
0
  0
LINE
  8
1
 62
7
 10
-1817.596676243616
 20
202
 30
0
 11
-1813.59667624361
 21
202
 31
0
  0
LINE
  8
1
 62
3
  6
DASHDOT
 10
-2696.80664886313
 20
88
 30
0
 11
-2656.80664886313
 21
88
 31
0
  0
LINE
  8
1
 62
3
  6
DASHDOT
 10
-2676.80664886313
 20
108
 30
0
 11
-2676.80664886313
 21
68
 31
0
  0
LINE
  8
1
 62
7
 10
-2832.383758248627
 20
149.4155928015372
 30
0
 11
-2899.81181673344
 21
173.4959478983984
 31
0
  0
LINE
  8
1
 62
7
 10
-2835.462811078786
 20
140.9559646773702
 30
0
 11
-2902.594254484492
 21
165.8512630063447
 31
0
  0
LINE
  8
1
 62
7
 10
-2807.78266711049
 20
192.0259325744231
 30
0
 11
-2862.350895598929
 21
238.3801666017034
 31
0
  0
LINE
  8
1
 62
7
 10
-2801.995940663471
 20
198.9222846070176
 30
0
 11
-2857.121623154009
 21
244.6121708245902
 31
0
  0
LINE
  8
1
 62
7
 10
-2756.508446890021
 20
235.050111850321
 30
0
 11
-2792.6827825095
 21
296.8386545998609
 31
0
  0
LINE
  8
1
 62
7
 10
-2764.304882341404
 20
230.5488377437454
 30
0
 11
-2799.728162215588
 21
292.771002730008
 31
0
  0
LINE
  8
1
 62
7
 10
-2701.407740001267
 20
253.4415253759598
 30
0
 11
-2714.267569997642
 21
323.8761145001026
 31
0
  0
LINE
  8
1
 62
7
 10
-2710.273519278444
 20
251.8782492843876
 30
0
 11
-2722.279280193614
 21
322.4634338309361
 31
0
  0
LINE
  8
1
 62
7
 10
-2710.273519278442
 20
-75.87824928438808
 30
0
 11
-2722.27928019361
 21
-146.4634338309324
 31
0
  0
LINE
  8
1
 62
7
 10
-2701.407740001264
 20
-77.44152537596025
 30
0
 11
-2714.267569997638
 21
-147.8761145001004
 31
0
  0
LINE
  8
1
 62
7
 10
-2764.304882341403
 20
-54.54883774374605
 30
0
 11
-2799.728162215585
 21
-116.7710027300057
 31
0
  0
LINE
  8
1
 62
7
 10
-2756.50844689002
 20
-59.05011185032154
 30
0
 11
-2792.682782509497
 21
-120.8386545998599
 31
0
  0
LINE
  8
1
 62
7
 10
-2801.99594066347
 20
-22.92228460701882
 30
0
 11
-2857.121623154007
 21
-68.61217082459029
 31
0
  0
LINE
  8
1
 62
7
 10
-2807.78266711049
 20
-16.02593257442331
 30
0
 11
-2862.350895598927
 21
-62.38016660170206
 31
0
  0
LINE
  8
1
 62
7
 10
-2835.462811078786
 20
35.04403532262996
 30
0
 11
-2902.594254484491
 21
10.14873699365603
 31
0
  0
LINE
  8
1
 62
7
 10
-2832.383758248627
 20
26.58440719846248
 30
0
 11
-2899.811816733438
 21
2.504052101600792
 31
0
  0
LINE
  8
1
 62
7
 10
-2844.006680368296
 20
83.49872589342448
 30
0
 11
-2915.604295861956
 21
83.93234813014601
 31
0
  0
LINE
  8
1
 62
7
 10
-2844.006680368296
 20
92.50127410657565
 30
0
 11
-2915.604295861956
 21
92.06765186985331
 31
0
  0
LINE
  8
1
 62
7
 10
-2762.530415070758
 20
113.9094174209111
 30
0
 11
-2818.078594892058
 21
134.509131029411
 31
0
  0
LINE
  8
1
 62
7
 10
-2759.129116102072
 20
123.2544095341904
 30
0
 11
-2814.922731250187
 21
143.1797951243279
 31
0
  0
LINE
  8
1
 62
7
 10
-2717.474017603217
 20
8.19454113280932
 30
0
 11
-2747.399879474292
 21
-42.92112868870423
 31
0
  0
LINE
  8
1
 62
7
 10
-2725.586519232745
 20
12.87829613241858
 30
0
 11
-2754.891056894095
 21
-38.59609538883424
 31
0
  0
LINE
  8
1
 62
7
 10
-2759.257620847923
 20
53.00595244891117
 30
0
 11
-2815.038680261904
 21
33.08505084575496
 31
0
  0
LINE
  8
1
 62
7
 10
-2762.530415070758
 20
62.09058257908909
 30
0
 11
-2818.078594892058
 21
41.49086897058928
 31
0
  0
LINE
  8
1
 62
7
 10
-2717.208219799973
 20
167.9223064591254
 30
0
 11
-2747.140817670138
 21
219.0494818842807
 31
0
  0
LINE
  8
1
 62
7
 10
-2725.820611117355
 20
162.9499400136686
 30
0
 11
-2755.131744924201
 21
214.4359178830725
 31
0
  0
LINE
  8
1
 62
7
 10
-2746.806648863129
 20
104
 30
0
 11
-2746.806648863129
 21
72
 31
0
  0
LINE
  8
1
 62
7
 10
-2746.806648863129
 20
104
 30
0
 11
-2734.633978042333
 21
104
 31
0
  0
LINE
  8
1
 62
7
 10
-2746.806648863129
 20
72
 30
0
 11
-2734.633978042334
 21
72
 31
0
  0
LINE
  8
1
 62
7
 10
-2453.801480992819
 20
173.4959478983984
 30
0
 11
-2521.229539477632
 21
149.4155928015372
 31
0
  0
LINE
  8
1
 62
7
 10
-2451.019043241768
 20
165.8512630063447
 30
0
 11
-2518.150486647474
 21
140.9559646773703
 31
0
  0
LINE
  8
1
 62
7
 10
-2491.262402127331
 20
238.3801666017034
 30
0
 11
-2545.830630615769
 21
192.0259325744232
 31
0
  0
LINE
  8
1
 62
7
 10
-2496.49167457225
 20
244.6121708245902
 30
0
 11
-2551.617357062788
 21
198.9222846070176
 31
0
  0
LINE
  8
1
 62
7
 10
-2560.930515216759
 20
296.8386545998609
 30
0
 11
-2597.104850836238
 21
235.050111850321
 31
0
  0
LINE
  8
1
 62
7
 10
-2553.885135510671
 20
292.771002730008
 30
0
 11
-2589.308415384855
 21
230.5488377437454
 31
0
  0
LINE
  8
1
 62
7
 10
-2639.345727728618
 20
323.8761145001026
 30
0
 11
-2652.205557724993
 21
253.4415253759598
 31
0
  0
LINE
  8
1
 62
7
 10
-2631.334017532646
 20
322.4634338309361
 30
0
 11
-2643.339778447815
 21
251.8782492843877
 31
0
  0
LINE
  8
1
 62
7
 10
-2631.334017532649
 20
-146.4634338309324
 30
0
 11
-2643.339778447818
 21
-75.87824928438812
 31
0
  0
LINE
  8
1
 62
7
 10
-2639.345727728622
 20
-147.8761145001004
 30
0
 11
-2652.205557724996
 21
-77.44152537596023
 31
0
  0
LINE
  8
1
 62
7
 10
-2553.885135510674
 20
-116.7710027300057
 30
0
 11
-2589.308415384856
 21
-54.54883774374601
 31
0
  0
LINE
  8
1
 62
7
 10
-2560.930515216763
 20
-120.8386545998599
 30
0
 11
-2597.10485083624
 21
-59.05011185032149
 31
0
  0
LINE
  8
1
 62
7
 10
-2496.491674572253
 20
-68.61217082459029
 30
0
 11
-2551.617357062789
 21
-22.92228460701891
 31
0
  0
LINE
  8
1
 62
7
 10
-2491.262402127333
 20
-62.38016660170206
 30
0
 11
-2545.830630615769
 21
-16.02593257442344
 31
0
  0
LINE
  8
1
 62
7
 10
-2451.019043241769
 20
10.14873699365603
 30
0
 11
-2518.150486647474
 21
35.04403532263
 31
0
  0
LINE
  8
1
 62
7
 10
-2453.801480992821
 20
2.504052101600792
 30
0
 11
-2521.229539477633
 21
26.58440719846253
 31
0
  0
LINE
  8
1
 62
7
 10
-2438.009001864303
 20
83.93234813014601
 30
0
 11
-2509.606617357963
 21
83.49872589342448
 31
0
  0
LINE
  8
1
 62
7
 10
-2438.009001864304
 20
92.06765186985331
 30
0
 11
-2509.606617357963
 21
92.50127410657564
 31
0
  0
LINE
  8
1
 62
7
 10
-2535.616120446136
 20
134.7865454011626
 30
0
 11
-2591.151799765799
 21
114.1914675296845
 31
0
  0
LINE
  8
1
 62
7
 10
-2538.690566476073
 20
143.1797951243278
 30
0
 11
-2594.484181624188
 21
123.2544095341904
 31
0
  0
LINE
  8
1
 62
7
 10
-2606.472480056123
 20
-43.04948188428143
 30
0
 11
-2636.405077926288
 21
8.077693540874876
 31
0
  0
LINE
  8
1
 62
7
 10
-2598.48155280206
 20
-38.43591788307315
 30
0
 11
-2627.792686608906
 21
13.0500599863331
 31
0
  0
LINE
  8
1
 62
7
 10
-2538.690566476073
 20
32.82020487567201
 30
0
 11
-2594.484181624189
 21
52.74559046581047
 31
0
  0
LINE
  8
1
 62
7
 10
-2535.534702834202
 20
41.49086897058927
 30
0
 11
-2591.082882655503
 21
62.09058257908972
 31
0
  0
LINE
  8
1
 62
7
 10
-2606.472480056122
 20
219.0494818842807
 30
0
 11
-2636.405077926287
 21
167.9223064591254
 31
0
  0
LINE
  8
1
 62
7
 10
-2598.481552802059
 20
214.4359178830729
 30
0
 11
-2627.792686608904
 21
162.9499400136686
 31
0
  0
LINE
  8
1
 62
7
 10
-2692.806648863129
 20
-12.61151372675513
 30
0
 11
-2660.80664886313
 21
-12.61151372675513
 31
0
  0
LINE
  8
1
 62
7
 10
-2692.806648863129
 20
-53.28102439709869
 30
0
 11
-2660.80664886313
 21
-53.28102439709869
 31
0
  0
LINE
  8
1
 62
7
 10
-2660.80664886313
 20
188.6115137267551
 30
0
 11
-2692.806648863129
 21
188.6115137267551
 31
0
  0
LINE
  8
1
 62
7
 10
-2660.80664886313
 20
229.2810243970987
 30
0
 11
-2692.806648863129
 21
229.2810243970987
 31
0
  0
LINE
  8
1
 62
7
 10
-1894.502056636712
 20
432.9999999999999
 30
0
 11
-1894.502056636712
 21
-257
 31
0
  0
LINE
  8
1
 62
7
 10
-1952.596676243614
 20
433.0000000000001
 30
0
 11
-1952.596676243614
 21
-257.0000000000001
 31
0
  0
LINE
  8
1
 62
7
 10
-3021.80664886313
 20
88
 30
0
 11
-3021.80664886313
 21
-376.9999999999998
 31
0
  0
LINE
  8
1
 62
7
 10
-2331.80664886313
 20
88
 30
0
 11
-2331.80664886313
 21
-376.9999999999998
 31
0
  0
LINE
  8
1
 62
7
 10
-2996.80664886313
 20
-401.9999999999998
 30
0
 11
-2906.806648863129
 21
-401.9999999999998
 31
0
  0
LINE
  8
1
 62
7
 10
-2446.80664886313
 20
-401.9999999999998
 30
0
 11
-2356.80664886313
 21
-401.9999999999998
 31
0
  0
LINE
  8
1
 62
7
 10
-2881.806648863129
 20
-331.9999999999996
 30
0
 11
-2881.806648863129
 21
-376.9999999999999
 31
0
  0
LINE
  8
1
 62
7
 10
-2471.80664886313
 20
-331.9999999999998
 30
0
 11
-2471.80664886313
 21
-376.9999999999998
 31
0
  0
LINE
  8
1
 62
7
 10
-2831.806648863129
 20
-281.9999999999998
 30
0
 11
-2521.80664886313
 21
-281.9999999999998
 31
0
  0
LINE
  8
1
 62
3
  6
DASHDOT
 10
-1799.596676243616
 20
87.99999999999997
 30
0
 11
-1784.59667624361
 21
88
 31
0
  0
LINE
  8
1
 62
3
  6
DASHDOT
 10
-2094.59667624361
 20
88
 30
0
 11
-2109.59667624361
 21
88
 31
0
  0
LINE
  8
1
 62
3
  6
DASHDOT
 10
-2676.806648863129
 20
410
 30
0
 11
-2676.806648863129
 21
386
 31
0
  0
LINE
  8
1
 62
3
  6
DASHDOT
 10
-2718.419552088933
 20
407.8040279376104
 30
0
 11
-2715.193745637323
 21
383.0130180199656
 31
0
  0
LINE
  8
1
 62
3
  6
DASHDOT
 10
-2953.046629084004
 20
202.422346277162
 30
0
 11
-2973.371978799253
 21
210.841381789194
 31
0
  0
LINE
  8
1
 62
3
  6
DASHDOT
 10
-2904.495032405198
 20
315.6883835420676
 30
0
 11
-2887.524469656719
 21
298.7178207935917
 31
0
  0
LINE
  8
1
 62
3
  6
DASHDOT
 10
-2380.241318927007
 20
-34.84138178919375
 30
0
 11
-2400.566668642256
 21
-26.42234627716266
 31
0
  0
LINE
  8
1
 62
3
  6
DASHDOT
 10
-2449.118265321061
 20
315.6883835420683
 30
0
 11
-2466.088828069539
 21
298.7178207935915
 31
0
  0
LINE
  8
1
 62
3
  6
DASHDOT
 10
-2354.806648863129
 20
88
 30
0
 11
-2378.806648863129
 21
88
 31
0
  0
LINE
  8
1
 62
3
  6
DASHDOT
 10
-2676.806648863129
 20
-210
 30
0
 11
-2676.806648863129
 21
-234
 31
0
  0
LINE
  8
1
 62
3
  6
DASHDOT
 10
-2638.419552088941
 20
-207.0130180199666
 30
0
 11
-2635.193745637319
 21
-231.8040279376097
 31
0
  0
LINE
  8
1
 62
3
  6
DASHDOT
 10
-2887.524469656719
 20
-122.7178207935922
 30
0
 11
-2904.495032405198
 21
-139.6883835420676
 31
0
  0
LINE
  8
1
 62
3
  6
DASHDOT
 10
-2974.80664886313
 20
88
 30
0
 11
-2998.80664886313
 21
88
 31
0
  0
LINE
  8
1
 62
7
 10
-2080.596676243611
 20
338.0000000000001
 30
0
 11
-2080.596676243611
 21
-162.0000000000001
 31
0
  0
LINE
  8
1
 62
7
 10
-1976.131413699434
 20
338.0000000000001
 30
0
 11
-1976.131413699434
 21
-162.0000000000001
 31
0
  0
LINE
  8
1
 62
3
 10
-1812.59667624361
 20
203
 30
0
 11
-1817.596676243616
 21
203
 31
0
  0
LINE
  8
1
 62
3
 10
-1812.59667624361
 20
217
 30
0
 11
-1817.596676243616
 21
217
 31
0
  0
LINE
  8
1
 62
3
  6
DASHED
 10
-1852.596676243611
 20
11
 30
0
 11
-1892.596676243611
 21
11
 31
0
  0
ARC
  8
1
 62
7
 10
-1212.10271405771
 20
88
 30
0
 40
95.00000000000006
 50
258.1550955086483
 51
269.0952922027694
  0
ARC
  8
1
 62
7
 10
-1212.10271405771
 20
88
 30
0
 40
94.99999999999993
 50
270.9047077972306
 51
235.1903054471762
  0
ARC
  8
1
 62
3
 10
-1118.645291997195
 20
9.57991161824225
 30
0
 40
6.399999999999945
 50
191.3751671269455
 51
268.6248328730561
  0
ARC
  8
1
 62
3
 10
-1118.645291997195
 20
9.57991161824225
 30
0
 40
6.400000000000012
 50
11.37516712694843
 51
88.62483287304596
  0
ARC
  8
1
 62
7
 10
-1118.645291997195
 20
9.57991161824225
 30
0
 40
6.399999999999888
 50
268.6248328730561
 51
11.37516712694843
  0
ARC
  8
1
 62
7
 10
-1118.645291997195
 20
9.57991161824225
 30
0
 40
6.400000000000033
 50
88.62483287304596
 51
191.3751671269455
  0
ARC
  8
1
 62
3
 10
-1090.10271405771
 20
88
 30
0
 40
6.400000000000143
 50
231.3751671269438
 51
308.6248328730569
  0
ARC
  8
1
 62
3
 10
-1090.10271405771
 20
88
 30
0
 40
6.399999999999753
 50
51.37516712695145
 51
128.6248328730549
  0
ARC
  8
1
 62
7
 10
-1090.10271405771
 20
88
 30
0
 40
6.400000000000054
 50
308.6248328730569
 51
51.37516712695145
  0
ARC
  8
1
 62
7
 10
-1090.10271405771
 20
88
 30
0
 40
6.40000000000032
 50
128.6248328730549
 51
231.3751671269438
  0
ARC
  8
1
 62
3
 10
-1118.645291997195
 20
166.4200883817578
 30
0
 40
6.400000000000087
 50
271.3751671269438
 51
348.6248328730533
  0
ARC
  8
1
 62
3
 10
-1118.645291997195
 20
166.4200883817578
 30
0
 40
6.399999999999974
 50
91.37516712694387
 51
168.6248328730518
  0
ARC
  8
1
 62
7
 10
-1118.645291997195
 20
166.4200883817578
 30
0
 40
6.399999999999973
 50
348.6248328730533
 51
91.37516712694387
  0
ARC
  8
1
 62
7
 10
-1118.645291997195
 20
166.4200883817578
 30
0
 40
6.400000000000007
 50
168.6248328730518
 51
271.3751671269438
  0
ARC
  8
1
 62
3
 10
-1305.560136118226
 20
9.579911618242363
 30
0
 40
6.400000000000002
 50
271.3751671269439
 51
348.6248328730536
  0
ARC
  8
1
 62
3
 10
-1305.560136118226
 20
9.579911618242363
 30
0
 40
6.39999999999992
 50
91.37516712695405
 51
168.6248328730526
  0
ARC
  8
1
 62
7
 10
-1305.560136118226
 20
9.579911618242363
 30
0
 40
6.39999999999999
 50
168.6248328730526
 51
271.3751671269439
  0
ARC
  8
1
 62
7
 10
-1305.560136118226
 20
9.579911618242363
 30
0
 40
6.399999999999968
 50
348.6248328730536
 51
91.37516712695405
  0
ARC
  8
1
 62
3
 10
-1334.10271405771
 20
88
 30
0
 40
6.400000000000054
 50
231.3751671269432
 51
308.6248328730498
  0
ARC
  8
1
 62
3
 10
-1334.10271405771
 20
88
 30
0
 40
6.399999999999753
 50
51.37516712695145
 51
128.6248328730549
  0
ARC
  8
1
 62
7
 10
-1334.10271405771
 20
88
 30
0
 40
6.40000000000032
 50
128.6248328730549
 51
231.3751671269432
  0
ARC
  8
1
 62
7
 10
-1334.10271405771
 20
88
 30
0
 40
6.399999999999574
 50
308.6248328730498
 51
51.37516712695145
  0
ARC
  8
1
 62
3
 10
-1305.560136118226
 20
166.4200883817578
 30
0
 40
6.399999999999973
 50
191.3751671269467
 51
268.6248328730562
  0
ARC
  8
1
 62
3
 10
-1305.560136118226
 20
166.4200883817578
 30
0
 40
6.400000000000007
 50
11.37516712694816
 51
88.62483287304799
  0
ARC
  8
1
 62
7
 10
-1305.560136118226
 20
166.4200883817578
 30
0
 40
6.399999999999995
 50
88.62483287304799
 51
191.3751671269467
  0
ARC
  8
1
 62
7
 10
-1305.560136118226
 20
166.4200883817578
 30
0
 40
6.400000000000087
 50
268.6248328730562
 51
11.37516712694816
  0
ARC
  8
1
 62
7
 10
-1212.10271405771
 20
88
 30
0
 40
342.0000000000006
 50
79.16231256161649
 51
80.83768743838363
  0
ARC
  8
1
 62
7
 10
-1212.10271405771
 20
88
 30
0
 40
341.9999999999999
 50
99.16231256161653
 51
100.8376874383837
  0
ARC
  8
1
 62
7
 10
-1212.10271405771
 20
88
 30
0
 40
235
 50
98.66888975525359
 51
101.3311102447464
  0
ARC
  8
1
 62
7
 10
-1212.10271405771
 20
88
 30
0
 40
235
 50
78.66888975525352
 51
81.33111024474637
  0
ARC
  8
1
 62
7
 10
-1212.10271405771
 20
88
 30
0
 40
234.9999999999996
 50
178.6688897552536
 51
181.3311102447465
  0
ARC
  8
1
 62
7
 10
-1212.10271405771
 20
88
 30
0
 40
234.9999999999995
 50
358.6688897552536
 51
1.331110244746472
  0
ARC
  8
1
 62
7
 10
-1212.10271405771
 20
88
 30
0
 40
108.9999999999995
 50
50.0000000000003
 51
130
  0
ARC
  8
1
 62
7
 10
-1212.10271405771
 20
88
 30
0
 40
109.0000000000004
 50
230.0000000000001
 51
309.9999999999999
  0
ARC
  8
1
 62
7
 10
-1212.10271405771
 20
88
 30
0
 40
138.0000000000003
 50
132.040050296365
 51
227.959949703635
  0
ARC
  8
1
 62
7
 10
-1212.10271405771
 20
88
 30
0
 40
137.9999999999997
 50
312.0400502963647
 51
47.95994970363532
  0
ARC
  8
1
 62
7
 10
-1212.10271405771
 20
88
 30
0
 40
100
 50
258.7552764076236
 51
269.1405310751642
  0
ARC
  8
1
 62
7
 10
-1212.10271405771
 20
88
 30
0
 40
99.99999999999997
 50
270.8594689248358
 51
231.260575402144
  0
ARC
  8
1
 62
7
 10
-1212.10271405771
 20
88
 30
0
 40
71.52500000000008
 50
271.2016773205932
 51
268.7983226794068
  0
ARC
  8
1
 62
7
 10
-1212.10271405771
 20
88
 30
0
 40
72.50000000000003
 50
271.1855145101393
 51
268.8144854898607
  0
ARC
  8
1
 62
7
 10
-1212.10271405771
 20
88
 30
0
 40
341.9999999999997
 50
19.16231256161644
 51
20.83768743838362
  0
ARC
  8
1
 62
7
 10
-1212.10271405771
 20
88
 30
0
 40
341.9999999999992
 50
39.16231256161652
 51
40.83768743838363
  0
ARC
  8
1
 62
7
 10
-1212.10271405771
 20
88
 30
0
 40
341.9999999999998
 50
59.16231256161647
 51
60.83768743838358
  0
ARC
  8
1
 62
7
 10
-1212.10271405771
 20
88
 30
0
 40
341.9999999999997
 50
119.1623125616165
 51
120.8376874383837
  0
ARC
  8
1
 62
7
 10
-1212.10271405771
 20
88
 30
0
 40
341.9999999999993
 50
159.1623125616164
 51
160.8376874383837
  0
ARC
  8
1
 62
7
 10
-1212.10271405771
 20
88
 30
0
 40
342.0000000000005
 50
199.1623125616164
 51
200.8376874383836
  0
ARC
  8
1
 62
7
 10
-1212.10271405771
 20
88
 30
0
 40
341.9999999999997
 50
219.1623125616165
 51
220.8376874383837
  0
ARC
  8
1
 62
7
 10
-1212.10271405771
 20
88
 30
0
 40
342
 50
239.1623125616165
 51
240.8376874383836
  0
ARC
  8
1
 62
7
 10
-1212.10271405771
 20
88
 30
0
 40
342.0000000000005
 50
259.1623125616164
 51
260.8376874383836
  0
ARC
  8
1
 62
7
 10
-1212.10271405771
 20
88
 30
0
 40
342.0000000000005
 50
279.1623125616164
 51
280.8376874383835
  0
ARC
  8
1
 62
7
 10
-1212.10271405771
 20
88
 30
0
 40
342.0000000000005
 50
299.1623125616164
 51
300.8376874383836
  0
ARC
  8
1
 62
7
 10
-1212.10271405771
 20
88
 30
0
 40
342.0000000000006
 50
319.1623125616164
 51
320.8376874383835
  0
ARC
  8
1
 62
7
 10
-1212.10271405771
 20
88
 30
0
 40
342.0000000000003
 50
339.1623125616164
 51
340.8376874383836
  0
ARC
  8
1
 62
7
 10
-1212.10271405771
 20
88
 30
0
 40
234.9999999999999
 50
158.6688897552536
 51
161.3311102447465
  0
ARC
  8
1
 62
7
 10
-1212.10271405771
 20
88
 30
0
 40
235
 50
18.66888975525353
 51
21.33111024474653
  0
ARC
  8
1
 62
7
 10
-1212.10271405771
 20
88
 30
0
 40
234.9999999999998
 50
38.66888975525357
 51
41.33111024474643
  0
ARC
  8
1
 62
7
 10
-1212.10271405771
 20
88
 30
0
 40
235.0000000000003
 50
58.66888975525342
 51
61.33111024474638
  0
ARC
  8
1
 62
7
 10
-1212.10271405771
 20
88
 30
0
 40
235
 50
118.6688897552536
 51
121.3311102447465
  0
ARC
  8
1
 62
7
 10
-1212.10271405771
 20
88
 30
0
 40
235
 50
138.6688897552536
 51
141.3311102447464
  0
ARC
  8
1
 62
7
 10
-1212.10271405771
 20
88
 30
0
 40
235.0000000000001
 50
198.6688897552536
 51
201.3311102447466
  0
ARC
  8
1
 62
7
 10
-1212.10271405771
 20
88
 30
0
 40
234.9999999999998
 50
218.6688897552536
 51
221.3311102447465
  0
ARC
  8
1
 62
7
 10
-1212.10271405771
 20
88
 30
0
 40
235.0000000000004
 50
238.6688897552535
 51
241.3311102447466
  0
ARC
  8
1
 62
7
 10
-1212.10271405771
 20
88
 30
0
 40
235.0000000000001
 50
258.6688897552535
 51
261.3311102447464
  0
ARC
  8
1
 62
7
 10
-1212.10271405771
 20
88
 30
0
 40
235
 50
278.6688897552536
 51
281.3311102447465
  0
ARC
  8
1
 62
7
 10
-1212.10271405771
 20
88
 30
0
 40
235.0000000000001
 50
298.6688897552536
 51
301.3311102447466
  0
ARC
  8
1
 62
7
 10
-1212.10271405771
 20
88
 30
0
 40
235.0000000000001
 50
318.6688897552536
 51
321.3311102447465
  0
ARC
  8
1
 62
7
 10
-1212.10271405771
 20
88
 30
0
 40
234.9999999999996
 50
338.6688897552535
 51
341.3311102447465
  0
ARC
  8
1
 62
7
 10
-1212.10271405771
 20
88
 30
0
 40
262.4999999999998
 50
21.79762923885722
 51
38.20237076114281
  0
ARC
  8
1
 62
7
 10
-1212.10271405771
 20
88
 30
0
 40
262.4999999999996
 50
41.79762923885726
 51
58.20237076114274
  0
ARC
  8
1
 62
7
 10
-1212.10271405771
 20
88
 30
0
 40
262.4999999999992
 50
61.79762923885745
 51
78.20237076114302
  0
ARC
  8
1
 62
7
 10
-1212.10271405771
 20
88
 30
0
 40
262.4999999999998
 50
81.79762923885713
 51
98.20237076114286
  0
ARC
  8
1
 62
7
 10
-1212.10271405771
 20
88
 30
0
 40
262.4999999999999
 50
101.7976292388574
 51
118.2023707611429
  0
ARC
  8
1
 62
7
 10
-1212.10271405771
 20
88
 30
0
 40
341.9999999999997
 50
139.1623125616164
 51
140.8376874383836
  0
ARC
  8
1
 62
7
 10
-1212.10271405771
 20
88
 30
0
 40
262.4999999999998
 50
121.7976292388572
 51
138.2023707611429
  0
ARC
  8
1
 62
7
 10
-1212.10271405771
 20
88
 30
0
 40
262.5000000000003
 50
141.7976292388573
 51
158.2023707611428
  0
ARC
  8
1
 62
7
 10
-1212.10271405771
 20
88
 30
0
 40
262.5000000000002
 50
161.7976292388573
 51
198.2023707611429
  0
ARC
  8
1
 62
7
 10
-1212.10271405771
 20
88
 30
0
 40
262.4999999999999
 50
201.7976292388573
 51
218.2023707611427
  0
ARC
  8
1
 62
7
 10
-1212.10271405771
 20
88
 30
0
 40
262.5000000000005
 50
221.7976292388572
 51
238.2023707611428
  0
ARC
  8
1
 62
7
 10
-1212.10271405771
 20
88
 30
0
 40
262.5000000000005
 50
241.7976292388572
 51
258.2023707611426
  0
ARC
  8
1
 62
7
 10
-1212.10271405771
 20
88
 30
0
 40
262.5000000000002
 50
261.7976292388574
 51
278.2023707611428
  0
ARC
  8
1
 62
7
 10
-1212.10271405771
 20
88
 30
0
 40
262.5000000000003
 50
281.7976292388574
 51
298.2023707611426
  0
ARC
  8
1
 62
7
 10
-1212.10271405771
 20
88
 30
0
 40
262.5000000000001
 50
301.7976292388572
 51
318.2023707611427
  0
ARC
  8
1
 62
7
 10
-1212.10271405771
 20
88
 30
0
 40
262.5000000000005
 50
321.7976292388573
 51
338.2023707611427
  0
ARC
  8
1
 62
7
 10
-1212.10271405771
 20
88
 30
0
 40
262.4999999999999
 50
341.7976292388573
 51
18.20237076114278
  0
ARC
  8
1
 62
7
 10
-1822.693231906122
 20
220.3875
 30
0
 40
5.096555662505901
 50
317.2047561097327
 51
42.79524389026751
  0
ARC
  8
1
 62
7
 10
-1835.947739194745
 20
210
 30
0
 40
18.35106295112902
 50
337.8296048630343
 51
22.1703951369657
  0
ARC
  8
1
 62
7
 10
-1822.693231906122
 20
199.6125
 30
0
 40
5.096555662505921
 50
317.2047561097325
 51
42.79524389026727
  0
ARC
  8
1
 62
7
 10
-1822.500120581109
 20
220.3875
 30
0
 40
5.096555662507255
 50
137.2047561097464
 51
222.7952438902534
  0
ARC
  8
1
 62
7
 10
-1809.245613292482
 20
210
 30
0
 40
18.35106295113449
 50
157.8296048630413
 51
202.1703951369588
  0
ARC
  8
1
 62
7
 10
-1822.500120581109
 20
199.6125
 30
0
 40
5.096555662507236
 50
137.2047561097466
 51
222.7952438902536
  0
ARC
  8
1
 62
7
 10
-2676.80664886313
 20
88
 30
0
 40
243.999999999999
 50
162.174299774812
 51
177.825700225188
  0
ARC
  8
1
 62
7
 10
-2676.80664886313
 20
88
 30
0
 40
244.000000000001
 50
82.17429977481163
 51
97.82570022518796
  0
ARC
  8
1
 62
7
 10
-2676.80664886313
 20
88
 30
0
 40
243.9999999999999
 50
142.1742997748121
 51
157.8257002251879
  0
ARC
  8
1
 62
7
 10
-2676.80664886313
 20
88
 30
0
 40
244.0000000000004
 50
122.1742997748121
 51
137.8257002251879
  0
ARC
  8
1
 62
7
 10
-2676.80664886313
 20
88
 30
0
 40
244.000000000001
 50
102.1742997748121
 51
117.8257002251879
  0
ARC
  8
1
 62
7
 10
-2676.80664886313
 20
88
 30
0
 40
243.9999999999979
 50
182.1742997748121
 51
197.8257002251881
  0
ARC
  8
1
 62
7
 10
-2676.80664886313
 20
88
 30
0
 40
243.999999999998
 50
202.1742997748122
 51
217.8257002251883
  0
ARC
  8
1
 62
7
 10
-2676.80664886313
 20
88
 30
0
 40
243.9999999999976
 50
222.1742997748123
 51
237.8257002251885
  0
ARC
  8
1
 62
7
 10
-2676.80664886313
 20
88
 30
0
 40
243.9999999999977
 50
262.1742997748126
 51
277.8257002251873
  0
ARC
  8
1
 62
7
 10
-2676.80664886313
 20
88
 30
0
 40
243.9999999999975
 50
242.1742997748125
 51
257.8257002251884
  0
ARC
  8
1
 62
7
 10
-2676.80664886313
 20
88
 30
0
 40
60.00000000000044
 50
195.4660099534204
 51
164.5339900465794
  0
ARC
  8
1
 62
7
 10
-2676.80664886313
 20
88
 30
0
 40
65
 50
194.2500326978036
 51
165.7499673021964
  0
ARC
  8
1
 62
7
 10
-2676.80664886313
 20
88
 30
0
 40
243.9999999999988
 50
2.174299774811952
 51
17.82570022518795
  0
ARC
  8
1
 62
7
 10
-2676.80664886313
 20
88
 30
0
 40
243.999999999999
 50
22.1742997748122
 51
37.82570022518786
  0
ARC
  8
1
 62
7
 10
-2676.80664886313
 20
88
 30
0
 40
243.9999999999996
 50
42.17429977481216
 51
57.82570022518804
  0
ARC
  8
1
 62
7
 10
-2676.80664886313
 20
88
 30
0
 40
244.0000000000006
 50
62.17429977481189
 51
77.82570022518779
  0
ARC
  8
1
 62
7
 10
-2676.80664886313
 20
88
 30
0
 40
243.9999999999963
 50
342.1742997748119
 51
357.825700225188
  0
ARC
  8
1
 62
7
 10
-2676.80664886313
 20
88
 30
0
 40
243.9999999999967
 50
322.1742997748118
 51
337.8257002251878
  0
ARC
  8
1
 62
7
 10
-2676.80664886313
 20
88
 30
0
 40
243.9999999999965
 50
302.1742997748116
 51
317.8257002251876
  0
ARC
  8
1
 62
7
 10
-2676.80664886313
 20
88
 30
0
 40
243.9999999999966
 50
282.1742997748115
 51
297.8257002251875
  0
ARC
  8
1
 62
7
 10
-2660.80664886313
 20
-32.9462690619269
 30
0
 40
20.33475533517179
 50
270
 51
90
  0
ARC
  8
1
 62
7
 10
-2692.806648863129
 20
-32.9462690619269
 30
0
 40
20.33475533517177
 50
90
 51
270
  0
ARC
  8
1
 62
7
 10
-2660.80664886313
 20
208.9462690619269
 30
0
 40
20.33475533517179
 50
270
 51
90
  0
ARC
  8
1
 62
7
 10
-2692.806648863129
 20
208.9462690619269
 30
0
 40
20.33475533517179
 50
90
 51
270
  0
ARC
  8
1
 62
7
 10
-2676.80664886313
 20
88
 30
0
 40
153.9999999999994
 50
343.6992903509402
 51
16.4118846800514
  0
ARC
  8
1
 62
7
 10
-2676.80664886313
 20
88
 30
0
 40
153.9999999999997
 50
303.6992903509398
 51
336.3007096490595
  0
ARC
  8
1
 62
7
 10
-2676.80664886313
 20
88
 30
0
 40
153.9999999999999
 50
243.5881153199497
 51
296.3007096490588
  0
ARC
  8
1
 62
7
 10
-2676.80664886313
 20
88
 30
0
 40
153.9999999999998
 50
203.5881153199489
 51
236.4118846800519
  0
ARC
  8
1
 62
7
 10
-2676.80664886313
 20
88
 30
0
 40
153.9999999999999
 50
163.6992903509402
 51
196.3007096490597
  0
ARC
  8
1
 62
7
 10
-2676.80664886313
 20
88
 30
0
 40
153.9999999999999
 50
123.6992903509404
 51
156.3007096490596
  0
ARC
  8
1
 62
7
 10
-2676.80664886313
 20
88
 30
0
 40
154.0000000000001
 50
63.69929035094034
 51
116.3007096490594
  0
ARC
  8
1
 62
7
 10
-2676.80664886313
 20
88
 30
0
 40
154.0000000000001
 50
23.69929035094037
 51
56.30070964905985
  0
ARC
  8
1
 62
7
 10
-2676.80664886313
 20
88
 30
0
 40
162.5000000000006
 50
343.25176121355
 51
356.7482387864499
  0
ARC
  8
1
 62
7
 10
-2676.80664886313
 20
88
 30
0
 40
162.5000000000009
 50
3.251761213550148
 51
16.74823878645003
  0
ARC
  8
1
 62
7
 10
-2676.80664886313
 20
88
 30
0
 40
162.500000000001
 50
23.25176121355006
 51
36.74823878645017
  0
ARC
  8
1
 62
7
 10
-2676.80664886313
 20
88
 30
0
 40
162.5000000000005
 50
43.2517612135501
 51
56.74823878644998
  0
ARC
  8
1
 62
7
 10
-2676.80664886313
 20
88
 30
0
 40
162.5000000000005
 50
63.25176121355023
 51
76.74823878645005
  0
ARC
  8
1
 62
7
 10
-2676.80664886313
 20
88
 30
0
 40
162.5000000000004
 50
83.25176121355018
 51
96.74823878644999
  0
ARC
  8
1
 62
7
 10
-2676.80664886313
 20
88
 30
0
 40
162.5000000000004
 50
103.2517612135501
 51
116.7482387864498
  0
ARC
  8
1
 62
7
 10
-2676.80664886313
 20
88
 30
0
 40
162.5000000000005
 50
123.25176121355
 51
136.74823878645
  0
ARC
  8
1
 62
7
 10
-2676.80664886313
 20
88
 30
0
 40
162.5000000000005
 50
143.25176121355
 51
156.7482387864499
  0
ARC
  8
1
 62
7
 10
-2676.80664886313
 20
88
 30
0
 40
162.500000000001
 50
163.25176121355
 51
176.7482387864498
  0
ARC
  8
1
 62
7
 10
-2676.80664886313
 20
88
 30
0
 40
162.5
 50
183.2517612135501
 51
196.7482387864499
  0
ARC
  8
1
 62
7
 10
-2676.80664886313
 20
88
 30
0
 40
162.5000000000007
 50
203.2517612135503
 51
216.7482387864501
  0
ARC
  8
1
 62
7
 10
-2676.80664886313
 20
88
 30
0
 40
162.5000000000009
 50
223.2517612135505
 51
236.7482387864504
  0
ARC
  8
1
 62
7
 10
-2676.80664886313
 20
88
 30
0
 40
162.5000000000003
 50
243.2517612135509
 51
256.7482387864505
  0
ARC
  8
1
 62
7
 10
-2676.80664886313
 20
88
 30
0
 40
162.5000000000004
 50
263.2517612135512
 51
276.748238786449
  0
ARC
  8
1
 62
7
 10
-2676.80664886313
 20
88
 30
0
 40
162.5000000000004
 50
283.2517612135493
 51
296.7482387864492
  0
ARC
  8
1
 62
7
 10
-2676.80664886313
 20
88
 30
0
 40
162.5000000000002
 50
303.2517612135495
 51
316.7482387864495
  0
ARC
  8
1
 62
7
 10
-2676.80664886313
 20
88
 30
0
 40
162.5000000000002
 50
323.2517612135499
 51
336.7482387864498
  0
ARC
  8
1
 62
3
  6
DASHDOT
 10
-2676.80664886313
 20
88
 30
0
 40
310.0000000000006
 50
357.1633414596772
 51
0
  0
ARC
  8
1
 62
3
  6
DASHDOT
 10
-2676.80664886313
 20
88
 30
0
 40
309.9999999999999
 50
87.62900526750443
 51
92.20793716234115
  0
ARC
  8
1
 62
3
  6
DASHDOT
 10
-2676.80664886313
 20
88
 30
0
 40
310.0000000000001
 50
94.91633326811618
 51
100.2616439800026
  0
ARC
  8
1
 62
3
  6
DASHDOT
 10
-2676.80664886313
 20
88
 30
0
 40
310.0000000000008
 50
132.5327190690823
 51
137.6942071944342
  0
ARC
  8
1
 62
3
  6
DASHDOT
 10
-2676.80664886313
 20
88
 30
0
 40
310.0000000000009
 50
155.155265789499
 51
160.234819687145
  0
ARC
  8
1
 62
3
  6
DASHDOT
 10
-2676.80664886313
 20
88
 30
0
 40
310.0000000000011
 50
177.5185060310624
 51
182.6687647993479
  0
ARC
  8
1
 62
3
  6
DASHDOT
 10
-2676.80664886313
 20
88
 30
0
 40
310.0000000000013
 50
222.5971552639666
 51
227.9023458823963
  0
ARC
  8
1
 62
3
  6
DASHDOT
 10
-2676.80664886313
 20
88
 30
0
 40
310.0000000000009
 50
267.5724628874467
 51
272.2955820984863
  0
ARC
  8
1
 62
3
  6
DASHDOT
 10
-2676.80664886313
 20
88
 30
0
 40
310.000000000001
 50
275.1656936491858
 51
279.8479410852487
  0
ARC
  8
1
 62
3
  6
DASHDOT
 10
-2676.80664886313
 20
88
 30
0
 40
310.0000000000009
 50
335.3168084101009
 51
339.7749516341441
  0
ARC
  8
1
 62
3
  6
DASHDOT
 10
-2676.80664886313
 20
88
 30
0
 40
310.0000000000009
 50
0
 51
2.527083579763421
  0
ARC
  8
1
 62
3
  6
DASHDOT
 10
-2676.80664886313
 20
88
 30
0
 40
310.0000000000003
 50
42.33036429119692
 51
47.485565402245
  0
CIRCLE
  8
1
 62
7
 10
-1212.10271405771
 20
88
 30
0
 40
345
  0
CIRCLE
  8
1
 62
7
 10
-1129.162829301236
 20
315.8754605405828
 30
0
 40
2.886751345948365
  0
CIRCLE
  8
1
 62
7
 10
-1129.162829301236
 20
315.8754605405828
 30
0
 40
4.864000000000192
  0
CIRCLE
  8
1
 62
3
 10
-1129.162829301236
 20
315.8754605405828
 30
0
 40
4.277999999999796
  0
CIRCLE
  8
1
 62
7
 10
-2676.80664886313
 20
88
 30
0
 40
85
  0
CIRCLE
  8
1
 62
7
 10
-2770.264070923647
 20
9.579911618242164
 30
0
 40
16.00000000000091
  0
CIRCLE
  8
1
 62
7
 10
-2770.264070923647
 20
9.579911618242164
 30
0
 40
23.50000000000091
  0
CIRCLE
  8
1
 62
7
 10
-2798.80664886313
 20
88.00000000000023
 30
0
 40
15.99999999999905
  0
CIRCLE
  8
1
 62
7
 10
-2798.80664886313
 20
88.00000000000023
 30
0
 40
23.49999999999972
  0
CIRCLE
  8
1
 62
7
 10
-2770.264070923647
 20
166.4200883817589
 30
0
 40
16.00000000000106
  0
CIRCLE
  8
1
 62
7
 10
-2770.264070923647
 20
166.4200883817589
 30
0
 40
23.50000000000118
  0
CIRCLE
  8
1
 62
7
 10
-2583.349226802615
 20
166.420088381758
 30
0
 40
15.99999999999988
  0
CIRCLE
  8
1
 62
7
 10
-2583.349226802615
 20
166.420088381758
 30
0
 40
23.50000000000015
  0
CIRCLE
  8
1
 62
7
 10
-2554.806648863129
 20
88.00000000000046
 30
0
 40
16.00000000000093
  0
CIRCLE
  8
1
 62
7
 10
-2554.806648863129
 20
88.00000000000046
 30
0
 40
23.50000000000091
  0
CIRCLE
  8
1
 62
7
 10
-2583.349226802613
 20
9.579911618242164
 30
0
 40
16.00000000000091
  0
CIRCLE
  8
1
 62
7
 10
-2583.349226802613
 20
9.579911618242164
 30
0
 40
23.50000000000091
  0
CIRCLE
  8
1
 62
7
 10
-937.1027140577105
 20
-332
 30
0
 40
24.99999999999989
  0
CIRCLE
  8
1
 62
7
 10
-1487.10271405771
 20
-332
 30
0
 40
25
  0
CIRCLE
  8
1
 62
7
 10
-1212.10271405771
 20
88
 30
0
 40
55
  0
CIRCLE
  8
1
 62
7
 10
-1118.645291997195
 20
9.57991161824225
 30
0
 40
8.000000000000103
  0
CIRCLE
  8
1
 62
7
 10
-1118.645291997195
 20
9.57991161824225
 30
0
 40
11.99999999999984
  0
CIRCLE
  8
1
 62
7
 10
-1090.10271405771
 20
88
 30
0
 40
7.999999999999422
  0
CIRCLE
  8
1
 62
7
 10
-1090.10271405771
 20
88
 30
0
 40
11.99999999999939
  0
CIRCLE
  8
1
 62
7
 10
-1118.645291997195
 20
166.4200883817578
 30
0
 40
8
  0
CIRCLE
  8
1
 62
7
 10
-1118.645291997195
 20
166.4200883817578
 30
0
 40
12
  0
CIRCLE
  8
1
 62
7
 10
-1305.560136118226
 20
9.579911618242363
 30
0
 40
8.000000000000016
  0
CIRCLE
  8
1
 62
7
 10
-1305.560136118226
 20
9.579911618242363
 30
0
 40
12.00000000000012
  0
CIRCLE
  8
1
 62
7
 10
-1334.10271405771
 20
88
 30
0
 40
8.000000000000815
  0
CIRCLE
  8
1
 62
7
 10
-1334.10271405771
 20
88
 30
0
 40
12.00000000000009
  0
CIRCLE
  8
1
 62
7
 10
-1305.560136118226
 20
166.4200883817578
 30
0
 40
8
  0
CIRCLE
  8
1
 62
7
 10
-1305.560136118226
 20
166.4200883817578
 30
0
 40
12
  0
CIRCLE
  8
1
 62
7
 10
-1118.645291997195
 20
9.57991161824225
 30
0
 40
9
  0
CIRCLE
  8
1
 62
7
 10
-1090.10271405771
 20
88
 30
0
 40
9
  0
CIRCLE
  8
1
 62
7
 10
-1118.645291997195
 20
166.4200883817578
 30
0
 40
9
  0
CIRCLE
  8
1
 62
7
 10
-1131.263254962973
 20
54.51519966805459
 30
0
 40
6.249999999999443
  0
CIRCLE
  8
1
 62
7
 10
-1292.942173152447
 20
54.51519966805459
 30
0
 40
6.25
  0
CIRCLE
  8
1
 62
7
 10
-1292.942173152447
 20
121.4848003319453
 30
0
 40
6.249999999999226
  0
CIRCLE
  8
1
 62
7
 10
-1245.587514389656
 20
168.8394590947375
 30
0
 40
6.25
  0
CIRCLE
  8
1
 62
7
 10
-1178.617913725765
 20
168.8394590947375
 30
0
 40
6.24999999999995
  0
CIRCLE
  8
1
 62
7
 10
-1131.263254962973
 20
121.4848003319453
 30
0
 40
6.25
  0
CIRCLE
  8
1
 62
3
  6
DASHED
 10
-1942.59667624361
 20
88
 30
0
 40
17
  0
CIRCLE
  8
1
 62
7
 10
-941.9027880769654
 20
244
 30
0
 40
18.99999999999989
  0
CIRCLE
  8
1
 62
7
 10
-1011.55297983551
 20
327.0058662531211
 30
0
 40
19.00000000000072
  0
CIRCLE
  8
1
 62
7
 10
-1105.392429340101
 20
381.1840976852034
 30
0
 40
19.00000000000029
  0
CIRCLE
  8
1
 62
7
 10
-1212.10271405771
 20
400
 30
0
 40
19.00000000000003
  0
CIRCLE
  8
1
 62
7
 10
-1318.812998775318
 20
381.1840976852035
 30
0
 40
19.00000000000006
  0
CIRCLE
  8
1
 62
7
 10
-1412.652448279911
 20
327.0058662531213
 30
0
 40
19.00000000000012
  0
CIRCLE
  8
1
 62
7
 10
-1482.302640038455
 20
244.0000000000001
 30
0
 40
19.00000000000006
  0
CIRCLE
  8
1
 62
7
 10
-1519.362732997519
 20
142.1782314320824
 30
0
 40
18.99999999999972
  0
CIRCLE
  8
1
 62
7
 10
-1519.362732997519
 20
33.82176856791773
 30
0
 40
18.99999999999982
  0
CIRCLE
  8
1
 62
7
 10
-1482.302640038455
 20
-68.00000000000011
 30
0
 40
19
  0
CIRCLE
  8
1
 62
7
 10
-1412.652448279911
 20
-151.0058662531216
 30
0
 40
18.99999999999972
  0
CIRCLE
  8
1
 62
7
 10
-1318.81299877532
 20
-205.1840976852041
 30
0
 40
19.00000000000111
  0
CIRCLE
  8
1
 62
7
 10
-1212.10271405771
 20
-224.0000000000008
 30
0
 40
18.99999999999996
  0
CIRCLE
  8
1
 62
7
 10
-1105.392429340101
 20
-205.1840976852043
 30
0
 40
19.00000000000012
  0
CIRCLE
  8
1
 62
7
 10
-1011.552979835509
 20
-151.005866253122
 30
0
 40
19.0000000000002
  0
CIRCLE
  8
1
 62
7
 10
-941.9027880769645
 20
-68.00000000000068
 30
0
 40
19.00000000000012
  0
CIRCLE
  8
1
 62
7
 10
-904.8426951179006
 20
33.82176856791733
 30
0
 40
19.00000000000033
  0
CIRCLE
  8
1
 62
7
 10
-904.8426951179006
 20
142.1782314320822
 30
0
 40
19.00000000000061
  0
CIRCLE
  8
1
 62
7
 10
-2676.80664886313
 20
88
 30
0
 40
55
  0
CIRCLE
  8
1
 62
7
 10
-2676.80664886313
 20
88
 30
0
 40
250
  0
CIRCLE
  8
1
 62
7
 10
-2583.349226802613
 20
9.579911618242164
 30
0
 40
29
  0
CIRCLE
  8
1
 62
7
 10
-2554.806648863129
 20
88.00000000000046
 30
0
 40
28.99999999999984
  0
CIRCLE
  8
1
 62
7
 10
-2583.349226802613
 20
166.4200883817589
 30
0
 40
29.00000000000004
  0
CIRCLE
  8
1
 62
7
 10
-2770.264070923647
 20
166.4200883817589
 30
0
 40
29.00000000000012
  0
CIRCLE
  8
1
 62
7
 10
-2798.806648863132
 20
88.00000000000046
 30
0
 40
29.00000000000053
  0
CIRCLE
  8
1
 62
7
 10
-2770.264070923647
 20
9.579911618242164
 30
0
 40
29
  0
CIRCLE
  8
1
 62
7
 10
-2676.80664886313
 20
258
 30
0
 40
6
  0
CIRCLE
  8
1
 62
7
 10
-2786.080542509841
 20
218.2275553302261
 30
0
 40
5.999999999999885
  0
CIRCLE
  8
1
 62
7
 10
-2844.223966875205
 20
117.5201902033782
 30
0
 40
5.999999999999695
  0
CIRCLE
  8
1
 62
7
 10
-2824.030967506483
 20
3.000000000000455
 30
0
 40
5.99999999999925
  0
CIRCLE
  8
1
 62
7
 10
-2734.950073228493
 20
-71.74774553360339
 30
0
 40
6.000000000000425
  0
CIRCLE
  8
1
 62
7
 10
-2618.663224497766
 20
-71.74774553360339
 30
0
 40
6.000000000000582
  0
CIRCLE
  8
1
 62
7
 10
-2529.582330219776
 20
3.00000000000091
 30
0
 40
6.000000000000099
  0
CIRCLE
  8
1
 62
7
 10
-2509.389330851055
 20
117.5201902033787
 30
0
 40
6.000000000000008
  0
CIRCLE
  8
1
 62
7
 10
-2567.532755216418
 20
218.2275553302266
 30
0
 40
5.999999999999885
  0
CIRCLE
  8
1
 62
7
 10
-2676.80664886313
 20
88
 30
0
 40
345
  0
CIRCLE
  8
1
 62
7
 10
-2676.80664886313
 20
88
 30
0
 40
342
  0
CIRCLE
  8
1
 62
7
 10
-2676.80664886313
 20
88
 30
0
 40
330
  0
CIRCLE
  8
1
 62
7
 10
-2676.80664886313
 20
88
 30
0
 40
258.5
  0
CIRCLE
  8
1
 62
3
 10
-2676.80664886313
 20
88
 30
0
 40
267.5
  0
CIRCLE
  8
1
 62
7
 10
-2951.80664886313
 20
-332
 30
0
 40
25
  0
CIRCLE
  8
1
 62
7
 10
-2401.806648863129
 20
-332
 30
0
 40
25
  0
CIRCLE
  8
1
 62
7
 10
-2676.806648863129
 20
398
 30
0
 40
9
  0
CIRCLE
  8
1
 62
7
 10
-2716.806648863128
 20
395.4085229787881
 30
0
 40
9.5
  0
CIRCLE
  8
1
 62
7
 10
-2963.209303941629
 20
206.631864033178
 30
0
 40
6.400000000000091
  0
CIRCLE
  8
1
 62
3
 10
-2963.209303941629
 20
206.631864033178
 30
0
 40
7.999999999999091
  0
CIRCLE
  8
1
 62
7
 10
-2896.009751030959
 20
307.2031021678295
 30
0
 40
9
  0
CIRCLE
  8
1
 62
7
 10
-2390.403993784631
 20
-30.631864033178
 30
0
 40
6.400000000000091
  0
CIRCLE
  8
1
 62
3
 10
-2390.403993784631
 20
-30.631864033178
 30
0
 40
8
  0
CIRCLE
  8
1
 62
7
 10
-2457.6035466953
 20
307.2031021678299
 30
0
 40
9
  0
CIRCLE
  8
1
 62
7
 10
-2366.806648863129
 20
88
 30
0
 40
9
  0
CIRCLE
  8
1
 62
7
 10
-2676.806648863129
 20
-222
 30
0
 40
9
  0
CIRCLE
  8
1
 62
7
 10
-2636.80664886313
 20
-219.4085229787881
 30
0
 40
9.5
  0
CIRCLE
  8
1
 62
7
 10
-2896.009751030959
 20
-131.20310216783
 30
0
 40
9
  0
CIRCLE
  8
1
 62
7
 10
-2986.80664886313
 20
88
 30
0
 40
9
  0
ARC
  8
1
 62
7
 10
-1052.102714057711
 20
-326.9999999999999
 30
0
 40
45.00000000000091
 50
0
 51
90
  0
ARC
  8
1
 62
7
 10
-1372.10271405771
 20
-326.9999999999999
 30
0
 40
45
 50
90
 51
180
  0
ARC
  8
1
 62
7
 10
-892.1027140577105
 20
-376.9999999999999
 30
0
 40
25
 50
270
 51
0
  0
ARC
  8
1
 62
7
 10
-982.1027140577104
 20
-376.9999999999999
 30
0
 40
24.99999999999966
 50
180
 51
270
  0
ARC
  8
1
 62
7
 10
-1442.10271405771
 20
-376.9999999999999
 30
0
 40
25
 50
270
 51
0
  0
ARC
  8
1
 62
7
 10
-1532.10271405771
 20
-376.9999999999999
 30
0
 40
25
 50
180
 51
270
  0
ARC
  8
1
 62
7
 10
-1188.10271405771
 20
199.4450537260402
 30
0
 40
5
 50
180
 51
257.8468025309854
  0
ARC
  8
1
 62
7
 10
-1236.10271405771
 20
199.4450537260407
 30
0
 40
4.999999999999917
 50
282.1531974690044
 51
0
  0
ARC
  8
1
 62
7
 10
-1189.548839482103
 20
266
 30
0
 40
3
 50
270
 51
349.7542326391041
  0
ARC
  8
1
 62
7
 10
-1234.656588633317
 20
266
 30
0
 40
3.000000000000173
 50
190.2457673608981
 51
270
  0
ARC
  8
1
 62
7
 10
-1242.127656184173
 20
254
 30
0
 40
4.99999999999977
 50
189.7542326391024
 51
270
  0
ARC
  8
1
 62
7
 10
-1182.077771931248
 20
254
 30
0
 40
5
 50
270
 51
350.2457673608976
  0
ARC
  8
1
 62
7
 10
-1235.10271405771
 20
245
 30
0
 40
4
 50
0
 51
90
  0
ARC
  8
1
 62
7
 10
-1189.10271405771
 20
245
 30
0
 40
4
 50
90
 51
180
  0
ARC
  8
1
 62
7
 10
-1278.346803600951
 20
-4.777802305224242
 30
0
 40
4.999999999999853
 50
330.2457673608971
 51
54.47286126320249
  0
ARC
  8
1
 62
7
 10
-1259.328602989704
 20
-15.75796554762989
 30
0
 40
5.000000000000029
 50
65.52713873679053
 51
149.7542326390994
  0
ARC
  8
1
 62
7
 10
-1236.10271405771
 20
-23.44505372604074
 30
0
 40
5
 50
0
 51
77.84680253099562
  0
ARC
  8
1
 62
7
 10
-1278.346803600952
 20
180.7778023052229
 30
0
 40
5.000000000000264
 50
305.527138736796
 51
29.75423263909765
  0
ARC
  8
1
 62
7
 10
-1259.328602989704
 20
191.7579655476295
 30
0
 40
4.999999999999597
 50
210.2457673609001
 51
294.472861263221
  0
ARC
  8
1
 62
7
 10
-1164.876825125718
 20
191.7579655476296
 30
0
 40
5.000000000000077
 50
245.5271387367879
 51
329.7542326391044
  0
ARC
  8
1
 62
7
 10
-1145.85862451447
 20
180.7778023052235
 30
0
 40
5.00000000000064
 50
150.2457673609023
 51
234.4728612632125
  0
ARC
  8
1
 62
7
 10
-1145.858624514469
 20
-4.777802305222878
 30
0
 40
5.000000000000251
 50
125.5271387367961
 51
209.7542326390977
  0
ARC
  8
1
 62
7
 10
-1164.876825125717
 20
-15.75796554762908
 30
0
 40
5.000000000000404
 50
30.24576736089525
 51
114.4728612631999
  0
ARC
  8
1
 62
7
 10
-1188.10271405771
 20
-23.44505372604023
 30
0
 40
5.000000000000113
 50
102.1531974690146
 51
180
  0
ARC
  8
1
 62
7
 10
-1189.548839482103
 20
-90.00000000000001
 30
0
 40
3.000000000000165
 50
10.24576736089727
 51
90
  0
ARC
  8
1
 62
7
 10
-1234.656588633317
 20
-90.00000000000001
 30
0
 40
3
 50
90
 51
169.7542326391022
  0
ARC
  8
1
 62
7
 10
-1242.127656184173
 20
-78
 30
0
 40
5
 50
90
 51
170.2457673608979
  0
ARC
  8
1
 62
7
 10
-1182.077771931248
 20
-78
 30
0
 40
4.99999999999977
 50
9.754232639102426
 51
90
  0
ARC
  8
1
 62
7
 10
-1235.10271405771
 20
-69
 30
0
 40
4
 50
270
 51
0
  0
ARC
  8
1
 62
7
 10
-1189.10271405771
 20
-69
 30
0
 40
4
 50
180
 51
270
  0
ARC
  8
1
 62
7
 10
-1003.464502777995
 20
252.1960620538775
 30
0
 40
3.000000000000043
 50
130.2457673608988
 51
218.2023707611455
  0
ARC
  8
1
 62
7
 10
-965.5856474778283
 20
186.5879601414399
 30
0
 40
3.000000000000274
 50
201.7976292388583
 51
289.7542326391035
  0
ARC
  8
1
 62
7
 10
-1072.205287181369
 20
313.6522987992332
 30
0
 40
2.999999999999101
 50
150.2457673608892
 51
238.2023707611659
  0
ARC
  8
1
 62
7
 10
-1014.171513952567
 20
264.9561810871209
 30
0
 40
3.000000000000635
 50
221.797629238851
 51
309.7542326390912
  0
ARC
  8
1
 62
7
 10
-1157.819765932155
 20
347.8915380361551
 30
0
 40
3.000000000000274
 50
170.245767360898
 51
258.2023707611147
  0
ARC
  8
1
 62
7
 10
-1086.63080431339
 20
321.9808749986049
 30
0
 40
3.000000000000085
 50
241.7976292388624
 51
329.7542326391096
  0
ARC
  8
1
 62
7
 10
-1249.981569357876
 20
350.7840221953172
 30
0
 40
3.000000000000163
 50
190.245767360897
 51
278.2023707611286
  0
ARC
  8
1
 62
7
 10
-1174.223858757544
 20
350.7840221953172
 30
0
 40
3.000000000000049
 50
261.7976292388674
 51
349.7542326391012
  0
ARC
  8
1
 62
7
 10
-1337.574623802032
 20
321.9808749986048
 30
0
 40
2.999999999999981
 50
210.2457673608953
 51
298.2023707611392
  0
ARC
  8
1
 62
7
 10
-1266.385662183265
 20
347.8915380361551
 30
0
 40
2.999999999999956
 50
281.7976292388466
 51
9.754232639096607
  0
ARC
  8
1
 62
7
 10
-1410.033914162853
 20
264.9561810871207
 30
0
 40
2.999999999999387
 50
230.2457673609063
 51
318.202370761139
  0
ARC
  8
1
 62
7
 10
-1352.000140934053
 20
313.652298799233
 30
0
 40
3.000000000000278
 50
301.7976292388685
 51
29.75423263909165
  0
ARC
  8
1
 62
7
 10
-1458.619780637592
 20
186.5879601414396
 30
0
 40
2.999999999999885
 50
250.245767360895
 51
338.2023707611438
  0
ARC
  8
1
 62
7
 10
-1420.740925337426
 20
252.1960620538773
 30
0
 40
2.999999999999917
 50
321.7976292388545
 51
49.75423263909976
  0
ARC
  8
1
 62
7
 10
-1464.316862288408
 20
170.935356949034
 30
0
 40
3.000000000000092
 50
341.79762923886
 51
69.75423263910467
  0
ARC
  8
1
 62
7
 10
-1464.316862288408
 20
5.064643050965401
 30
0
 40
2.999999999999972
 50
290.2457673608953
 51
18.20237076113557
  0
ARC
  8
1
 62
7
 10
-1420.740925337425
 20
-76.19606205387777
 30
0
 40
2.999999999999651
 50
310.2457673608824
 51
38.20237076115664
  0
ARC
  8
1
 62
7
 10
-1458.619780637592
 20
-10.58796014144019
 30
0
 40
3.000000000000253
 50
21.79762923885719
 51
109.7542326391046
  0
ARC
  8
1
 62
7
 10
-1410.033914162853
 20
-88.9561810871212
 30
0
 40
2.999999999999843
 50
41.79762923886023
 51
129.7542326391077
  0
ARC
  8
1
 62
7
 10
-1352.000140934053
 20
-137.6522987992335
 30
0
 40
3.00000000000013
 50
330.2457673608899
 51
58.20237076113466
  0
ARC
  8
1
 62
7
 10
-1337.574623802032
 20
-145.9808749986053
 30
0
 40
2.99999999999991
 50
61.79762923886062
 51
149.754232639108
  0
ARC
  8
1
 62
7
 10
-1266.385662183265
 20
-171.8915380361555
 30
0
 40
3.000000000000379
 50
350.2457673608863
 51
78.2023707611542
  0
ARC
  8
1
 62
7
 10
-1249.981569357876
 20
-174.7840221953177
 30
0
 40
3.000000000000123
 50
81.79762923885009
 51
169.754232639111
  0
ARC
  8
1
 62
7
 10
-1174.223858757544
 20
-174.7840221953176
 30
0
 40
2.999999999999787
 50
10.24576736088175
 51
98.20237076113187
  0
ARC
  8
1
 62
7
 10
-1157.819765932155
 20
-171.8915380361555
 30
0
 40
2.999999999999956
 50
101.7976292388466
 51
189.7542326391121
  0
ARC
  8
1
 62
7
 10
-1086.630804313388
 20
-145.9808749986053
 30
0
 40
2.99999999999958
 50
30.2457673608822
 51
118.2023707611695
  0
ARC
  8
1
 62
7
 10
-1072.205287181368
 20
-137.6522987992335
 30
0
 40
2.999999999999945
 50
121.7976292388469
 51
209.7542326391121
  0
ARC
  8
1
 62
7
 10
-1014.171513952567
 20
-88.9561810871212
 30
0
 40
2.999999999999633
 50
50.24576736088198
 51
138.2023707611465
  0
ARC
  8
1
 62
7
 10
-1003.464502777994
 20
-76.19606205387777
 30
0
 40
3.000000000000075
 50
141.7976292388507
 51
229.7542326391071
  0
ARC
  8
1
 62
7
 10
-965.5856474778283
 20
-10.58796014144025
 30
0
 40
2.999999999999458
 50
70.2457673608921
 51
158.2023707611387
  0
ARC
  8
1
 62
7
 10
-959.8885658270124
 20
5.064643050965458
 30
0
 40
3.000000000000324
 50
161.7976292388535
 51
249.7542326391097
  0
ARC
  8
1
 62
7
 10
-959.8885658270124
 20
170.9353569490338
 30
0
 40
2.999999999999698
 50
110.2457673608764
 51
198.2023707611318
  0
ARC
  8
1
 62
7
 10
-1958.968886278958
 20
-250.0000000000001
 30
0
 40
3.999999999999906
 50
185.5872439642045
 51
270
  0
ARC
  8
1
 62
7
 10
-1976.131413699434
 20
-167.0000000000001
 30
0
 40
4.999999999999317
 50
5.587243964205221
 51
90
  0
ARC
  8
1
 62
7
 10
-1976.131413699434
 20
343.0000000000001
 30
0
 40
5
 50
270
 51
354.4127560357948
  0
ARC
  8
1
 62
7
 10
-1958.968886278958
 20
426.0000000000001
 30
0
 40
4
 50
90
 51
174.4127560357959
  0
ARC
  8
1
 62
7
 10
-1887.396149433151
 20
-250.0000000000001
 30
0
 40
4
 50
270
 51
339.973910905881
  0
ARC
  8
1
 62
7
 10
-1887.396149433151
 20
426.0000000000001
 30
0
 40
3.999999999999536
 50
20.02608909411902
 51
90
  0
ARC
  8
1
 62
7
 10
-2019.59667624361
 20
380.7958790152084
 30
0
 40
4
 50
180
 51
249.9047688080997
  0
ARC
  8
1
 62
7
 10
-1986.59667624361
 20
360.2041209847916
 30
0
 40
4
 50
0
 51
69.90476880809665
  0
ARC
  8
1
 62
7
 10
-2019.59667624361
 20
-204.7958790152084
 30
0
 40
3.999999999999916
 50
110.0952311919005
 51
180
  0
ARC
  8
1
 62
7
 10
-1986.59667624361
 20
-184.2041209847916
 30
0
 40
3.999999999999994
 50
290.0952311919035
 51
0
  0
ARC
  8
1
 62
7
 10
-2093.59667624361
 20
177.6206813241698
 30
0
 40
4.000000000000147
 50
290.0000000000027
 51
0
  0
ARC
  8
1
 62
7
 10
-2093.59667624361
 20
-1.620681324169766
 30
0
 40
4
 50
0
 51
69.99999999999686
  0
ARC
  8
1
 62
7
 10
-2898.13020252655
 20
178.2046816622874
 30
0
 40
5.000000000000559
 50
157.8257002251907
 51
250.347000666659
  0
ARC
  8
1
 62
7
 10
-2904.332778986575
 20
161.1632428959295
 30
0
 40
4.999999999999962
 50
69.65299933333505
 51
162.1742997748108
  0
ARC
  8
1
 62
7
 10
-2853.930940895979
 20
248.4617872637032
 30
0
 40
5.000000000000038
 50
137.8257002251901
 51
230.34700066667
  0
ARC
  8
1
 62
7
 10
-2865.587971554669
 20
234.5694790972278
 30
0
 40
4.999999999999507
 50
49.6529993333416
 51
142.1742997748174
  0
ARC
  8
1
 62
7
 10
-2788.367875570102
 20
299.3648331573533
 30
0
 40
4.999999999999641
 50
117.8257002251881
 51
210.3470006666659
  0
ARC
  8
1
 62
7
 10
-2804.073350490571
 20
290.2972729842696
 30
0
 40
5.000000000000247
 50
29.65299933333368
 51
122.1742997748099
  0
ARC
  8
1
 62
7
 10
-2709.348879835012
 20
324.774160759516
 30
0
 40
4.999999999999776
 50
97.825700225182
 51
190.3470006666668
  0
ARC
  8
1
 62
7
 10
-2727.208486953727
 20
321.6250301596335
 30
0
 40
4.999999999999903
 50
9.652999333339061
 51
102.1742997748073
  0
ARC
  8
1
 62
7
 10
-2727.208486953723
 20
-145.6250301596306
 30
0
 40
4.999999999999422
 50
257.8257002251806
 51
350.3470006666695
  0
ARC
  8
1
 62
7
 10
-2709.348879835009
 20
-148.7741607595131
 30
0
 40
4.999999999998835
 50
169.6529993333396
 51
262.1742997748131
  0
ARC
  8
1
 62
7
 10
-2804.073350490568
 20
-114.2972729842679
 30
0
 40
4.99999999999881
 50
237.8257002251953
 51
330.3470006666693
  0
ARC
  8
1
 62
7
 10
-2788.367875570099
 20
-123.3648331573513
 30
0
 40
4.999999999999475
 50
149.6529993333441
 51
242.1742997748094
  0
ARC
  8
1
 62
7
 10
-2865.587971554667
 20
-58.56947909722726
 30
0
 40
4.999999999998369
 50
217.8257002251934
 51
310.3470006666682
  0
ARC
  8
1
 62
7
 10
-2853.930940895977
 20
-72.46178726370226
 30
0
 40
4.999999999998813
 50
129.6529993333375
 51
222.1742997748137
  0
ARC
  8
1
 62
7
 10
-2904.332778986573
 20
14.83675710407033
 30
0
 40
4.999999999999227
 50
197.8257002251868
 51
290.3470006666588
  0
ARC
  8
1
 62
7
 10
-2898.13020252655
 20
-2.20468166228693
 30
0
 40
4.999999999998326
 50
109.6529993333214
 51
202.1742997748155
  0
ARC
  8
1
 62
7
 10
-2915.634577197541
 20
97.06756017308317
 30
0
 40
4.99999999999866
 50
177.8257002251889
 51
270.3470006666688
  0
ARC
  8
1
 62
7
 10
-2915.634577197541
 20
78.93243982691661
 30
0
 40
4.999999999998716
 50
89.65299933333122
 51
182.1742997748133
  0
ARC
  8
1
 62
7
 10
-2712.893312860575
 20
170.448485016618
 30
0
 40
5.000000000000084
 50
210.3470006666678
 51
293.6383898999477
  0
ARC
  8
1
 62
7
 10
-2730.165799392339
 20
160.4762102679304
 30
0
 40
5.000000000000315
 50
306.3616101000586
 51
29.65299933332683
  0
ARC
  8
1
 62
7
 10
-2757.447501895183
 20
127.9631432980794
 30
0
 40
4.999999999999989
 50
250.3470006666688
 51
333.6383898999462
  0
ARC
  8
1
 62
7
 10
-2764.26893957284
 20
109.2213973104959
 30
0
 40
4.999999999999489
 50
346.3616101000517
 51
69.65299933334477
  0
ARC
  8
1
 62
7
 10
-2455.483095199709
 20
178.2046816622874
 30
0
 40
5.000000000000296
 50
289.652999333341
 51
22.17429977481325
  0
ARC
  8
1
 62
7
 10
-2449.280518739684
 20
161.1632428959295
 30
0
 40
4.999999999999342
 50
17.82570022519083
 51
110.3470006666796
  0
ARC
  8
1
 62
7
 10
-2499.682356830281
 20
248.4617872637032
 30
0
 40
5.000000000000473
 50
309.652999333342
 51
42.17429977480991
  0
ARC
  8
1
 62
7
 10
-2488.02532617159
 20
234.5694790972278
 30
0
 40
5.000000000000515
 50
37.82570022518255
 51
130.3470006666663
  0
ARC
  8
1
 62
7
 10
-2565.245422156158
 20
299.3648331573533
 30
0
 40
5.000000000000769
 50
329.6529993333394
 51
62.17429977479814
  0
ARC
  8
1
 62
7
 10
-2549.539947235689
 20
290.2972729842696
 30
0
 40
4.999999999999799
 50
57.8257002251901
 51
150.3470006666586
  0
ARC
  8
1
 62
7
 10
-2644.264417891247
 20
324.774160759516
 30
0
 40
4.999999999998967
 50
349.6529993333313
 51
82.17429977480249
  0
ARC
  8
1
 62
7
 10
-2626.404810772533
 20
321.6250301596335
 30
0
 40
5.0000000000002
 50
77.8257002251825
 51
170.347000666661
  0
ARC
  8
1
 62
7
 10
-2626.404810772537
 20
-145.6250301596306
 30
0
 40
4.99999999999843
 50
189.652999333333
 51
282.1742997748195
  0
ARC
  8
1
 62
7
 10
-2644.264417891251
 20
-148.7741607595131
 30
0
 40
5.000000000000006
 50
277.8257002251869
 51
10.34700066666037
  0
ARC
  8
1
 62
7
 10
-2549.539947235692
 20
-114.2972729842679
 30
0
 40
4.999999999998787
 50
209.6529993333359
 51
302.1742997748136
  0
ARC
  8
1
 62
7
 10
-2565.245422156161
 20
-123.3648331573513
 30
0
 40
5.000000000000193
 50
297.8257002251906
 51
30.34700066665587
  0
ARC
  8
1
 62
7
 10
-2488.025326171593
 20
-58.56947909722726
 30
0
 40
4.999999999999194
 50
229.6529993333318
 51
322.1742997748162
  0
ARC
  8
1
 62
7
 10
-2499.682356830283
 20
-72.46178726370226
 30
0
 40
4.99999999999972
 50
317.8257002251864
 51
50.34700066666255
  0
ARC
  8
1
 62
7
 10
-2449.280518739686
 20
14.83675710407033
 30
0
 40
4.999999999999109
 50
249.6529993333314
 51
342.17429977481
  0
ARC
  8
1
 62
7
 10
-2455.48309519971
 20
-2.20468166228693
 30
0
 40
4.999999999999726
 50
337.8257002251864
 51
70.34700066666387
  0
ARC
  8
1
 62
7
 10
-2437.978720528718
 20
97.06756017308317
 30
0
 40
4.999999999999176
 50
269.6529993333208
 51
2.174299774810467
  0
ARC
  8
1
 62
7
 10
-2437.978720528718
 20
78.93243982691661
 30
0
 40
5.000000000000941
 50
357.8257002251873
 51
90.34700066666879
  0
ARC
  8
1
 62
7
 10
-2640.719984865685
 20
170.448485016618
 30
0
 40
5.000000000000152
 50
246.3616101000523
 51
329.6529993333322
  0
ARC
  8
1
 62
7
 10
-2623.447498333921
 20
160.4762102679304
 30
0
 40
5.000000000000163
 50
150.347000666668
 51
233.6383898999456
  0
ARC
  8
1
 62
7
 10
-2596.165795831077
 20
127.9631432980794
 30
0
 40
5.000000000000245
 50
206.3616101000538
 51
289.6529993333313
  0
ARC
  8
1
 62
7
 10
-2589.34435815342
 20
66.77860268950489
 30
0
 40
5.000000000000366
 50
166.3616101000545
 51
249.6529993333349
  0
ARC
  8
1
 62
7
 10
-2596.165795831078
 20
48.03685670192152
 30
0
 40
4.99999999999979
 50
70.34700066667351
 51
153.6383898999482
  0
ARC
  8
1
 62
7
 10
-2623.447498333923
 20
15.52378973207127
 30
0
 40
5.000000000000391
 50
126.3616101000579
 51
209.6529993333319
  0
ARC
  8
1
 62
7
 10
-2640.719984865686
 20
5.551514983382404
 30
0
 40
5.000000000000012
 50
30.34700066666641
 51
113.638389899948
  0
ARC
  8
1
 62
7
 10
-2759.236245169078
 20
-36.12236564309607
 30
0
 40
5.000000000000073
 50
236.4118846800489
 51
330.3470006666655
  0
ARC
  8
1
 62
7
 10
-2743.084972534894
 20
-45.4473072461967
 30
0
 40
5.000000000000012
 50
149.6529993333336
 51
243.5881153199521
  0
ARC
  8
1
 62
7
 10
-2813.357066055015
 20
28.37631708186602
 30
0
 40
4.999999999999929
 50
109.6529993333314
 51
203.5881153199509
  0
ARC
  8
1
 62
7
 10
-2819.81711939414
 20
46.17888908100445
 30
0
 40
5.000000000000458
 50
196.3007096490587
 51
290.3470006666554
  0
ARC
  8
1
 62
7
 10
-2757.576006641034
 20
48.29721868502223
 30
0
 40
5.000000000000064
 50
26.17676888382139
 51
109.6529993333314
  0
ARC
  8
1
 62
7
 10
-2764.268939572841
 20
66.77860268950427
 30
0
 40
5.000000000000094
 50
290.3470006666699
 51
13.63838989994764
  0
ARC
  8
1
 62
7
 10
-2729.931707507728
 20
15.35202587815677
 30
0
 40
4.999999999999771
 50
330.3470006666654
 51
53.82323111618254
  0
ARC
  8
1
 62
7
 10
-2713.159110663818
 20
5.668362575316863
 30
0
 40
4.999999999999809
 50
66.17676888382842
 51
149.652999333339
  0
ARC
  8
1
 62
7
 10
-2819.817119394141
 20
129.8211109189958
 30
0
 40
5.00000000000012
 50
69.65299933333016
 51
163.6992903509375
  0
ARC
  8
1
 62
7
 10
-2813.241117043297
 20
147.8885288882169
 30
0
 40
5.000000000000181
 50
156.3007096490613
 51
250.347000666659
  0
ARC
  8
1
 62
7
 10
-2759.476933199184
 20
211.9621881373344
 30
0
 40
4.999999999999726
 50
29.65299933333371
 51
123.699290350944
  0
ARC
  8
1
 62
7
 10
-2742.82591073074
 20
221.5756604417733
 30
0
 40
4.999999999999721
 50
116.3007096490551
 51
210.3470006666676
  0
ARC
  8
1
 62
7
 10
-2610.78738699552
 20
221.5756604417733
 30
0
 40
5.00000000000007
 50
329.6529993333325
 51
63.69929035093084
  0
ARC
  8
1
 62
7
 10
-2594.136364527076
 20
211.9621881373347
 30
0
 40
5.000000000000064
 50
56.30070964906104
 51
150.3470006666677
  0
ARC
  8
1
 62
7
 10
-2540.372180682962
 20
147.8885288882168
 30
0
 40
4.999999999999989
 50
289.6529993333313
 51
23.69929035093991
  0
ARC
  8
1
 62
7
 10
-2533.877595944053
 20
130.0985252907474
 30
0
 40
4.999999999999881
 50
16.41188468005195
 51
110.347000666665
  0
ARC
  8
1
 62
7
 10
-2589.413275263716
 20
109.5034474192693
 30
0
 40
4.999999999999949
 50
110.347000666665
 51
193.8232311161817
  0
ARC
  8
1
 62
7
 10
-2533.796178332119
 20
46.17888908100444
 30
0
 40
5.000000000000086
 50
249.65299933333
 51
343.6992903509382
  0
ARC
  8
1
 62
7
 10
-2540.372180682962
 20
28.11147111178305
 30
0
 40
4.99999999999936
 50
336.3007096490568
 51
70.34700066666865
  0
ARC
  8
1
 62
7
 10
-2516.411962145391
 20
136.2679445669552
 30
0
 40
4.999999999999855
 50
110.3470006666654
 51
196.7482387864518
  0
ARC
  8
1
 62
7
 10
-2522.911153684522
 20
154.1243265654262
 30
0
 40
4.999999999998998
 50
203.2517612135549
 51
289.652999333341
  0
ARC
  8
1
 62
7
 10
-2554.808039320819
 20
202.7719010461308
 30
0
 40
4.999999999999809
 50
223.2517612135505
 51
309.6529993333363
  0
ARC
  8
1
 62
7
 10
-2542.593554660029
 20
188.2152450699477
 30
0
 40
4.999999999999715
 50
130.3470006666632
 51
216.7482387864492
  0
ARC
  8
1
 62
7
 10
-2584.963227109872
 20
228.0751079980072
 30
0
 40
4.999999999999767
 50
150.3470006666654
 51
236.7482387864511
  0
ARC
  8
1
 62
7
 10
-2601.419757775636
 20
237.5762904078135
 30
0
 40
5.000000000000215
 50
243.2517612135473
 51
329.6529993333334
  0
ARC
  8
1
 62
7
 10
-2638.410571687702
 20
251.0398456130856
 30
0
 40
4.999999999999827
 50
170.3470006666661
 51
256.7482387864431
  0
ARC
  8
1
 62
7
 10
-2657.124247887623
 20
254.3395716353733
 30
0
 40
4.999999999999952
 50
263.2517612135475
 51
349.6529993333326
  0
ARC
  8
1
 62
7
 10
-2696.489049838637
 20
254.3395716353733
 30
0
 40
4.999999999999872
 50
190.3470006666675
 51
276.7482387864525
  0
ARC
  8
1
 62
7
 10
-2715.202726038558
 20
251.0398456130855
 30
0
 40
5.000000000000182
 50
283.2517612135569
 51
9.652999333332177
  0
ARC
  8
1
 62
7
 10
-2752.193539950623
 20
237.5762904078135
 30
0
 40
5.000000000000027
 50
210.3470006666667
 51
296.7482387864434
  0
ARC
  8
1
 62
7
 10
-2768.650070616387
 20
228.0751079980072
 30
0
 40
4.999999999999631
 50
303.2517612135453
 51
29.65299933333456
  0
ARC
  8
1
 62
7
 10
-2798.805258405441
 20
202.7719010461308
 30
0
 40
5.000000000000067
 50
230.3470006666677
 51
316.7482387864459
  0
ARC
  8
1
 62
7
 10
-2811.019743066231
 20
188.2152450699476
 30
0
 40
5.000000000000084
 50
323.25176121355
 51
49.65299933332906
  0
ARC
  8
1
 62
7
 10
-2830.702144041738
 20
154.1243265654262
 30
0
 40
4.999999999999989
 50
250.3470006666688
 51
336.7482387864493
  0
ARC
  8
1
 62
7
 10
-2837.201335580869
 20
136.267944566955
 30
0
 40
5.000000000000012
 50
343.2517612135494
 51
69.65299933333493
  0
ARC
  8
1
 62
7
 10
-2844.036961703881
 20
97.50118240980633
 30
0
 40
4.999999999999993
 50
270.3470006666635
 51
356.7482387864499
  0
ARC
  8
1
 62
7
 10
-2844.036961703881
 20
78.4988175901938
 30
0
 40
4.999999999999767
 50
3.251761213550112
 51
89.65299933333652
  0
ARC
  8
1
 62
7
 10
-2830.702144041738
 20
21.87567343457354
 30
0
 40
4.99999999999979
 50
23.25176121354956
 51
109.6529993333314
  0
ARC
  8
1
 62
7
 10
-2837.201335580869
 20
39.73205543304513
 30
0
 40
4.999999999999928
 50
290.3470006666651
 51
16.74823878645029
  0
ARC
  8
1
 62
7
 10
-2811.019743066231
 20
-12.21524506994783
 30
0
 40
5.000000000000304
 50
310.3470006666711
 51
36.7482387864499
  0
ARC
  8
1
 62
7
 10
-2798.80525840544
 20
-26.77190104613194
 30
0
 40
4.999999999999544
 50
43.2517612135549
 51
129.652999333329
  0
ARC
  8
1
 62
7
 10
-2768.650070616387
 20
-52.07510799800788
 30
0
 40
5.000000000000946
 50
330.3470006666734
 51
56.74823878644656
  0
ARC
  8
1
 62
7
 10
-2752.193539950622
 20
-61.57629040781401
 30
0
 40
5.000000000000057
 50
63.25176121354634
 51
149.6529993333337
  0
ARC
  8
1
 62
7
 10
-2715.202726038555
 20
-75.03984561308606
 30
0
 40
4.999999999999364
 50
350.3470006666662
 51
76.74823878645852
  0
ARC
  8
1
 62
7
 10
-2696.489049838634
 20
-78.33957163537374
 30
0
 40
5.000000000000066
 50
83.25176121354767
 51
169.6529993333325
  0
ARC
  8
1
 62
7
 10
-2610.787386995521
 20
-45.57566044177389
 30
0
 40
4.999999999999849
 50
296.3007096490545
 51
30.34700066666635
  0
ARC
  8
1
 62
7
 10
-2594.136364527077
 20
-35.96218813733499
 30
0
 40
4.999999999999758
 50
209.6529993333344
 51
303.6992903509438
  0
ARC
  8
1
 62
7
 10
-2601.419757775638
 20
-61.57629040781397
 30
0
 40
5.000000000000016
 50
30.34700066666649
 51
116.7482387864444
  0
ARC
  8
1
 62
7
 10
-2584.963227109873
 20
-52.07510799800784
 30
0
 40
5.000000000000227
 50
123.2517612135533
 51
209.6529993333345
  0
ARC
  8
1
 62
7
 10
-2638.410571687704
 20
-75.0398456130861
 30
0
 40
5.000000000000238
 50
103.2517612135567
 51
189.6529993333313
  0
ARC
  8
1
 62
7
 10
-2657.124247887626
 20
-78.33957163537372
 30
0
 40
4.999999999999872
 50
10.34700066666747
 51
96.74823878644202
  0
ARC
  8
1
 62
7
 10
-2554.808039320819
 20
-26.77190104613203
 30
0
 40
4.9999999999997
 50
50.34700066667097
 51
136.7482387864542
  0
ARC
  8
1
 62
7
 10
-2542.593554660029
 20
-12.21524506994795
 30
0
 40
5.000000000000183
 50
143.2517612135485
 51
229.6529993333369
  0
ARC
  8
1
 62
7
 10
-2522.911153684522
 20
21.87567343457359
 30
0
 40
4.999999999999933
 50
70.34700066666856
 51
156.7482387864503
  0
ARC
  8
1
 62
7
 10
-2516.411962145392
 20
39.73205543304517
 30
0
 40
4.999999999999104
 50
163.2517612135478
 51
249.6529993333446
  0
ARC
  8
1
 62
7
 10
-2509.576336022378
 20
78.4988175901938
 30
0
 40
4.999999999999993
 50
90.34700066666349
 51
176.7482387864496
  0
ARC
  8
1
 62
7
 10
-2509.576336022378
 20
97.50118240980632
 30
0
 40
4.999999999999313
 50
183.2517612135503
 51
269.6529993333365
  0
ARC
  8
1
 62
7
 10
-2996.80664886313
 20
-376.9999999999998
 30
0
 40
25
 50
180
 51
270
  0
ARC
  8
1
 62
7
 10
-2356.80664886313
 20
-376.9999999999998
 30
0
 40
25
 50
270
 51
0
  0
ARC
  8
1
 62
7
 10
-2906.806648863129
 20
-376.9999999999998
 30
0
 40
25
 50
270
 51
0
  0
ARC
  8
1
 62
7
 10
-2446.80664886313
 20
-376.9999999999998
 30
0
 40
25
 50
180
 51
270
  0
ARC
  8
1
 62
7
 10
-2831.806648863129
 20
-331.9999999999998
 30
0
 40
50
 50
90
 51
180
  0
ARC
  8
1
 62
7
 10
-2521.80664886313
 20
-331.9999999999998
 30
0
 40
50
 50
0
 51
90
  0
TEXT
  8
1
 62
7
 10
-2984.03131127002
 20
511.4152882239421
 30
0
 40
30
  1
ACSB 800
 41
0.9
  7
SIMPLEX
  0
ENDSEC
  0
EOF
