  0
SECTION
  2
HEADER
  9
$ACADVER
  1
AC1009
  9
$INSBASE
 10
0
 20
0
  9
$EXTMIN
 10
-87.24051657555398
 20
-35.00000000000001
  9
$EXTMAX
 10
179.0515702749698
 20
88.82194244604321
  9
$LIMMIN
 10
-87.24051657555398
 20
-35.00000000000001
  9
$LIMMAX
 10
179.0515702749698
 20
88.82194244604321
  9
$VIEWCTR
 10
10
 20
10
  9
$VIEWSIZE
 40
10
  9
$SNAPMODE
 70
0
  9
$SNAPUNIT
 10
1
 20
1
  9
$SNAPBASE
 10
0
 20
0
  9
$SNAPANG
 50
0
  9
$SNAPSTYLE
 70
0
  9
$SNAPISOPAIR
 70
0
  9
$GRIDMODE
 70
0
  9
$GRIDUNIT
 10
0
 20
0
  9
$ORTHOMODE
 70
0
  9
$REGENMODE
 70
1
  9
$FILLMODE
 70
1
  9
$QTEXTMODE
 70
0
  9
$DRAGMODE
 70
2
  9
$LTSCALE
 40
1
  9
$OSMODE
 70
0
  9
$ATTMODE
 70
1
  9
$TEXTSIZE
 40
3.5
  9
$TRACEWID
 40
0.5
  9
$TEXTSTYLE
  7
STANDARD
  9
$CLAYER
  8
0
  9
$CELTYPE
  6
BYLAYER
  9
$CECOLOR
 62
256
  9
$DIMSCALE
 40
1
  9
$DIMASZ
 40
0.18
  9
$DIMEXO
 40
0.0625
  9
$DIMDLI
 40
0.38
  9
$DIMRND
 40
0
  9
$DIMDLE
 40
0
  9
$DIMEXE
 40
0.18
  9
$DIMTP
 40
0
  9
$DIMTM
 40
0
  9
$DIMTXT
 40
0.18
  9
$DIMCEN
 40
0.09
  9
$DIMTSZ
 40
0
  9
$DIMTOL
 70
0
  9
$DIMLIM
 70
0
  9
$DIMTIH
 70
1
  9
$DIMTOH
 70
1
  9
$DIMSE1
 70
0
  9
$DIMSE2
 70
0
  9
$DIMTAD
 70
0
  9
$DIMZIN
 70
0
  9
$DIMBLK
  1

  9
$DIMASO
 70
1
  9
$DIMSHO
 70
1
  9
$DIMPOST
  1

  9
$DIMAPOST
  1

  9
$DIMALT
 70
0
  9
$DIMALTD
 70
2
  9
$DIMALTF
 40
25.4
  9
$DIMLFAC
 40
1
  9
$DIMTOFL
 70
0
  9
$DIMTVP
 40
0
  9
$DIMTIX
 70
0
  9
$DIMSOXD
 70
0
  9
$DIMSAH
 70
0
  9
$DIMBLK1
  1

  9
$DIMBLK2
  1

  9
$DIMSTYLE
  2
*UNNAMED
  9
$DIMCLRD
 70
0
  9
$DIMCLRE
 70
0
  9
$DIMCLRT
 70
0
  9
$DIMTFAC
 40
1
  9
$DIMGAP
 40
0.09
  9
$LUNITS
 70
2
  9
$LUPREC
 70
4
  9
$AXISMODE
 70
0
  9
$AXISUNIT
 10
0
 20
0
  9
$SKETCHINC
 40
0.1
  9
$FILLETRAD
 40
2
  9
$AUNITS
 70
0
  9
$AUPREC
 70
0
  9
$MENU
  1
ACAD
  9
$ELEVATION
 40
0
  9
$THICKNESS
 40
0
  9
$VIEWDIR
 10
0
 20
0
 30
1
  9
$LIMCHECK
 70
0
  9
$BLIPMODE
 70
1
  9
$CHAMFERA
 40
0
  9
$CHAMFERB
 40
0
  9
$FASTZOOM
 70
1
  9
$SKPOLY
 70
0
  9
$ANGBASE
 50
0
  9
$ANGDIR
 70
0
  9
$PDMODE
 70
0
  9
$PDSIZE
 40
0
  9
$PLINEWID
 40
0
  9
$COORDS
 70
2
  0
ENDSEC
  0
SECTION
  2
TABLES
  0
TABLE
  2
DIMSTYLE
 70
0
  0
ENDTAB
  0
TABLE
  2
LTYPE
 70
9
  0
LTYPE
  2
CONTINUOUS
 70
64
  3
Solid line
 72
65
 73
0
 40
0
  0
LTYPE
  2
BORDER
 70
64
  3
__ __ . __ __ .
 72
65
 73
6
 40
12.26345136811623
 49
3.503843248033208
 49
-1.751921624016604
 49
3.503843248033208
 49
-1.751921624016604
 49
0
 49
-1.751921624016604
  0
LTYPE
  2
CENTER
 70
64
  3
____ _ ____ _
 72
65
 73
4
 40
14.01537299213283
 49
8.759608120083019
 49
-1.751921624016604
 49
1.751921624016604
 49
-1.751921624016604
  0
LTYPE
  2
DASHDOT
 70
64
  3
__ . __ . __ .
 72
65
 73
4
 40
7.007686496066415
 49
3.503843248033208
 49
-1.751921624016604
 49
0
 49
-1.751921624016604
  0
LTYPE
  2
DASHED
 70
64
  3
__ __ __ __ __
 72
65
 73
2
 40
5.255764872049811
 49
3.503843248033208
 49
-1.751921624016604
  0
LTYPE
  2
DIVIDE
 70
64
  3
__ . . __ . . 
 72
65
 73
6
 40
8.759608120083019
 49
3.503843248033208
 49
-1.751921624016604
 49
0
 49
-1.751921624016604
 49
0
 49
-1.751921624016604
  0
LTYPE
  2
DOT
 70
64
  3
..............
 72
65
 73
4
 40
3.503843248033208
 49
0
 49
-1.751921624016604
 49
0
 49
-1.751921624016604
  0
LTYPE
  2
HIDDEN
 70
64
  3
_ _ _ _ _ _ _
 72
65
 73
2
 40
2.627882436024906
 49
1.751921624016604
 49
-0.8759608120083019
  0
LTYPE
  2
PHANTOM
 70
64
  3
_____ _ _ _____ _ _ 
 72
65
 73
6
 40
17.51921624016604
 49
8.759608120083019
 49
-1.751921624016604
 49
1.751921624016604
 49
-1.751921624016604
 49
1.751921624016604
 49
-1.751921624016604
  0
ENDTAB
  0
TABLE
  2
LAYER
 70
3
  0
LAYER
  2
1
 70
0
 62
7
  6
CONTINUOUS
  0
LAYER
  2
0
 70
0
 62
7
  6
CONTINUOUS
  0
ENDTAB
  0
TABLE
  2
STYLE
 70
4
  0
STYLE
  2
STANDARD
 70
0
 40
0
 41
1
 50
0
 71
0
 42
3.5
  3
txt
  4

  0
STYLE
  2
SIMPLEX
 70
0
 40
0
 41
1
 50
0
 71
0
 42
3.5
  3
simplex
  4

  0
STYLE
  2
COMPLEX
 70
0
 40
0
 41
1
 50
0
 71
0
 42
3.5
  3
complex
  4

  0
STYLE
  2
ITALIC
 70
0
 40
0
 41
1
 50
0
 71
0
 42
3.5
  3
italic
  4

  0
ENDTAB
  0
TABLE
  2
VIEW
 70
0
  0
ENDTAB
  0
ENDSEC
  0
SECTION
  2
BLOCKS
  0
ENDSEC
  0
SECTION
  2
ENTITIES
  0
LINE
  8
1
 62
7
 10
-59.24979668614981
 20
32.34091478547586
 30
0
 11
-64.85414295637021
 21
53.25661980914753
 31
0
  0
LINE
  8
1
 62
7
 10
-60.78241936172318
 20
31.87881519129749
 30
0
 11
-66.39962427843271
 21
52.84250933698342
 31
0
  0
LINE
  8
1
 62
7
 10
-62.31785676454624
 20
31.42722030222506
 30
0
 11
-67.94510560049521
 21
52.42839886481941
 31
0
  0
LINE
  8
1
 62
7
 10
-68.0907595332241
 20
54.51746806414814
 30
0
 11
-67.55873526997961
 21
52.53192648286042
 31
0
  0
LINE
  8
1
 62
7
 10
-67.70438920270853
 20
54.62099568218914
 30
0
 11
-67.172364939464
 21
52.63545410090142
 31
0
  0
LINE
  8
1
 62
7
 10
-67.31801887219281
 20
54.72452330023014
 30
0
 11
-66.78599460894843
 21
52.73898171894242
 31
0
  0
LINE
  8
1
 62
7
 10
-66.01325394791711
 20
52.94603695502453
 30
0
 11
-66.5452782111616
 21
54.93157853631223
 31
0
  0
LINE
  8
1
 62
7
 10
-65.6268836174015
 20
53.04956457306552
 30
0
 11
-66.15890788064603
 21
55.03510615435323
 31
0
  0
LINE
  8
1
 62
7
 10
-65.24051328688582
 20
53.15309219110653
 30
0
 11
-65.77253755013031
 21
55.13863377239422
 31
0
  0
LINE
  8
1
 62
7
 10
-67.94510560049521
 20
52.42839886481941
 30
0
 11
-64.85414295637021
 21
53.25661980914753
 31
0
  0
LINE
  8
1
 62
7
 10
78.71656947452451
 20
-15.00000000000001
 30
0
 11
78.71656947452451
 21
14.99999999999999
 31
0
  0
LINE
  8
1
 62
7
 10
-57.2405165755541
 20
45.99999999999999
 30
0
 11
-47.2405165755541
 21
45.99999999999999
 31
0
  0
LINE
  8
1
 62
7
 10
-59.24051657555401
 20
32.7273659703602
 30
0
 11
-59.24051657555401
 21
32.72613634390714
 31
0
  0
LINE
  8
1
 62
7
 10
-45.240516575554
 20
32.7273659703602
 30
0
 11
-45.240516575554
 21
32.72613634390714
 31
0
  0
LINE
  8
1
 62
7
 10
-59.2405165755541
 20
43.99999999999999
 30
0
 11
-59.24051657555401
 21
32.7273659703602
 31
0
  0
LINE
  8
1
 62
7
 10
-45.240516575554
 20
32.7273659703602
 30
0
 11
-45.240516575554
 21
43.99999999999999
 31
0
  0
LINE
  8
1
 62
7
 10
1
 20
45.99999999999999
 30
0
 11
1
 21
-28
 31
0
  0
LINE
  8
1
 62
7
 10
2.600000000000001
 20
45.99999999999999
 30
0
 11
2.600000000000001
 21
-29.24165738677395
 31
0
  0
LINE
  8
1
 62
7
 10
13.69999999999999
 20
34.99999999999999
 30
0
 11
13.69999999999999
 21
-35.00000000000001
 31
0
  0
LINE
  8
1
 62
7
 10
7.800000000000011
 20
49.55889681073725
 30
0
 11
9.400000000000006
 21
49.55889681073725
 31
0
  0
LINE
  8
1
 62
7
 10
8.876562246860857
 20
51.73980610126915
 30
0
 11
8.876562246860857
 21
49.55889681073725
 31
0
  0
LINE
  8
1
 62
7
 10
9.106183497797616
 20
51.73980610126915
 30
0
 11
9.106183497797616
 21
49.55889681073725
 31
0
  0
LINE
  8
1
 62
7
 10
8.417319744987339
 20
51.73980610126915
 30
0
 11
8.417319744987339
 21
49.55889681073725
 31
0
  0
LINE
  8
1
 62
7
 10
8.122092422354321
 20
51.73980610126915
 30
0
 11
8.122092422354356
 21
49.55889681073725
 31
0
  0
LINE
  8
1
 62
7
 10
27.8
 20
32.74999999999999
 30
0
 11
27.4
 21
32.74999999999999
 31
0
  0
LINE
  8
1
 62
7
 10
27.4
 20
-33.50000000000001
 30
0
 11
27.4
 21
33.49999999999999
 31
0
  0
LINE
  8
1
 62
7
 10
29.5
 20
-19.5
 30
0
 11
28.20000000000001
 21
-19.5
 31
0
  0
LINE
  8
1
 62
7
 10
29.5
 20
-26.5
 30
0
 11
28.20000000000001
 21
-26.5
 31
0
  0
LINE
  8
1
 62
7
 10
28.20000000000001
 20
23.10352761804102
 30
0
 11
28.20000000000001
 21
-32.75
 31
0
  0
LINE
  8
1
 62
7
 10
67.41656947452449
 20
-19.50000000000001
 30
0
 11
67.41656947452449
 21
-14.51527951130223
 31
0
  0
LINE
  8
1
 62
7
 10
56.11656947452448
 20
-9.000000000000007
 30
0
 11
56.11656947452448
 21
-11.93938040343796
 31
0
  0
LINE
  8
1
 62
7
 10
55.7165694745245
 20
-28
 30
0
 11
55.7165694745245
 21
-14.51527951130223
 31
0
  0
LINE
  8
1
 62
7
 10
57.3165694745245
 20
-9.000000000000007
 30
0
 11
57.3165694745245
 21
-29.24165738677394
 31
0
  0
LINE
  8
1
 62
7
 10
66.3165694745245
 20
-10.00000000000001
 30
0
 11
57.3165694745245
 21
-10.00000000000001
 31
0
  0
LINE
  8
1
 62
7
 10
66.3165694745245
 20
-19.50000000000001
 30
0
 11
66.3165694745245
 21
-10.00000000000001
 31
0
  0
LINE
  8
1
 62
7
 10
54.7165694745245
 20
-6
 30
0
 11
78.71656947452451
 21
-6
 31
0
  0
LINE
  8
1
 62
7
 10
62.5165694745245
 20
32.87955227433428
 30
0
 11
62.5165694745245
 21
49.55889681073725
 31
0
  0
LINE
  8
1
 62
7
 10
55.7165694745245
 20
45.99999999999999
 30
0
 11
55.7165694745245
 21
14.51527951130223
 31
0
  0
LINE
  8
1
 62
7
 10
57.3165694745245
 20
9
 30
0
 11
57.3165694745245
 21
45.99999999999999
 31
0
  0
LINE
  8
1
 62
7
 10
66.3165694745245
 20
10
 30
0
 11
57.3165694745245
 21
10
 31
0
  0
LINE
  8
1
 62
7
 10
66.3165694745245
 20
19.49999999999999
 30
0
 11
66.3165694745245
 21
10
 31
0
  0
LINE
  8
1
 62
3
 10
83.55579995906579
 20
-21.5
 30
0
 11
83.55579995906579
 21
-24.5
 31
0
  0
LINE
  8
1
 62
3
 10
83.55579995906579
 20
-23.9
 30
0
 11
82.51656947452447
 21
-24.5
 31
0
  0
LINE
  8
1
 62
3
 10
90.01656947452447
 20
-23.9
 30
0
 11
83.55579995906579
 21
-23.9
 31
0
  0
LINE
  8
1
 62
3
 10
83.55579995906579
 20
-22.1
 30
0
 11
82.51656947452449
 21
-21.5
 31
0
  0
LINE
  8
1
 62
3
 10
90.01656947452447
 20
-22.1
 30
0
 11
83.55579995906579
 21
-22.1
 31
0
  0
LINE
  8
1
 62
7
 10
89.41656947452448
 20
-21.5
 30
0
 11
89.41656947452449
 21
-24.5
 31
0
  0
LINE
  8
1
 62
7
 10
89.41656947452449
 20
-24.5
 30
0
 11
82.51656947452447
 21
-24.5
 31
0
  0
LINE
  8
1
 62
7
 10
90.01656947452447
 20
-23.9
 30
0
 11
89.41656947452449
 21
-24.5
 31
0
  0
LINE
  8
1
 62
7
 10
90.01656947452447
 20
-22.1
 30
0
 11
90.01656947452447
 21
-23.9
 31
0
  0
LINE
  8
1
 62
7
 10
89.41656947452448
 20
-21.5
 30
0
 11
90.01656947452447
 21
-22.1
 31
0
  0
LINE
  8
1
 62
7
 10
82.51656947452449
 20
-21.5
 30
0
 11
89.41656947452448
 21
-21.5
 31
0
  0
LINE
  8
1
 62
7
 10
79.86656947452447
 20
-21.5
 30
0
 11
79.86656947452447
 21
-24.5
 31
0
  0
LINE
  8
1
 62
7
 10
82.01656947452447
 20
-25.75
 30
0
 11
82.01656947452447
 21
-20.25
 31
0
  0
LINE
  8
1
 62
7
 10
81.61656947452447
 20
-25.75
 30
0
 11
82.01656947452447
 21
-25.75
 31
0
  0
LINE
  8
1
 62
7
 10
81.61656947452447
 20
-20.25
 30
0
 11
81.61656947452447
 21
-25.75
 31
0
  0
LINE
  8
1
 62
7
 10
82.01656947452447
 20
-20.25
 30
0
 11
81.61656947452447
 21
-20.25
 31
0
  0
LINE
  8
1
 62
7
 10
82.01656947452447
 20
-20.25
 30
0
 11
82.51656947452447
 21
-20.25
 31
0
  0
LINE
  8
1
 62
7
 10
82.51656947452447
 20
-25.75
 30
0
 11
82.01656947452447
 21
-25.75
 31
0
  0
LINE
  8
1
 62
7
 10
82.51656947452447
 20
32.74999999999999
 30
0
 11
82.11656947452447
 21
32.74999999999999
 31
0
  0
LINE
  8
1
 62
7
 10
82.91656947452448
 20
23.10352761804102
 30
0
 11
82.51656947452447
 21
24.54548132206252
 31
0
  0
LINE
  8
1
 62
7
 10
82.11656947452447
 20
33.49999999999999
 30
0
 11
82.11656947452447
 21
23.00000000000001
 31
0
  0
LINE
  8
1
 62
7
 10
82.51656947452447
 20
22.99999999999999
 30
0
 11
82.11656947452447
 21
23.00000000000001
 31
0
  0
LINE
  8
1
 62
7
 10
82.91656947452448
 20
-21.5
 30
0
 11
82.91656947452448
 21
23.10352761804102
 31
0
  0
LINE
  8
1
 62
7
 10
82.11656947452447
 20
-26.25
 30
0
 11
82.11656947452447
 21
-33.5
 31
0
  0
LINE
  8
1
 62
7
 10
78.91656947452449
 20
-33.00000000000001
 30
0
 11
78.91656947452449
 21
-16.763970959753
 31
0
  0
LINE
  8
1
 62
7
 10
78.51656947452449
 20
14.99999999999999
 30
0
 11
78.71656947452451
 21
14.99999999999999
 31
0
  0
LINE
  8
1
 62
7
 10
1
 20
10
 30
0
 11
0
 21
10
 31
0
  0
LINE
  8
1
 62
3
  6
DASHDOT
 10
144.0515702749698
 20
-18.7410719115141
 30
0
 11
144.0515702749698
 21
-27.3097763615259
 31
0
  0
LINE
  8
1
 62
3
  6
DASHDOT
 10
120.2871489161106
 20
13.720395068673
 30
0
 11
127.8868621244339
 21
9.332698602083603
 31
0
  0
LINE
  8
1
 62
3
  6
DASHDOT
 10
160.4828256729344
 20
9.486589727138373
 30
0
 11
167.5979615624311
 21
13.59451534826003
 31
0
  0
LINE
  8
1
 62
7
 10
27.3953082253288
 20
-25.75
 30
0
 11
27.7953082253288
 21
-25.75
 31
0
  0
LINE
  8
1
 62
7
 10
27.8
 20
-32.75
 30
0
 11
28.20000000000001
 21
-32.75
 31
0
  0
LINE
  8
1
 62
7
 10
34.79999999999999
 20
-24.5
 30
0
 11
34.8
 21
-21.5
 31
0
  0
LINE
  8
1
 62
7
 10
35.3
 20
-22
 30
0
 11
34.8
 21
-21.5
 31
0
  0
LINE
  8
1
 62
7
 10
35.29999999999997
 20
-24
 30
0
 11
35.3
 21
-22
 31
0
  0
LINE
  8
1
 62
7
 10
34.79999999999999
 20
-24.5
 30
0
 11
35.29999999999997
 21
-24
 31
0
  0
LINE
  8
1
 62
7
 10
35.29999999999997
 20
-24
 30
0
 11
35.3
 21
-22
 31
0
  0
LINE
  8
1
 62
3
  6
DASHDOT
 10
24.60667982773951
 20
-23
 30
0
 11
36.8086258012319
 21
-23
 31
0
  0
LINE
  8
1
 62
7
 10
34.79999999999999
 20
-24.5
 30
0
 11
29.5
 21
-24.5
 31
0
  0
LINE
  8
1
 62
3
 10
29.5
 20
-22
 30
0
 11
35.3
 21
-22
 31
0
  0
LINE
  8
1
 62
7
 10
34.8
 20
-21.5
 30
0
 11
29.5
 21
-21.5
 31
0
  0
LINE
  8
1
 62
7
 10
82.91656947452448
 20
-26.5
 30
0
 11
84.21656947452449
 21
-26.5
 31
0
  0
LINE
  8
1
 62
7
 10
84.21656947452448
 20
-24.5
 30
0
 11
84.21656947452449
 21
-26.5
 31
0
  0
LINE
  8
1
 62
7
 10
84.21656947452449
 20
-19.5
 30
0
 11
84.21656947452448
 21
-21.5
 31
0
  0
LINE
  8
1
 62
7
 10
82.91656947452448
 20
-19.5
 30
0
 11
84.21656947452449
 21
-19.5
 31
0
  0
LINE
  8
1
 62
3
  6
DASHDOT
 10
0
 20
0
 30
0
 11
-2.366982472774794
 21
0
 31
0
  0
LINE
  8
1
 62
3
  6
DASHDOT
 10
54.7165694745245
 20
0
 30
0
 11
51.72817282880399
 21
0
 31
0
  0
LINE
  8
1
 62
3
  6
DASHDOT
 10
82.91656947452448
 20
0
 30
0
 11
86.31152906696428
 21
0
 31
0
  0
LINE
  8
1
 62
3
  6
DASHDOT
 10
-52.240516575554
 20
44.66682533728629
 30
0
 11
-52.240516575554
 21
37.33317466271372
 31
0
  0
LINE
  8
1
 62
3
  6
DASHDOT
 10
-48.5736912382677
 20
40.99999999999999
 30
0
 11
-55.90734191284029
 21
40.99999999999999
 31
0
  0
LINE
  8
1
 62
3
  6
DASHDOT
 10
144.0515702749698
 20
44.82489490807799
 30
0
 11
144.0515702749698
 21
37.17510509192201
 31
0
  0
LINE
  8
1
 62
3
  6
DASHDOT
 10
147.8764651830478
 20
40.99999999999999
 30
0
 11
140.2266753668918
 21
40.99999999999999
 31
0
  0
LINE
  8
1
 62
7
 10
1
 20
-28
 30
0
 11
2.600000000000001
 21
-28
 31
0
  0
LINE
  8
1
 62
7
 10
82.51656947452447
 20
22.99999999999999
 30
0
 11
82.11656947452447
 21
24.49282032302755
 31
0
  0
LINE
  8
1
 62
7
 10
82.51656947452447
 20
32.74999999999999
 30
0
 11
82.51656947452447
 21
24.54548132206252
 31
0
  0
LINE
  8
1
 62
7
 10
83.81656947452447
 20
25.99999999999999
 30
0
 11
82.51656947452447
 21
25.99999999999999
 31
0
  0
LINE
  8
1
 62
7
 10
83.81656947452447
 20
25.99999999999999
 30
0
 11
84.11656947452447
 21
26.3
 31
0
  0
LINE
  8
1
 62
7
 10
83.81656947452447
 20
31.99999999999999
 30
0
 11
82.51656947452447
 21
31.99999999999999
 31
0
  0
LINE
  8
1
 62
7
 10
83.81656947452447
 20
31.99999999999999
 30
0
 11
84.11656947452447
 21
31.70000000000002
 31
0
  0
LINE
  8
1
 62
7
 10
84.11656947452447
 20
31.70000000000002
 30
0
 11
84.11656947452447
 21
26.3
 31
0
  0
LINE
  8
1
 62
7
 10
83.01656947452447
 20
25.99999999999999
 30
0
 11
83.01656947452447
 21
31.99999999999999
 31
0
  0
LINE
  8
1
 62
7
 10
82.51656947452447
 20
32.74999999999999
 30
0
 11
82.51656947452447
 21
24.54548132206252
 31
0
  0
LINE
  8
1
 62
7
 10
9.400000000000006
 20
32.99999999999999
 30
0
 11
9.400000000000006
 21
49.55889681073725
 31
0
  0
LINE
  8
1
 62
7
 10
7.800000000000011
 20
32.87955227433428
 30
0
 11
7.800000000000011
 21
49.55889681073725
 31
0
  0
LINE
  8
1
 62
3
  6
DASHDOT
 10
-0.2815205823507085
 20
40.99999999999999
 30
0
 11
3.489505757141416
 21
40.99999999999999
 31
0
  0
LINE
  8
1
 62
7
 10
1
 20
45.99999999999999
 30
0
 11
2.600000000000001
 21
45.99999999999999
 31
0
  0
LINE
  8
1
 62
7
 10
78.91656947452449
 20
32.99999999999999
 30
0
 11
78.91656947452449
 21
16.763970959753
 31
0
  0
LINE
  8
1
 62
7
 10
55.7165694745245
 20
16.57427951130222
 30
0
 11
57.3165694745245
 21
16.57427951130222
 31
0
  0
LINE
  8
1
 62
7
 10
56.11656947452448
 20
10
 30
0
 11
54.71656947452451
 21
10
 31
0
  0
LINE
  8
1
 62
7
 10
68.41656947452449
 20
12.5
 30
0
 11
66.8165694745245
 21
12.5
 31
0
  0
LINE
  8
1
 62
7
 10
57.3165694745245
 20
11.93938040343795
 30
0
 11
56.11656947452448
 21
11.93938040343795
 31
0
  0
LINE
  8
1
 62
7
 10
56.11656947452448
 20
9
 30
0
 11
57.3165694745245
 21
9
 31
0
  0
LINE
  8
1
 62
7
 10
56.11656947452448
 20
11.93938040343795
 30
0
 11
56.11656947452448
 21
9
 31
0
  0
LINE
  8
1
 62
7
 10
68.41656947452449
 20
33.34999999999996
 30
0
 11
68.41656947452449
 21
35
 31
0
  0
LINE
  8
1
 62
7
 10
66.8165694745245
 20
12.5
 30
0
 11
66.31656947452449
 21
12
 31
0
  0
LINE
  8
1
 62
7
 10
63.81656947452448
 20
32.99999999999999
 30
0
 11
67.21656947452449
 21
32.99999999999999
 31
0
  0
LINE
  8
1
 62
7
 10
67.21656947452449
 20
32.99999999999999
 30
0
 11
67.21656947452449
 21
32.84999999999999
 31
0
  0
LINE
  8
1
 62
7
 10
67.21656947452449
 20
32.84999999999999
 30
0
 11
74.21656947452449
 21
32.84999999999999
 31
0
  0
LINE
  8
1
 62
7
 10
74.21656947452449
 20
32.84999999999999
 30
0
 11
74.21656947452449
 21
18.49999999999999
 31
0
  0
LINE
  8
1
 62
7
 10
63.09156947452449
 20
16.45836477965031
 30
0
 11
66.3165694745245
 21
16.4583647796503
 31
0
  0
LINE
  8
1
 62
7
 10
60.54156947452449
 20
16.45836477965031
 30
0
 11
57.3165694745245
 21
16.4583647796503
 31
0
  0
LINE
  8
1
 62
7
 10
60.54156947452449
 20
12.04163522034968
 30
0
 11
57.3165694745245
 21
12.04163522034969
 31
0
  0
LINE
  8
1
 62
7
 10
63.09156947452449
 20
12.04163522034968
 30
0
 11
66.31656947452449
 21
12.04163522034969
 31
0
  0
LINE
  8
1
 62
7
 10
65.41656947452449
 20
11.7
 30
0
 11
65.41656947452449
 21
16.79999999999999
 31
0
  0
LINE
  8
1
 62
7
 10
58.21656947452449
 20
11.7
 30
0
 11
58.21656947452449
 21
16.79999999999999
 31
0
  0
LINE
  8
1
 62
7
 10
66.3165694745245
 20
19.49999999999999
 30
0
 11
67.41656947452449
 21
19.49999999999999
 31
0
  0
LINE
  8
1
 62
7
 10
67.41656947452449
 20
19.49999999999999
 30
0
 11
67.41656947452449
 21
14.51527951130223
 31
0
  0
LINE
  8
1
 62
7
 10
67.41656947452449
 20
16.57427951130222
 30
0
 11
66.3165694745245
 21
16.57427951130222
 31
0
  0
LINE
  8
1
 62
7
 10
67.41656947452449
 20
18.49999999999999
 30
0
 11
74.21656947452449
 21
18.49999999999999
 31
0
  0
LINE
  8
1
 62
7
 10
68.41656947452449
 20
33.34999999999996
 30
0
 11
75.41656947452449
 21
33.34999999999996
 31
0
  0
LINE
  8
1
 62
7
 10
68.41656947452449
 20
17.99999999999999
 30
0
 11
75.41656947452449
 21
17.99999999999999
 31
0
  0
LINE
  8
1
 62
7
 10
76.96186893614524
 20
34.99999999999999
 30
0
 11
78.1165694745245
 21
32.99999999999999
 31
0
  0
LINE
  8
1
 62
7
 10
78.1165694745245
 20
32.99999999999999
 30
0
 11
78.91656947452449
 21
32.99999999999999
 31
0
  0
LINE
  8
1
 62
7
 10
76.96186893614524
 20
34.99999999999999
 30
0
 11
68.41656947452449
 21
35
 31
0
  0
LINE
  8
1
 62
7
 10
77.91656947452449
 20
17.99999999999999
 30
0
 11
77.91656947452449
 21
14.99999999999999
 31
0
  0
LINE
  8
1
 62
7
 10
77.91656947452449
 20
14.99999999999999
 30
0
 11
78.51656947452449
 21
14.99999999999999
 31
0
  0
LINE
  8
1
 62
7
 10
77.91656947452449
 20
17.99999999999999
 30
0
 11
78.91656947452449
 21
18
 31
0
  0
LINE
  8
1
 62
7
 10
68.41656947452449
 20
12.5
 30
0
 11
66.8165694745245
 21
12.5
 31
0
  0
LINE
  8
1
 62
7
 10
56.11656947452448
 20
9
 30
0
 11
57.3165694745245
 21
9
 31
0
  0
LINE
  8
1
 62
7
 10
66.8165694745245
 20
12.5
 30
0
 11
66.31656947452449
 21
12
 31
0
  0
LINE
  8
1
 62
7
 10
54.7165694745245
 20
7.499999999999993
 30
0
 11
78.71656947452451
 21
7.499999999999993
 31
0
  0
LINE
  8
1
 62
7
 10
82.11656947452447
 20
33.49999999999999
 30
0
 11
79.11656947452447
 21
33.49999999999999
 31
0
  0
LINE
  8
1
 62
7
 10
82.51656947452447
 20
17.49999999999999
 30
0
 11
79.11656947452447
 21
17.49999999999999
 31
0
  0
LINE
  8
1
 62
7
 10
79.11656947452447
 20
33.49999999999999
 30
0
 11
79.11656947452447
 21
-33.5
 31
0
  0
LINE
  8
1
 62
7
 10
57.3165694745245
 20
18.49999999999999
 30
0
 11
66.3165694745245
 21
18.49999999999999
 31
0
  0
LINE
  8
1
 62
7
 10
13.69999999999999
 20
-35.00000000000001
 30
0
 11
22.2452994616207
 21
-35.00000000000001
 31
0
  0
LINE
  8
1
 62
7
 10
24.2
 20
-33.00000000000001
 30
0
 11
23.4
 21
-33.00000000000001
 31
0
  0
LINE
  8
1
 62
7
 10
23.4
 20
-33.00000000000001
 30
0
 11
22.2452994616207
 21
-35.00000000000001
 31
0
  0
LINE
  8
1
 62
7
 10
0
 20
-10.00000000000001
 30
0
 11
1
 21
-10.00000000000001
 31
0
  0
LINE
  8
1
 62
7
 10
27.4
 20
-33.50000000000001
 30
0
 11
24.4
 21
-33.50000000000001
 31
0
  0
LINE
  8
1
 62
7
 10
13.69999999999999
 20
-33.00000000000001
 30
0
 11
9.100000000000001
 21
-33.00000000000001
 31
0
  0
LINE
  8
1
 62
7
 10
68.41656947452449
 20
-12.50000000000001
 30
0
 11
68.41656947452449
 21
-18.00000000000001
 31
0
  0
LINE
  8
1
 62
7
 10
54.71656947452449
 20
-10.00000000000001
 30
0
 11
56.11656947452448
 21
-10.00000000000001
 31
0
  0
LINE
  8
1
 62
7
 10
66.8165694745245
 20
-12.50000000000001
 30
0
 11
68.41656947452449
 21
-12.50000000000001
 31
0
  0
LINE
  8
1
 62
7
 10
56.11656947452448
 20
-11.93938040343796
 30
0
 11
57.3165694745245
 21
-11.93938040343796
 31
0
  0
LINE
  8
1
 62
7
 10
57.3165694745245
 20
-9.000000000000007
 30
0
 11
56.11656947452448
 21
-9.000000000000007
 31
0
  0
LINE
  8
1
 62
7
 10
68.41656947452449
 20
-35
 30
0
 11
68.41656947452449
 21
-33.34999999999999
 31
0
  0
LINE
  8
1
 62
7
 10
66.31656947452449
 20
-12.00000000000001
 30
0
 11
66.8165694745245
 21
-12.50000000000001
 31
0
  0
LINE
  8
1
 62
7
 10
67.21656947452449
 20
-33.00000000000001
 30
0
 11
63.81656947452448
 21
-33.00000000000001
 31
0
  0
LINE
  8
1
 62
7
 10
67.21656947452449
 20
-32.84999999999999
 30
0
 11
67.21656947452449
 21
-33.00000000000001
 31
0
  0
LINE
  8
1
 62
7
 10
74.21656947452449
 20
-32.84999999999999
 30
0
 11
67.21656947452449
 21
-32.84999999999999
 31
0
  0
LINE
  8
1
 62
7
 10
74.21656947452449
 20
-18.50000000000001
 30
0
 11
74.21656947452449
 21
-32.84999999999999
 31
0
  0
LINE
  8
1
 62
7
 10
66.3165694745245
 20
-16.45836477965032
 30
0
 11
63.09156947452449
 21
-16.45836477965033
 31
0
  0
LINE
  8
1
 62
7
 10
57.3165694745245
 20
-16.45836477965032
 30
0
 11
60.54156947452449
 21
-16.45836477965033
 31
0
  0
LINE
  8
1
 62
7
 10
57.3165694745245
 20
-12.0416352203497
 30
0
 11
60.54156947452449
 21
-12.04163522034969
 31
0
  0
LINE
  8
1
 62
7
 10
66.31656947452449
 20
-12.0416352203497
 30
0
 11
63.09156947452449
 21
-12.04163522034969
 31
0
  0
LINE
  8
1
 62
7
 10
65.41656947452449
 20
-16.8
 30
0
 11
65.41656947452449
 21
-11.7
 31
0
  0
LINE
  8
1
 62
7
 10
58.21656947452449
 20
-16.8
 30
0
 11
58.21656947452449
 21
-11.7
 31
0
  0
LINE
  8
1
 62
7
 10
67.41656947452449
 20
-19.50000000000001
 30
0
 11
66.3165694745245
 21
-19.50000000000001
 31
0
  0
LINE
  8
1
 62
7
 10
66.3165694745245
 20
-16.57427951130222
 30
0
 11
67.41656947452449
 21
-16.57427951130222
 31
0
  0
LINE
  8
1
 62
7
 10
74.21656947452449
 20
-18.50000000000001
 30
0
 11
67.41656947452449
 21
-18.50000000000001
 31
0
  0
LINE
  8
1
 62
7
 10
75.41656947452449
 20
-33.34999999999999
 30
0
 11
68.41656947452449
 21
-33.34999999999999
 31
0
  0
LINE
  8
1
 62
7
 10
75.41656947452449
 20
-18.00000000000001
 30
0
 11
68.41656947452449
 21
-18.00000000000001
 31
0
  0
LINE
  8
1
 62
7
 10
78.1165694745245
 20
-33.00000000000001
 30
0
 11
76.96186893614524
 21
-35.00000000000001
 31
0
  0
LINE
  8
1
 62
7
 10
78.91656947452449
 20
-33.00000000000001
 30
0
 11
78.1165694745245
 21
-33.00000000000001
 31
0
  0
LINE
  8
1
 62
7
 10
68.41656947452449
 20
-35
 30
0
 11
76.96186893614524
 21
-35.00000000000001
 31
0
  0
LINE
  8
1
 62
7
 10
77.91656947452449
 20
-15.00000000000001
 30
0
 11
77.91656947452449
 21
-18.00000000000001
 31
0
  0
LINE
  8
1
 62
7
 10
77.91656947452449
 20
-15.00000000000001
 30
0
 11
78.71656947452451
 21
-15.00000000000001
 31
0
  0
LINE
  8
1
 62
7
 10
78.91656947452449
 20
-18.00000000000002
 30
0
 11
77.91656947452449
 21
-18.00000000000001
 31
0
  0
LINE
  8
1
 62
7
 10
22.2452994616207
 20
34.99999999999999
 30
0
 11
13.69999999999999
 21
34.99999999999999
 31
0
  0
LINE
  8
1
 62
7
 10
23.4
 20
32.99999999999999
 30
0
 11
24.2
 21
32.99999999999999
 31
0
  0
LINE
  8
1
 62
7
 10
22.2452994616207
 20
34.99999999999999
 30
0
 11
23.4
 21
32.99999999999999
 31
0
  0
LINE
  8
1
 62
7
 10
151.0515702749698
 20
43.99999999999999
 30
0
 11
151.0515702749698
 21
34.300881832351
 31
0
  0
LINE
  8
1
 62
7
 10
139.0515702749698
 20
45.99999999999999
 30
0
 11
149.0515702749698
 21
45.99999999999999
 31
0
  0
LINE
  8
1
 62
7
 10
55.7165694745245
 20
38.74999999999999
 30
0
 11
57.31656947452447
 21
38.74999999999999
 31
0
  0
LINE
  8
1
 62
7
 10
55.7165694745245
 20
43.24999999999999
 30
0
 11
57.31656947452447
 21
43.24999999999999
 31
0
  0
LINE
  8
1
 62
3
  6
DASHDOT
 10
54.4350488921738
 20
40.99999999999999
 30
0
 11
58.20607523166588
 21
40.99999999999999
 31
0
  0
LINE
  8
1
 62
7
 10
55.7165694745245
 20
-28
 30
0
 11
57.3165694745245
 21
-28
 31
0
  0
LINE
  8
1
 62
7
 10
57.3165694745245
 20
-16.57427951130223
 30
0
 11
55.7165694745245
 21
-16.57427951130223
 31
0
  0
LINE
  8
1
 62
7
 10
66.8165694745245
 20
-12.50000000000001
 30
0
 11
68.41656947452449
 21
-12.50000000000001
 31
0
  0
LINE
  8
1
 62
7
 10
57.3165694745245
 20
-9.000000000000007
 30
0
 11
56.11656947452448
 21
-9.000000000000007
 31
0
  0
LINE
  8
1
 62
7
 10
54.71656947452449
 20
-10.00000000000001
 30
0
 11
54.71656947452451
 21
10
 31
0
  0
LINE
  8
1
 62
7
 10
0
 20
-10.00000000000001
 30
0
 11
0
 21
10
 31
0
  0
LINE
  8
1
 62
7
 10
55.7165694745245
 20
45.99999999999999
 30
0
 11
57.3165694745245
 21
45.99999999999999
 31
0
  0
LINE
  8
1
 62
7
 10
142.0515702749698
 20
7.5
 30
0
 11
142.0515702749698
 21
5.656854249492383
 31
0
  0
LINE
  8
1
 62
7
 10
146.0515702749698
 20
7.5
 30
0
 11
146.0515702749698
 21
5.656854249492383
 31
0
  0
LINE
  8
1
 62
7
 10
142.0515702749698
 20
7.5
 30
0
 11
146.0515702749698
 21
7.5
 31
0
  0
LINE
  8
1
 62
7
 10
137.0515702749698
 20
34.29285639896448
 30
0
 11
137.0515702749698
 21
43.99999999999999
 31
0
  0
LINE
  8
1
 62
7
 10
159.3697889693954
 20
52.53192648286042
 30
0
 11
159.9018132326399
 21
54.51746806414814
 31
0
  0
LINE
  8
1
 62
7
 10
158.9834186388798
 20
52.63545410090142
 30
0
 11
159.5154429021243
 21
54.62099568218914
 31
0
  0
LINE
  8
1
 62
7
 10
158.5970483083642
 20
52.73898171894242
 30
0
 11
159.1290725716086
 21
54.72452330023014
 31
0
  0
LINE
  8
1
 62
7
 10
158.3563319105774
 20
54.93157853631223
 30
0
 11
157.8243076473329
 21
52.94603695502453
 31
0
  0
LINE
  8
1
 62
7
 10
157.9699615800618
 20
55.03510615435323
 30
0
 11
157.4379373168173
 21
53.04956457306552
 31
0
  0
LINE
  8
1
 62
7
 10
157.5835912495461
 20
55.13863377239422
 30
0
 11
157.0515669863016
 21
53.15309219110653
 31
0
  0
LINE
  8
1
 62
7
 10
159.756159299911
 20
52.42839886481941
 30
0
 11
154.6462478430463
 21
33.35794968562211
 31
0
  0
LINE
  8
1
 62
7
 10
156.665196655786
 20
53.25661980914753
 30
0
 11
151.5552851989213
 21
34.18617062995017
 31
0
  0
LINE
  8
1
 62
7
 10
156.665196655786
 20
53.25661980914753
 30
0
 11
159.756159299911
 21
52.42839886481941
 31
0
  0
LINE
  8
1
 62
7
 10
24.4
 20
-33.50000000000001
 30
0
 11
24.4
 21
33.49999999999999
 31
0
  0
LINE
  8
1
 62
7
 10
82.91656947452448
 20
-24.5
 30
0
 11
82.91656947452448
 21
-32.75
 31
0
  0
LINE
  8
1
 62
3
  6
DASHDOT
 10
79.32794107693522
 20
-23
 30
0
 11
91.5298870504276
 21
-23
 31
0
  0
LINE
  8
1
 62
7
 10
82.51656947452447
 20
-18
 30
0
 11
82.91656947452448
 21
-18
 31
0
  0
LINE
  8
1
 62
7
 10
82.51656947452447
 20
-32.75
 30
0
 11
82.91656947452448
 21
-32.75
 31
0
  0
LINE
  8
1
 62
7
 10
79.11656947452447
 20
-26.25
 30
0
 11
82.11656947452447
 21
-26.25
 31
0
  0
LINE
  8
1
 62
7
 10
79.11656947452447
 20
-19.75
 30
0
 11
82.51656947452447
 21
-19.75
 31
0
  0
LINE
  8
1
 62
7
 10
27.4
 20
25.24999999999999
 30
0
 11
27.8
 21
25.24999999999999
 31
0
  0
LINE
  8
1
 62
7
 10
27.8
 20
23.00000000000001
 30
0
 11
27.4
 21
24.49282032302755
 31
0
  0
LINE
  8
1
 62
7
 10
27.8
 20
24.54548132206252
 30
0
 11
28.20000000000001
 21
23.10352761804102
 31
0
  0
LINE
  8
1
 62
7
 10
27.8
 20
24.54548132206252
 30
0
 11
28.20000000000001
 21
23.10352761804102
 31
0
  0
LINE
  8
1
 62
7
 10
27.8
 20
32.74999999999999
 30
0
 11
27.8
 21
24.54548132206252
 31
0
  0
LINE
  8
1
 62
3
  6
DASHDOT
 10
28.20000000000001
 20
0
 30
0
 11
31.09612732460301
 21
0
 31
0
  0
LINE
  8
1
 62
7
 10
24.4
 20
33.49999999999999
 30
0
 11
27.4
 21
33.49999999999999
 31
0
  0
LINE
  8
1
 62
7
 10
27.4
 20
23.00000000000001
 30
0
 11
27.8
 21
23.00000000000001
 31
0
  0
LINE
  8
1
 62
7
 10
27.8
 20
23.00000000000001
 30
0
 11
27.8
 21
-32.75
 31
0
  0
LINE
  8
1
 62
7
 10
79.11656947452447
 20
-33.5
 30
0
 11
82.11656947452447
 21
-33.5
 31
0
  0
LINE
  8
1
 62
7
 10
82.51656947452447
 20
22.99999999999999
 30
0
 11
82.51656947452447
 21
-32.75
 31
0
  0
LINE
  8
1
 62
7
 10
79.11656947452447
 20
-17.5
 30
0
 11
82.51656947452447
 21
-17.5
 31
0
  0
LINE
  8
1
 62
7
 10
29.4
 20
31.70000000000002
 30
0
 11
29.4
 21
26.3
 31
0
  0
LINE
  8
1
 62
7
 10
27.8
 20
25.99999999999999
 30
0
 11
29.1
 21
25.99999999999999
 31
0
  0
LINE
  8
1
 62
7
 10
28.3
 20
25.99999999999999
 30
0
 11
28.3
 21
31.99999999999999
 31
0
  0
LINE
  8
1
 62
7
 10
29.1
 20
31.99999999999999
 30
0
 11
29.4
 21
31.70000000000002
 31
0
  0
LINE
  8
1
 62
7
 10
29.1
 20
25.99999999999999
 30
0
 11
29.4
 21
26.3
 31
0
  0
LINE
  8
1
 62
7
 10
27.8
 20
31.99999999999999
 30
0
 11
29.1
 21
31.99999999999999
 31
0
  0
LINE
  8
1
 62
7
 10
62.5165694745245
 20
49.55889681073725
 30
0
 11
64.1165694745245
 21
49.55889681073725
 31
0
  0
LINE
  8
1
 62
7
 10
64.1165694745245
 20
49.55889681073725
 30
0
 11
64.1165694745245
 21
32.99999999999999
 31
0
  0
LINE
  8
1
 62
7
 10
63.59313172138535
 20
51.73980610126915
 30
0
 11
63.59313172138535
 21
49.55889681073725
 31
0
  0
LINE
  8
1
 62
7
 10
63.82275297232211
 20
51.73980610126915
 30
0
 11
63.82275297232211
 21
49.55889681073725
 31
0
  0
LINE
  8
1
 62
7
 10
63.13388921951183
 20
51.73980610126915
 30
0
 11
63.13388921951183
 21
49.55889681073725
 31
0
  0
LINE
  8
1
 62
7
 10
62.83866189687885
 20
51.73980610126915
 30
0
 11
62.83866189687885
 21
49.55889681073725
 31
0
  0
LINE
  8
1
 62
7
 10
22.2452994616207
 20
34.99999999999999
 30
0
 11
22.2452994616207
 21
-35.00000000000001
 31
0
  0
LINE
  8
1
 62
7
 10
23.4
 20
32.99999999999999
 30
0
 11
23.4
 21
-33.00000000000001
 31
0
  0
LINE
  8
1
 62
7
 10
9.100000000000001
 20
32.99999999999999
 30
0
 11
13.69999999999999
 21
32.99999999999999
 31
0
  0
LINE
  8
1
 62
7
 10
24.2
 20
32.99999999999999
 30
0
 11
24.2
 21
-33.00000000000001
 31
0
  0
LINE
  8
1
 62
7
 10
66.3165694745245
 20
-18.50000000000001
 30
0
 11
57.3165694745245
 21
-18.50000000000001
 31
0
  0
LINE
  8
1
 62
7
 10
158.2106779778485
 20
52.84250933698342
 30
0
 11
153.110236853558
 21
33.80740392011739
 31
0
  0
LINE
  8
1
 62
3
  6
DASHDOT
 10
146.3928292625113
 20
0
 30
0
 11
141.7103112874283
 21
0
 31
0
  0
LINE
  8
1
 62
3
  6
DASHDOT
 10
144.0515702749698
 20
2.341258987541522
 30
0
 11
144.0515702749698
 21
-2.341258987541515
 31
0
  0
LINE
  8
1
 62
7
 10
-50.240516575554
 20
5.656854249492383
 30
0
 11
-50.240516575554
 21
7.5
 31
0
  0
LINE
  8
1
 62
7
 10
-54.240516575554
 20
5.656854249492383
 30
0
 11
-54.240516575554
 21
7.5
 31
0
  0
LINE
  8
1
 62
7
 10
-54.240516575554
 20
7.5
 30
0
 11
-50.240516575554
 21
7.5
 31
0
  0
LINE
  8
1
 62
3
  6
DASHDOT
 10
-49.8992575880125
 20
0
 30
0
 11
-54.5817755630956
 21
0
 31
0
  0
LINE
  8
1
 62
3
  6
DASHDOT
 10
-52.240516575554
 20
-2.341258987541515
 30
0
 11
-52.240516575554
 21
2.341258987541522
 31
0
  0
LINE
  8
1
 62
7
 10
29.5
 20
-19.5
 30
0
 11
29.5
 21
-26.5
 31
0
  0
LINE
  8
1
 62
3
 10
29.5
 20
-24
 30
0
 11
35.29999999999997
 21
-24
 31
0
  0
LINE
  8
1
 62
7
 10
75.41656947452449
 20
17.99999999999999
 30
0
 11
75.41656947452449
 21
33.34999999999996
 31
0
  0
LINE
  8
1
 62
7
 10
68.41656947452449
 20
17.99999999999999
 30
0
 11
68.41656947452449
 21
12.5
 31
0
  0
LINE
  8
1
 62
7
 10
75.41656947452449
 20
-18.00000000000001
 30
0
 11
75.41656947452449
 21
-33.34999999999999
 31
0
  0
LINE
  8
1
 62
7
 10
78.71656947452451
 20
6
 30
0
 11
54.7165694745245
 21
6
 31
0
  0
ARC
  8
1
 62
7
 10
-52.240516575554
 20
0
 30
0
 40
34.99999999999999
 50
101.5369590328156
 51
102.3798512281439
  0
ARC
  8
1
 62
7
 10
-52.240516575554
 20
0
 30
0
 40
33.00337802724541
 50
102.2706751562916
 51
77.72932484370844
  0
ARC
  8
1
 62
7
 10
-52.240516575554
 20
0
 30
0
 40
28
 50
114.6243183521641
 51
65.37568164783593
  0
ARC
  8
1
 62
7
 10
-52.240516575554
 20
0
 30
0
 40
35
 50
107.6201487718559
 51
78.4630409671845
  0
ARC
  8
1
 62
7
 10
82.36942559241102
 20
-22.84600143495882
 30
0
 40
3.000000000000072
 50
213.4585005244451
 51
255.4661438916064
  0
ARC
  8
1
 62
7
 10
82.36942559241102
 20
-23.15399856504118
 30
0
 40
3.000000000000075
 50
104.5338561083937
 51
146.5414994755549
  0
ARC
  8
1
 62
3
  6
DASHDOT
 10
144.0515702749698
 20
0
 30
0
 40
23.00000000000002
 50
258.5777227386433
 51
281.8280343761959
  0
ARC
  8
1
 62
3
  6
DASHDOT
 10
144.0515702749698
 20
0
 30
0
 40
23
 50
138.1227387766376
 51
161.0269122177541
  0
ARC
  8
1
 62
3
  6
DASHDOT
 10
144.0515702749698
 20
0
 30
0
 40
23.00000000000004
 50
17.58628537339913
 51
42.39453557594084
  0
ARC
  8
1
 62
7
 10
63.81656947452448
 20
25.49999999999999
 30
0
 40
7.500000000000004
 50
90
 51
150.0735651333856
  0
ARC
  8
1
 62
7
 10
62.81656947452448
 20
23.99999999999999
 30
0
 40
6.499999999999985
 50
212.2042275039722
 51
237.7957724960281
  0
ARC
  8
1
 62
7
 10
9.100000000000001
 20
-25.50000000000001
 30
0
 40
7.499999999999999
 50
209.9264348666142
 51
270
  0
ARC
  8
1
 62
7
 10
63.81656947452448
 20
-25.50000000000001
 30
0
 40
7.499999999999976
 50
209.9264348666142
 51
270
  0
ARC
  8
1
 62
7
 10
62.81656947452448
 20
-24.00000000000001
 30
0
 40
6.499999999999998
 50
122.204227503972
 51
147.7957724960278
  0
ARC
  8
1
 62
7
 10
9.100000000000001
 20
25.49999999999999
 30
0
 40
7.500000000000004
 50
90
 51
150.0735651333857
  0
ARC
  8
1
 62
7
 10
149.0515702749698
 20
43.99999999999999
 30
0
 40
2
 50
0
 51
90
  0
ARC
  8
1
 62
7
 10
139.0515702749698
 20
43.99999999999999
 30
0
 40
2
 50
90
 51
180
  0
ARC
  8
1
 62
7
 10
144.0515702749698
 20
0
 30
0
 40
6.000000000000003
 50
109.4712206344907
 51
70.52877936550931
  0
ARC
  8
1
 62
7
 10
135.1765702749698
 20
15.37195091717377
 30
0
 40
15.00000000000005
 50
119.9999999999999
 51
175.5879275866445
  0
ARC
  8
1
 62
7
 10
136.7614052599427
 20
15.6338093263822
 30
0
 40
8.000000000000016
 50
115.0000000000001
 51
212.8220018628981
  0
ARC
  8
1
 62
7
 10
126.8672117328872
 20
-1.503436562397098
 30
0
 40
8.000000000000016
 50
87.17799813710181
 51
185
  0
ARC
  8
1
 62
7
 10
126.3015702749698
 20
-7.105427357601002e-015
 30
0
 40
15.00000000000003
 50
124.4120724133556
 51
180
  0
ARC
  8
1
 62
7
 10
153.9457638020254
 20
-14.13037276398511
 30
0
 40
7.999999999999994
 50
207.1779981371018
 51
304.9999999999994
  0
ARC
  8
1
 62
7
 10
152.9265702749698
 20
-15.3719509171738
 30
0
 40
15.00000000000001
 50
244.4120724133554
 51
300.0000000000003
  0
ARC
  8
1
 62
7
 10
134.1573767479143
 20
-14.13037276398511
 30
0
 40
8.000000000000043
 50
234.9999999999999
 51
332.8220018628981
  0
ARC
  8
1
 62
7
 10
135.1765702749698
 20
-15.37195091717378
 30
0
 40
15
 50
240
 51
295.5879275866445
  0
ARC
  8
1
 62
7
 10
151.3417352899969
 20
15.63380932638222
 30
0
 40
8.000000000000012
 50
327.1779981371017
 51
65.00000000000006
  0
ARC
  8
1
 62
7
 10
161.2359288170524
 20
-1.50343656239712
 30
0
 40
8.00000000000003
 50
354.9999999999998
 51
92.82200186289819
  0
ARC
  8
1
 62
7
 10
161.8015702749698
 20
0
 30
0
 40
15.00000000000009
 50
359.9999999999997
 51
55.58792758664423
  0
ARC
  8
1
 62
7
 10
152.9265702749698
 20
15.37195091717381
 30
0
 40
14.99999999999997
 50
4.412072413355404
 51
59.99999999999959
  0
ARC
  8
1
 62
7
 10
144.0515702749698
 20
0
 30
0
 40
32.75000000000001
 50
59.99999999999983
 51
120
  0
ARC
  8
1
 62
7
 10
144.0515702749698
 20
0
 30
0
 40
25.25000000000002
 50
64.99999999999996
 51
115.0000000000001
  0
ARC
  8
1
 62
7
 10
144.0515702749698
 20
0
 30
0
 40
25.25000000000004
 50
185
 51
235
  0
ARC
  8
1
 62
7
 10
144.0515702749698
 20
0
 30
0
 40
25.25000000000001
 50
304.9999999999999
 51
354.9999999999999
  0
ARC
  8
1
 62
7
 10
144.0515702749698
 20
0
 30
0
 40
32.75
 50
180
 51
240
  0
ARC
  8
1
 62
7
 10
144.0515702749698
 20
0
 30
0
 40
32.75000000000007
 50
300.0000000000001
 51
359.9999999999999
  0
ARC
  8
1
 62
7
 10
144.0515702749698
 20
0
 30
0
 40
18.00000000000002
 50
141.1236096126172
 51
158.8763903873828
  0
ARC
  8
1
 62
7
 10
144.0515702749698
 20
0
 30
0
 40
18
 50
261.1236096126173
 51
278.876390387383
  0
ARC
  8
1
 62
7
 10
144.0515702749698
 20
0
 30
0
 40
17.99999999999998
 50
21.12360961261715
 51
38.87639038738273
  0
ARC
  8
1
 62
7
 10
144.0515702749698
 20
-35.32713703891356
 30
0
 40
6.858664189549441
 50
69.54806916653251
 51
110.4519308334677
  0
ARC
  8
1
 62
7
 10
174.6457683936431
 20
17.66356851945676
 30
0
 40
6.858664189549466
 50
189.5480691665321
 51
230.4519308334684
  0
ARC
  8
1
 62
7
 10
152.9265702749698
 20
15.37195091717381
 30
0
 40
14.99999999999997
 50
4.412072413355404
 51
59.99999999999959
  0
ARC
  8
1
 62
7
 10
126.3015702749698
 20
-7.105427357601002e-015
 30
0
 40
15.00000000000003
 50
124.4120724133556
 51
180
  0
ARC
  8
1
 62
7
 10
113.4573721562965
 20
17.66356851945676
 30
0
 40
6.858664189549412
 50
309.5480691665321
 51
350.4519308334679
  0
ARC
  8
1
 62
7
 10
126.3015702749698
 20
-7.105427357601002e-015
 30
0
 40
15.00000000000003
 50
124.4120724133556
 51
180
  0
ARC
  8
1
 62
7
 10
-57.2405165755541
 20
43.99999999999999
 30
0
 40
2
 50
90
 51
180
  0
ARC
  8
1
 62
7
 10
-47.2405165755541
 20
43.99999999999999
 30
0
 40
2.000000000000107
 50
0
 51
90
  0
ARC
  8
1
 62
7
 10
-52.240516575554
 20
0
 30
0
 40
6.000000000000003
 50
109.4712206344907
 51
70.52877936550931
  0
ARC
  8
1
 62
7
 10
144.0515702749698
 20
0
 30
0
 40
23
 50
48.94804198091639
 51
131.0519580190836
  0
ARC
  8
1
 62
7
 10
144.0515702749698
 20
0
 30
0
 40
23.00000000000003
 50
168.9480419809163
 51
251.0519580190835
  0
ARC
  8
1
 62
7
 10
144.0515702749698
 20
0
 30
0
 40
23.00000000000005
 50
288.9480419809165
 51
11.05195801908353
  0
CIRCLE
  8
1
 62
7
 10
-52.240516575554
 20
0
 30
0
 40
10
  0
CIRCLE
  8
1
 62
7
 10
-52.240516575554
 20
0
 30
0
 40
16.57541233027123
  0
CIRCLE
  8
1
 62
7
 10
144.0515702749698
 20
0
 30
0
 40
33
  0
CIRCLE
  8
1
 62
7
 10
144.0515702749698
 20
0
 30
0
 40
17.50000000000001
  0
CIRCLE
  8
1
 62
7
 10
144.0515702749698
 20
0
 30
0
 40
15.5
  0
CIRCLE
  8
1
 62
7
 10
61.81656947452448
 20
14.24999999999999
 30
0
 40
2.54999999999999
  0
CIRCLE
  8
1
 62
7
 10
61.81656947452448
 20
-14.25000000000001
 30
0
 40
2.54999999999999
  0
CIRCLE
  8
1
 62
7
 10
144.0515702749698
 20
40.99999999999999
 30
0
 40
2.25
  0
CIRCLE
  8
1
 62
7
 10
144.0515702749698
 20
0
 30
0
 40
35
  0
CIRCLE
  8
1
 62
7
 10
124.1329859879277
 20
11.5
 30
0
 40
1.5
  0
CIRCLE
  8
1
 62
7
 10
124.1329859879277
 20
11.5
 30
0
 40
1.100000000000009
  0
CIRCLE
  8
1
 62
7
 10
163.9701545620119
 20
11.50000000000001
 30
0
 40
1.5
  0
CIRCLE
  8
1
 62
7
 10
163.9701545620119
 20
11.50000000000001
 30
0
 40
1.099999999999994
  0
CIRCLE
  8
1
 62
7
 10
169.1663069847185
 20
-14.5
 30
0
 40
3
  0
CIRCLE
  8
1
 62
7
 10
144.0515702749698
 20
-23
 30
0
 40
1.099999999999994
  0
CIRCLE
  8
1
 62
7
 10
144.0515702749698
 20
-23
 30
0
 40
1.5
  0
CIRCLE
  8
1
 62
7
 10
118.9368335652211
 20
-14.49999999999999
 30
0
 40
3
  0
CIRCLE
  8
1
 62
7
 10
144.0515702749698
 20
28.99999999999996
 30
0
 40
3
  0
CIRCLE
  8
1
 62
7
 10
163.9701545620119
 20
11.50000000000001
 30
0
 40
3.5
  0
CIRCLE
  8
1
 62
7
 10
163.9701545620119
 20
11.50000000000001
 30
0
 40
3.5
  0
CIRCLE
  8
1
 62
7
 10
124.1329859879277
 20
11.5
 30
0
 40
3.5
  0
CIRCLE
  8
1
 62
7
 10
144.0515702749698
 20
-23
 30
0
 40
3.5
  0
CIRCLE
  8
1
 62
7
 10
-52.240516575554
 20
40.99999999999999
 30
0
 40
2.25
  0
ARC
  8
1
 62
7
 10
-67.24051657555401
 20
32.72613634390714
 30
0
 40
8.000000000000005
 50
294.624318352164
 51
0
  0
ARC
  8
1
 62
7
 10
-37.240516575554
 20
32.72613634390714
 30
0
 40
8
 50
180
 51
245.3756816478359
  0
TEXT
  8
1
 62
7
 10
-63.265516575554
 20
80.07194244604321
 30
0
 40
3.5
  1
DC1401
 41
0.9
  7
SIMPLEX
  0
TEXT
  8
1
 62
7
 10
-63.265516575554
 20
85.32194244604321
 30
0
 40
3.5
  1
TMC 0.6
 41
0.9
  7
SIMPLEX
  0
ENDSEC
  0
EOF
