  0
SECTION
  2
HEADER
  9
$ACADVER
  1
AC1009
  9
$INSBASE
 10
0
 20
0
  9
$EXTMIN
 10
-337.9999999999998
 20
-112.5
  9
$EXTMAX
 10
562.3977516108341
 20
251.8451163085751
  9
$LIMMIN
 10
-337.9999999999998
 20
-112.5
  9
$LIMMAX
 10
562.3977516108341
 20
251.8451163085751
  9
$VIEWCTR
 10
10
 20
10
  9
$VIEWSIZE
 40
10
  9
$SNAPMODE
 70
0
  9
$SNAPUNIT
 10
1
 20
1
  9
$SNAPBASE
 10
0
 20
0
  9
$SNAPANG
 50
0
  9
$SNAPSTYLE
 70
0
  9
$SNAPISOPAIR
 70
0
  9
$GRIDMODE
 70
0
  9
$GRIDUNIT
 10
0
 20
0
  9
$ORTHOMODE
 70
0
  9
$REGENMODE
 70
1
  9
$FILLMODE
 70
1
  9
$QTEXTMODE
 70
0
  9
$DRAGMODE
 70
2
  9
$LTSCALE
 40
1
  9
$OSMODE
 70
0
  9
$ATTMODE
 70
1
  9
$TEXTSIZE
 40
3.5
  9
$TRACEWID
 40
0.5
  9
$TEXTSTYLE
  7
STANDARD
  9
$CLAYER
  8
0
  9
$CELTYPE
  6
BYLAYER
  9
$CECOLOR
 62
256
  9
$DIMSCALE
 40
1
  9
$DIMASZ
 40
0.18
  9
$DIMEXO
 40
0.0625
  9
$DIMDLI
 40
0.38
  9
$DIMRND
 40
0
  9
$DIMDLE
 40
0
  9
$DIMEXE
 40
0.18
  9
$DIMTP
 40
0
  9
$DIMTM
 40
0
  9
$DIMTXT
 40
0.18
  9
$DIMCEN
 40
0.09
  9
$DIMTSZ
 40
0
  9
$DIMTOL
 70
0
  9
$DIMLIM
 70
0
  9
$DIMTIH
 70
1
  9
$DIMTOH
 70
1
  9
$DIMSE1
 70
0
  9
$DIMSE2
 70
0
  9
$DIMTAD
 70
0
  9
$DIMZIN
 70
0
  9
$DIMBLK
  1

  9
$DIMASO
 70
1
  9
$DIMSHO
 70
1
  9
$DIMPOST
  1

  9
$DIMAPOST
  1

  9
$DIMALT
 70
0
  9
$DIMALTD
 70
2
  9
$DIMALTF
 40
25.4
  9
$DIMLFAC
 40
1
  9
$DIMTOFL
 70
0
  9
$DIMTVP
 40
0
  9
$DIMTIX
 70
0
  9
$DIMSOXD
 70
0
  9
$DIMSAH
 70
0
  9
$DIMBLK1
  1

  9
$DIMBLK2
  1

  9
$DIMSTYLE
  2
*UNNAMED
  9
$DIMCLRD
 70
0
  9
$DIMCLRE
 70
0
  9
$DIMCLRT
 70
0
  9
$DIMTFAC
 40
1
  9
$DIMGAP
 40
0.09
  9
$LUNITS
 70
2
  9
$LUPREC
 70
4
  9
$AXISMODE
 70
0
  9
$AXISUNIT
 10
0
 20
0
  9
$SKETCHINC
 40
0.1
  9
$FILLETRAD
 40
2
  9
$AUNITS
 70
0
  9
$AUPREC
 70
0
  9
$MENU
  1
ACAD
  9
$ELEVATION
 40
0
  9
$THICKNESS
 40
0
  9
$VIEWDIR
 10
0
 20
0
 30
1
  9
$LIMCHECK
 70
0
  9
$BLIPMODE
 70
1
  9
$CHAMFERA
 40
0
  9
$CHAMFERB
 40
0
  9
$FASTZOOM
 70
1
  9
$SKPOLY
 70
0
  9
$ANGBASE
 50
0
  9
$ANGDIR
 70
0
  9
$PDMODE
 70
0
  9
$PDSIZE
 40
0
  9
$PLINEWID
 40
0
  9
$COORDS
 70
2
  0
ENDSEC
  0
SECTION
  2
TABLES
  0
TABLE
  2
DIMSTYLE
 70
0
  0
ENDTAB
  0
TABLE
  2
LTYPE
 70
9
  0
LTYPE
  2
CONTINUOUS
 70
64
  3
Solid line
 72
65
 73
0
 40
0
  0
LTYPE
  2
BORDER
 70
64
  3
__ __ . __ __ .
 72
65
 73
6
 40
41.4656859294463
 49
11.84733883698466
 49
-5.923669418492328
 49
11.84733883698466
 49
-5.923669418492328
 49
0
 49
-5.923669418492328
  0
LTYPE
  2
CENTER
 70
64
  3
____ _ ____ _
 72
65
 73
4
 40
47.38935534793863
 49
29.61834709246164
 49
-5.923669418492328
 49
5.923669418492328
 49
-5.923669418492328
  0
LTYPE
  2
DASHDOT
 70
64
  3
__ . __ . __ .
 72
65
 73
4
 40
23.69467767396931
 49
11.84733883698466
 49
-5.923669418492328
 49
0
 49
-5.923669418492328
  0
LTYPE
  2
DASHED
 70
64
  3
__ __ __ __ __
 72
65
 73
2
 40
17.77100825547699
 49
11.84733883698466
 49
-5.923669418492328
  0
LTYPE
  2
DIVIDE
 70
64
  3
__ . . __ . . 
 72
65
 73
6
 40
29.61834709246164
 49
11.84733883698466
 49
-5.923669418492328
 49
0
 49
-5.923669418492328
 49
0
 49
-5.923669418492328
  0
LTYPE
  2
DOT
 70
64
  3
..............
 72
65
 73
4
 40
11.84733883698466
 49
0
 49
-5.923669418492328
 49
0
 49
-5.923669418492328
  0
LTYPE
  2
HIDDEN
 70
64
  3
_ _ _ _ _ _ _
 72
65
 73
2
 40
8.885504127738493
 49
5.923669418492328
 49
-2.961834709246164
  0
LTYPE
  2
PHANTOM
 70
64
  3
_____ _ _ _____ _ _ 
 72
65
 73
6
 40
59.23669418492328
 49
29.61834709246164
 49
-5.923669418492328
 49
5.923669418492328
 49
-5.923669418492328
 49
5.923669418492328
 49
-5.923669418492328
  0
ENDTAB
  0
TABLE
  2
LAYER
 70
3
  0
LAYER
  2
1
 70
0
 62
7
  6
CONTINUOUS
  0
LAYER
  2
0
 70
0
 62
7
  6
CONTINUOUS
  0
ENDTAB
  0
TABLE
  2
STYLE
 70
4
  0
STYLE
  2
STANDARD
 70
0
 40
0
 41
1
 50
0
 71
0
 42
3.5
  3
txt
  4

  0
STYLE
  2
SIMPLEX
 70
0
 40
0
 41
1
 50
0
 71
0
 42
3.5
  3
simplex
  4

  0
STYLE
  2
COMPLEX
 70
0
 40
0
 41
1
 50
0
 71
0
 42
3.5
  3
complex
  4

  0
STYLE
  2
ITALIC
 70
0
 40
0
 41
1
 50
0
 71
0
 42
3.5
  3
italic
  4

  0
ENDTAB
  0
TABLE
  2
VIEW
 70
0
  0
ENDTAB
  0
ENDSEC
  0
SECTION
  2
BLOCKS
  0
ENDSEC
  0
SECTION
  2
ENTITIES
  0
POINT
  8
1
 62
7
  6
DOT
 10
449.8977516108342
 20
-20
 30
0
  0
LINE
  8
1
 62
7
 10
191.1000000000001
 20
-107.5
 30
0
 11
191.1000000000001
 21
-112.5
 31
0
  0
LINE
  8
1
 62
7
 10
187.6000000000001
 20
64.49999999999997
 30
0
 11
187.6000000000001
 21
57.49999999999998
 31
0
  0
LINE
  8
1
 62
7
 10
203.6000000000001
 20
64.49999999999997
 30
0
 11
203.6000000000001
 21
107.5
 31
0
  0
LINE
  8
1
 62
7
 10
181.3709683157393
 20
160.7869128568263
 30
0
 11
181.3709683157393
 21
157.2371036949523
 31
0
  0
LINE
  8
1
 62
7
 10
181.8709683157393
 20
160.7592125154435
 30
0
 11
181.8709683157393
 21
157.2371036949523
 31
0
  0
LINE
  8
1
 62
7
 10
180.8709683157393
 20
160.7869128568263
 30
0
 11
180.8709683157393
 21
157.2371036949523
 31
0
  0
LINE
  8
1
 62
3
  6
DASHDOT
 10
-1.660626749813673
 20
125
 30
0
 11
5.154504138201219
 21
125
 31
0
  0
LINE
  8
1
 62
7
 10
52.79999999999998
 20
-107.5
 30
0
 11
52.79999999999998
 21
107.5
 31
0
  0
LINE
  8
1
 62
3
  6
DASHDOT
 10
168.7
 20
0
 30
0
 11
162.2504299697291
 21
0
 31
0
  0
LINE
  8
1
 62
3
  6
DASHDOT
 10
224.3
 20
0
 30
0
 11
230.3856737369591
 21
0
 31
0
  0
LINE
  8
1
 62
3
  6
DASHDOT
 10
371.3659687333311
 20
45.34034598426765
 30
0
 11
390.9733066291817
 21
34.02004417200636
 31
0
  0
LINE
  8
1
 62
3
  6
DASHDOT
 10
449.8977516108342
 20
-68.03152037024752
 30
0
 11
449.8977516108342
 21
-90.63652523006962
 31
0
  0
LINE
  8
1
 62
3
  6
DASHDOT
 10
508.8140605119052
 20
34.01534680369249
 30
0
 11
528.6345857956286
 21
45.45873241172999
 31
0
  0
LINE
  8
1
 62
7
 10
492.8814167659862
 20
156.3294772463476
 30
0
 11
494.0821125971909
 21
160.2319573209731
 31
0
  0
LINE
  8
1
 62
7
 10
490.762245266471
 20
156.8568225786063
 30
0
 11
491.7467169834298
 21
160.8650464933781
 31
0
  0
LINE
  8
1
 62
7
 10
479.0148941848676
 20
108.6666554575201
 30
0
 11
491.8545762865751
 21
156.5850014141252
 31
0
  0
LINE
  8
1
 62
3
  6
DASHDOT
 10
449.8977516108342
 20
130.5517364718958
 30
0
 11
449.8977516108342
 21
119.4482635281042
 31
0
  0
LINE
  8
1
 62
3
  6
DASHDOT
 10
455.4494880827299
 20
125
 30
0
 11
444.3460151389382
 21
125
 31
0
  0
LINE
  8
1
 62
3
  6
DASHDOT
 10
449.8977516108342
 20
14.6173822322238
 30
0
 11
449.8977516108342
 21
-14.6173822322238
 31
0
  0
LINE
  8
1
 62
3
  6
DASHDOT
 10
464.5151338430579
 20
0
 30
0
 11
435.2803693786102
 21
0
 31
0
  0
LINE
  8
1
 62
7
 10
461.8977516108342
 20
111.858169125013
 30
0
 11
461.8977516108342
 21
133
 31
0
  0
LINE
  8
1
 62
7
 10
444.8977516108342
 20
23.50000000000001
 30
0
 11
444.8977516108342
 21
19.36491673103709
 31
0
  0
LINE
  8
1
 62
7
 10
454.8977516108342
 20
23.50000000000001
 30
0
 11
454.8977516108342
 21
19.36491673103708
 31
0
  0
LINE
  8
1
 62
7
 10
444.8977516108342
 20
23.50000000000001
 30
0
 11
454.8977516108342
 21
23.50000000000001
 31
0
  0
LINE
  8
1
 62
7
 10
222.6999999999998
 20
-93.23278449816661
 30
0
 11
224.3
 21
-93.23278449816661
 31
0
  0
LINE
  8
1
 62
7
 10
222.6999999999998
 20
-66.5
 30
0
 11
224.3
 21
-66.5
 31
0
  0
LINE
  8
1
 62
3
  6
DASHDOT
 10
213.3
 20
-79
 30
0
 11
250.9737124052118
 21
-79
 31
0
  0
LINE
  8
1
 62
7
 10
224.3
 20
-84
 30
0
 11
224.3
 21
-106.5
 31
0
  0
LINE
  8
1
 62
7
 10
229.1999999999999
 20
-84
 30
0
 11
229.1999999999999
 21
-88.5
 31
0
  0
LINE
  8
1
 62
7
 10
229.1999999999999
 20
-69.5
 30
0
 11
229.2
 21
-74
 31
0
  0
LINE
  8
1
 62
7
 10
224.3
 20
-69.5
 30
0
 11
229.1999999999999
 21
-69.5
 31
0
  0
LINE
  8
1
 62
7
 10
213.3
 20
-89
 30
0
 11
221.5000000000001
 21
-89
 31
0
  0
LINE
  8
1
 62
7
 10
213.3
 20
-69
 30
0
 11
222.6999999999998
 21
-69
 31
0
  0
LINE
  8
1
 62
7
 10
222.6999999999998
 20
-106.5
 30
0
 11
224.3
 21
-106.5
 31
0
  0
LINE
  8
1
 62
7
 10
221.5000000000001
 20
-107.5
 30
0
 11
213.3
 21
-107.5
 31
0
  0
LINE
  8
1
 62
7
 10
222.6999999999998
 20
-53.5
 30
0
 11
213.3
 21
-53.5
 31
0
  0
LINE
  8
1
 62
7
 10
226.8999999999999
 20
87.99999999999997
 30
0
 11
227.8999999999999
 21
88.99999999999997
 31
0
  0
LINE
  8
1
 62
7
 10
227.8999999999999
 20
103
 30
0
 11
226.8999999999999
 21
104
 31
0
  0
LINE
  8
1
 62
7
 10
221.5000000000001
 20
78.99999999999997
 30
0
 11
221.5000000000001
 21
107.5
 31
0
  0
LINE
  8
1
 62
7
 10
224.0999999999999
 20
104
 30
0
 11
224.0999999999999
 21
87.99999999999997
 31
0
  0
LINE
  8
1
 62
7
 10
223.0999999999999
 20
87.99999999999997
 30
0
 11
226.8999999999999
 21
87.99999999999997
 31
0
  0
LINE
  8
1
 62
7
 10
227.8999999999999
 20
103
 30
0
 11
227.8999999999999
 21
88.99999999999997
 31
0
  0
LINE
  8
1
 62
7
 10
223.0999999999999
 20
104
 30
0
 11
226.8999999999999
 21
104
 31
0
  0
LINE
  8
1
 62
7
 10
221.5000000000001
 20
85.49999999999997
 30
0
 11
223.0999999999999
 21
85.49999999999997
 31
0
  0
LINE
  8
1
 62
7
 10
223.0999999999999
 20
83.62845421394016
 30
0
 11
224.3
 21
78.99999999999997
 31
0
  0
LINE
  8
1
 62
7
 10
221.5000000000001
 20
83.47846096908256
 30
0
 11
222.6999999999998
 21
78.99999999999997
 31
0
  0
LINE
  8
1
 62
7
 10
224.3
 20
78.99999999999997
 30
0
 11
224.3
 21
-74
 31
0
  0
LINE
  8
1
 62
7
 10
221.5000000000001
 20
106.5
 30
0
 11
223.0999999999999
 21
106.5
 31
0
  0
LINE
  8
1
 62
7
 10
213.3
 20
53.49999999999998
 30
0
 11
222.6999999999998
 21
53.49999999999998
 31
0
  0
LINE
  8
1
 62
7
 10
221.5000000000001
 20
78.99999999999997
 30
0
 11
222.6999999999998
 21
78.99999999999997
 31
0
  0
LINE
  8
1
 62
7
 10
213.3
 20
107.5
 30
0
 11
221.5000000000001
 21
107.5
 31
0
  0
LINE
  8
1
 62
7
 10
213.3
 20
107.5
 30
0
 11
213.3
 21
-107.5
 31
0
  0
LINE
  8
1
 62
7
 10
180.0209683157393
 20
157.2371036949523
 30
0
 11
182.7209683157392
 21
157.2371036949523
 31
0
  0
LINE
  8
1
 62
7
 10
182.7209683157392
 20
157.2371036949523
 30
0
 11
182.7209683157392
 21
107.0000000000001
 31
0
  0
LINE
  8
1
 62
7
 10
180.0209683157393
 20
107.0000000000001
 30
0
 11
180.0209683157393
 21
157.2371036949523
 31
0
  0
LINE
  8
1
 62
7
 10
476.3985075089319
 20
109.3341663746033
 30
0
 11
489.2340608789982
 21
157.2371036949523
 31
0
  0
LINE
  8
1
 62
7
 10
489.2340608789982
 20
157.2371036949523
 30
0
 11
494.4750916941524
 21
155.9328991332981
 31
0
  0
LINE
  8
1
 62
7
 10
493.6840557473892
 20
160.3788625598965
 30
0
 11
492.4881991916924
 21
156.4273274922637
 31
0
  0
LINE
  8
1
 62
7
 10
494.4400876212219
 20
160.0764498103635
 30
0
 11
493.306772022952
 21
156.2236296972635
 31
0
  0
LINE
  8
1
 62
7
 10
491.2270057933932
 20
156.7652632448374
 30
0
 11
492.1671311706942
 21
160.7853212752009
 31
0
  0
LINE
  8
1
 62
7
 10
490.4162520291746
 20
156.9981421953021
 30
0
 11
491.3611819871177
 21
160.9014400885934
 31
0
  0
LINE
  8
1
 62
7
 10
212.6999999999999
 20
-39
 30
0
 11
212.6999999999999
 21
39.00000000000001
 31
0
  0
LINE
  8
1
 62
7
 10
171.7
 20
107
 30
0
 11
201.2
 21
107
 31
0
  0
LINE
  8
1
 62
7
 10
168.7
 20
120.75
 30
0
 11
171.6000000000001
 21
120.75
 31
0
  0
LINE
  8
1
 62
7
 10
168.7
 20
129.25
 30
0
 11
171.6000000000001
 21
129.25
 31
0
  0
LINE
  8
1
 62
7
 10
168.7
 20
135
 30
0
 11
171.6000000000001
 21
135
 31
0
  0
LINE
  8
1
 62
3
  6
DASHDOT
 10
167.0393732501864
 20
125
 30
0
 11
173.8545041382012
 21
125
 31
0
  0
LINE
  8
1
 62
7
 10
171.6000000000001
 20
135
 30
0
 11
171.6000000000001
 21
78.99999999999997
 31
0
  0
LINE
  8
1
 62
7
 10
171.6000000000001
 20
78.99999999999997
 30
0
 11
168.7
 21
78.99999999999997
 31
0
  0
LINE
  8
1
 62
7
 10
171.7
 20
-107
 30
0
 11
201.2
 21
-107
 31
0
  0
LINE
  8
1
 62
7
 10
185.7
 20
-57
 30
0
 11
185.7
 21
-67.0127505037226
 31
0
  0
LINE
  8
1
 62
7
 10
200.2
 20
-57
 30
0
 11
185.7
 21
-57
 31
0
  0
LINE
  8
1
 62
7
 10
172.15
 20
-50
 30
0
 11
168.7
 21
-50
 31
0
  0
LINE
  8
1
 62
7
 10
194.7
 20
-45
 30
0
 11
191.7
 21
-45
 31
0
  0
LINE
  8
1
 62
7
 10
200.2
 20
-50
 30
0
 11
194.7
 21
-50
 31
0
  0
LINE
  8
1
 62
7
 10
168.7
 20
-104
 30
0
 11
171.7
 21
-107
 31
0
  0
LINE
  8
1
 62
7
 10
194.7
 20
50.00000000000001
 30
0
 11
200.2
 21
50.00000000000001
 31
0
  0
LINE
  8
1
 62
7
 10
194.7
 20
50.00000000000001
 30
0
 11
194.7
 21
45.00000000000001
 31
0
  0
LINE
  8
1
 62
7
 10
191.7
 20
45.00000000000001
 30
0
 11
194.7
 21
45.00000000000001
 31
0
  0
LINE
  8
1
 62
7
 10
172.15
 20
51.49999999999998
 30
0
 11
173.6999999999999
 21
51.49999999999998
 31
0
  0
LINE
  8
1
 62
7
 10
172.15
 20
51.49999999999998
 30
0
 11
172.15
 21
41.24263336986829
 31
0
  0
LINE
  8
1
 62
7
 10
200.2
 20
56.99999999999998
 30
0
 11
200.2
 21
50.00000000000001
 31
0
  0
LINE
  8
1
 62
7
 10
185.7
 20
56.99999999999998
 30
0
 11
200.2
 21
56.99999999999998
 31
0
  0
LINE
  8
1
 62
7
 10
201.2
 20
107
 30
0
 11
201.2
 21
66.96804165729009
 31
0
  0
LINE
  8
1
 62
7
 10
191.1000000000001
 20
112.5
 30
0
 11
191.1000000000001
 21
107.5
 31
0
  0
LINE
  8
1
 62
7
 10
191.1000000000001
 20
107.5
 30
0
 11
203.6000000000001
 21
107.5
 31
0
  0
LINE
  8
1
 62
7
 10
203.6000000000001
 20
64.49999999999997
 30
0
 11
187.6000000000001
 21
64.49999999999997
 31
0
  0
LINE
  8
1
 62
7
 10
187.6000000000001
 20
57.49999999999998
 30
0
 11
202.1000000000001
 21
57.49999999999998
 31
0
  0
LINE
  8
1
 62
7
 10
202.1000000000001
 20
57.49999999999998
 30
0
 11
202.1000000000001
 21
48.50000000000001
 31
0
  0
LINE
  8
1
 62
7
 10
202.1000000000001
 20
48.50000000000001
 30
0
 11
196.6000000000001
 21
48.50000000000001
 31
0
  0
LINE
  8
1
 62
7
 10
196.6000000000001
 20
48.50000000000001
 30
0
 11
196.6000000000001
 21
37.50000000000001
 31
0
  0
LINE
  8
1
 62
7
 10
196.6000000000001
 20
37.50000000000001
 30
0
 11
191.6999999999999
 21
37.50000000000001
 31
0
  0
LINE
  8
1
 62
7
 10
191.1000000000001
 20
112.5
 30
0
 11
207.0245735194571
 21
112.5
 31
0
  0
LINE
  8
1
 62
7
 10
207.0245735194571
 20
112.5
 30
0
 11
210.1999999999999
 21
107
 31
0
  0
LINE
  8
1
 62
7
 10
210.1999999999999
 20
107
 30
0
 11
212.9
 21
107
 31
0
  0
LINE
  8
1
 62
7
 10
212.9
 20
107
 30
0
 11
212.9
 21
53.99999999999998
 31
0
  0
LINE
  8
1
 62
7
 10
212.9
 20
53.99999999999998
 30
0
 11
209.9
 21
53.99999999999998
 31
0
  0
LINE
  8
1
 62
7
 10
209.9
 20
53.99999999999998
 30
0
 11
209.9
 21
39.00000000000001
 31
0
  0
LINE
  8
1
 62
7
 10
209.9
 20
39.00000000000001
 30
0
 11
212.6999999999999
 21
39.00000000000001
 31
0
  0
LINE
  8
1
 62
7
 10
185.3249999999999
 20
45.7966333698683
 30
0
 11
191.6999999999999
 21
45.79663336986827
 31
0
  0
LINE
  8
1
 62
7
 10
180.0749999999999
 20
45.7966333698683
 30
0
 11
173.6999999999999
 21
45.79663336986827
 31
0
  0
LINE
  8
1
 62
7
 10
180.0749999999999
 20
36.70336663013169
 30
0
 11
173.6999999999999
 21
36.70336663013172
 31
0
  0
LINE
  8
1
 62
7
 10
185.3249999999999
 20
36.70336663013169
 30
0
 11
191.6999999999999
 21
36.70336663013172
 31
0
  0
LINE
  8
1
 62
7
 10
189.9
 20
36.00000000000001
 30
0
 11
189.9
 21
46.50000000000001
 31
0
  0
LINE
  8
1
 62
7
 10
175.4999999999999
 20
36.00000000000001
 30
0
 11
175.4999999999999
 21
46.50000000000001
 31
0
  0
LINE
  8
1
 62
7
 10
175.4999999999999
 20
-46.5
 30
0
 11
175.4999999999999
 21
-36
 31
0
  0
LINE
  8
1
 62
7
 10
189.9
 20
-46.5
 30
0
 11
189.9
 21
-36
 31
0
  0
LINE
  8
1
 62
7
 10
191.6999999999999
 20
-36.70336663013174
 30
0
 11
185.3249999999999
 21
-36.70336663013171
 31
0
  0
LINE
  8
1
 62
7
 10
173.6999999999999
 20
-36.70336663013174
 30
0
 11
180.0749999999999
 21
-36.70336663013171
 31
0
  0
LINE
  8
1
 62
7
 10
173.6999999999999
 20
-45.79663336986829
 30
0
 11
180.0749999999999
 21
-45.79663336986832
 31
0
  0
LINE
  8
1
 62
7
 10
191.6999999999999
 20
-45.79663336986829
 30
0
 11
185.3249999999999
 21
-45.79663336986832
 31
0
  0
LINE
  8
1
 62
7
 10
212.6999999999999
 20
-39
 30
0
 11
209.9
 21
-39
 31
0
  0
LINE
  8
1
 62
7
 10
209.9
 20
-39
 30
0
 11
209.9
 21
-54
 31
0
  0
LINE
  8
1
 62
7
 10
209.9
 20
-54
 30
0
 11
212.9
 21
-54
 31
0
  0
LINE
  8
1
 62
7
 10
212.9
 20
-107
 30
0
 11
210.1999999999999
 21
-107
 31
0
  0
LINE
  8
1
 62
7
 10
210.1999999999999
 20
-107
 30
0
 11
207.0245735194571
 21
-112.5
 31
0
  0
LINE
  8
1
 62
7
 10
207.0245735194571
 20
-112.5
 30
0
 11
191.1000000000001
 21
-112.5
 31
0
  0
LINE
  8
1
 62
7
 10
168.6999999999999
 20
-32.5
 30
0
 11
171.1999999999999
 21
-32.5
 31
0
  0
LINE
  8
1
 62
7
 10
171.1999999999999
 20
-31
 30
0
 11
173.6999999999999
 21
-31
 31
0
  0
LINE
  8
1
 62
7
 10
191.6999999999999
 20
-37.5
 30
0
 11
196.6000000000001
 21
-37.5
 31
0
  0
LINE
  8
1
 62
7
 10
196.6000000000001
 20
-37.5
 30
0
 11
196.6000000000001
 21
-48.5
 31
0
  0
LINE
  8
1
 62
7
 10
196.6000000000001
 20
-48.5
 30
0
 11
202.1000000000001
 21
-48.5
 31
0
  0
LINE
  8
1
 62
7
 10
202.1000000000001
 20
-48.5
 30
0
 11
202.1000000000001
 21
-57.5
 31
0
  0
LINE
  8
1
 62
7
 10
202.1000000000001
 20
-57.5
 30
0
 11
187.6000000000001
 21
-57.5
 31
0
  0
LINE
  8
1
 62
7
 10
187.6000000000001
 20
-57.5
 30
0
 11
187.6000000000001
 21
-64.5
 31
0
  0
LINE
  8
1
 62
7
 10
187.6000000000001
 20
-64.5
 30
0
 11
203.6000000000001
 21
-64.5
 31
0
  0
LINE
  8
1
 62
7
 10
203.6000000000001
 20
-107.5
 30
0
 11
191.1000000000001
 21
-107.5
 31
0
  0
LINE
  8
1
 62
7
 10
201.2
 20
-67.0127505037226
 30
0
 11
201.2
 21
-107
 31
0
  0
LINE
  8
1
 62
7
 10
200.2
 20
-50
 30
0
 11
200.2
 21
-57
 31
0
  0
LINE
  8
1
 62
7
 10
194.7
 20
-45
 30
0
 11
194.7
 21
-50
 31
0
  0
LINE
  8
1
 62
7
 10
171.1999999999999
 20
-31
 30
0
 11
171.1999999999999
 21
-36.70336663013174
 31
0
  0
LINE
  8
1
 62
7
 10
171.1999999999999
 20
-36.70336663013174
 30
0
 11
173.6999999999999
 21
-36.70336663013174
 31
0
  0
LINE
  8
1
 62
7
 10
172.15
 20
-45.79663336986829
 30
0
 11
173.6999999999999
 21
-45.79663336986829
 31
0
  0
LINE
  8
1
 62
7
 10
173.6999999999999
 20
45.79663336986827
 30
0
 11
172.15
 21
45.79663336986827
 31
0
  0
LINE
  8
1
 62
7
 10
173.6999999999999
 20
36.70336663013172
 30
0
 11
171.1999999999999
 21
36.70336663013172
 31
0
  0
LINE
  8
1
 62
7
 10
171.1999999999999
 20
36.70336663013172
 30
0
 11
171.1999999999999
 21
31.00000000000001
 31
0
  0
LINE
  8
1
 62
7
 10
173.6999999999999
 20
31.00000000000001
 30
0
 11
171.1999999999999
 21
31.00000000000001
 31
0
  0
LINE
  8
1
 62
7
 10
168.7
 20
23.50000000000001
 30
0
 11
212.6999999999999
 21
23.50000000000001
 31
0
  0
LINE
  8
1
 62
7
 10
168.6999999999999
 20
-20
 30
0
 11
212.6999999999999
 21
-20
 31
0
  0
LINE
  8
1
 62
7
 10
168.7
 20
-104
 30
0
 11
168.7
 21
-41.24263336986829
 31
0
  0
LINE
  8
1
 62
7
 10
212.9
 20
-107
 30
0
 11
212.9
 21
-54
 31
0
  0
LINE
  8
1
 62
7
 10
221.5000000000001
 20
-107.5
 30
0
 11
221.5000000000001
 21
-89
 31
0
  0
LINE
  8
1
 62
7
 10
222.6999999999998
 20
78.99999999999997
 30
0
 11
222.6999999999998
 21
-106.5
 31
0
  0
LINE
  8
1
 62
7
 10
201.2
 20
66.96804165729009
 30
0
 11
185.7
 21
66.96804165729009
 31
0
  0
LINE
  8
1
 62
7
 10
185.7
 20
66.96804165729009
 30
0
 11
185.7
 21
56.99999999999998
 31
0
  0
LINE
  8
1
 62
7
 10
203.6000000000001
 20
-64.5
 30
0
 11
203.6000000000001
 21
-107.5
 31
0
  0
LINE
  8
1
 62
7
 10
201.2
 20
-67.0127505037226
 30
0
 11
185.7
 21
-67.0127505037226
 31
0
  0
LINE
  8
1
 62
7
 10
172.15
 20
-51.5
 30
0
 11
173.6999999999999
 21
-51.5
 31
0
  0
LINE
  8
1
 62
3
  6
DASHDOT
 10
0
 20
0
 30
0
 11
-6.449570030270934
 21
0
 31
0
  0
LINE
  8
1
 62
3
  6
DASHDOT
 10
55.59999999999993
 20
0
 30
0
 11
61.6856737369591
 21
0
 31
0
  0
LINE
  8
1
 62
3
  6
DASHDOT
 10
44.59999999999993
 20
-79
 30
0
 11
82.27371240521168
 21
-79
 31
0
  0
LINE
  8
1
 62
7
 10
60.49999999999993
 20
-88.5
 30
0
 11
55.59999999999993
 21
-88.5
 31
0
  0
LINE
  8
1
 62
7
 10
60.49999999999993
 20
-69.5
 30
0
 11
60.49999999999993
 21
-88.5
 31
0
  0
LINE
  8
1
 62
7
 10
55.59999999999993
 20
-69.5
 30
0
 11
60.49999999999993
 21
-69.5
 31
0
  0
LINE
  8
1
 62
7
 10
76.49999999999992
 20
-84
 30
0
 11
76.49999999999992
 21
-74
 31
0
  0
LINE
  8
1
 62
7
 10
76.49999999999992
 20
-74
 30
0
 11
60.49999999999992
 21
-74
 31
0
  0
LINE
  8
1
 62
7
 10
77.99999999999992
 20
-75.5
 30
0
 11
76.49999999999992
 21
-74
 31
0
  0
LINE
  8
1
 62
7
 10
77.99999999999992
 20
-82.5
 30
0
 11
77.99999999999992
 21
-75.5
 31
0
  0
LINE
  8
1
 62
7
 10
76.49999999999992
 20
-84
 30
0
 11
77.99999999999992
 21
-82.5
 31
0
  0
LINE
  8
1
 62
7
 10
53.99999999999991
 20
-106.5
 30
0
 11
55.59999999999993
 21
-106.5
 31
0
  0
LINE
  8
1
 62
7
 10
52.79999999999998
 20
-107.5
 30
0
 11
44.59999999999993
 21
-107.5
 31
0
  0
LINE
  8
1
 62
7
 10
53.99999999999991
 20
78.99999999999997
 30
0
 11
53.99999999999991
 21
-106.5
 31
0
  0
LINE
  8
1
 62
7
 10
58.19999999999995
 20
87.99999999999997
 30
0
 11
59.19999999999995
 21
88.99999999999997
 31
0
  0
LINE
  8
1
 62
7
 10
59.19999999999995
 20
103
 30
0
 11
58.19999999999995
 21
104
 31
0
  0
LINE
  8
1
 62
7
 10
55.39999999999989
 20
104
 30
0
 11
55.39999999999989
 21
87.99999999999997
 31
0
  0
LINE
  8
1
 62
7
 10
54.39999999999989
 20
87.99999999999997
 30
0
 11
58.19999999999995
 21
87.99999999999997
 31
0
  0
LINE
  8
1
 62
7
 10
59.19999999999995
 20
103
 30
0
 11
59.19999999999995
 21
88.99999999999997
 31
0
  0
LINE
  8
1
 62
7
 10
54.39999999999989
 20
104
 30
0
 11
58.19999999999995
 21
104
 31
0
  0
LINE
  8
1
 62
7
 10
54.39999999999989
 20
106.5
 30
0
 11
54.39999999999989
 21
83.62845421394016
 31
0
  0
LINE
  8
1
 62
7
 10
54.39999999999989
 20
83.62845421394016
 30
0
 11
55.59999999999993
 21
78.99999999999997
 31
0
  0
LINE
  8
1
 62
7
 10
52.79999999999998
 20
83.47846096908256
 30
0
 11
53.99999999999991
 21
78.99999999999997
 31
0
  0
LINE
  8
1
 62
7
 10
55.59999999999993
 20
78.99999999999997
 30
0
 11
55.59999999999993
 21
-106.5
 31
0
  0
LINE
  8
1
 62
7
 10
52.79999999999998
 20
106.5
 30
0
 11
54.39999999999989
 21
106.5
 31
0
  0
LINE
  8
1
 62
7
 10
52.79999999999998
 20
78.99999999999997
 30
0
 11
53.99999999999991
 21
78.99999999999997
 31
0
  0
LINE
  8
1
 62
7
 10
44.59999999999993
 20
107.5
 30
0
 11
52.79999999999998
 21
107.5
 31
0
  0
LINE
  8
1
 62
7
 10
44.59999999999993
 20
107.5
 30
0
 11
44.59999999999993
 21
-107.5
 31
0
  0
LINE
  8
1
 62
7
 10
11.32096831573926
 20
157.2371036949523
 30
0
 11
14.02096831573931
 21
157.2371036949523
 31
0
  0
LINE
  8
1
 62
7
 10
14.02096831573931
 20
157.2371036949523
 30
0
 11
14.02096831573931
 21
107.0000000000001
 31
0
  0
LINE
  8
1
 62
7
 10
11.32096831573926
 20
107.0000000000001
 30
0
 11
11.32096831573926
 21
157.2371036949523
 31
0
  0
LINE
  8
1
 62
7
 10
12.67096831573929
 20
160.7869128568263
 30
0
 11
12.67096831573929
 21
157.2371036949523
 31
0
  0
LINE
  8
1
 62
7
 10
13.17096831573929
 20
160.7592125154435
 30
0
 11
13.17096831573929
 21
157.2371036949523
 31
0
  0
LINE
  8
1
 62
7
 10
12.17096831573929
 20
160.7869128568263
 30
0
 11
12.17096831573929
 21
157.2371036949523
 31
0
  0
LINE
  8
1
 62
7
 10
0
 20
135
 30
0
 11
2.899999999999977
 21
135
 31
0
  0
LINE
  8
1
 62
7
 10
2.899999999999977
 20
135
 30
0
 11
2.899999999999977
 21
106.9
 31
0
  0
LINE
  8
1
 62
7
 10
0
 20
-104
 30
0
 11
3
 21
-107
 31
0
  0
LINE
  8
1
 62
7
 10
22.39999999999998
 20
112.5
 30
0
 11
38.32457351945698
 21
112.5
 31
0
  0
LINE
  8
1
 62
7
 10
38.32457351945698
 20
112.5
 30
0
 11
41.49999999999989
 21
107
 31
0
  0
LINE
  8
1
 62
7
 10
41.49999999999989
 20
107
 30
0
 11
44.19999999999993
 21
107
 31
0
  0
LINE
  8
1
 62
7
 10
44.19999999999993
 20
-107
 30
0
 11
41.49999999999989
 21
-107
 31
0
  0
LINE
  8
1
 62
7
 10
41.49999999999989
 20
-107
 30
0
 11
38.32457351945698
 21
-112.5
 31
0
  0
LINE
  8
1
 62
7
 10
38.32457351945698
 20
-112.5
 30
0
 11
22.39999999999998
 21
-112.5
 31
0
  0
LINE
  8
1
 62
7
 10
22.39999999999998
 20
-112.5
 30
0
 11
22.39999999999998
 21
112.5
 31
0
  0
LINE
  8
1
 62
7
 10
-269.6843609863566
 20
160.2319573209731
 30
0
 11
-268.4836651551519
 21
156.3294772463476
 31
0
  0
LINE
  8
1
 62
7
 10
-267.3489653725957
 20
160.8650464933781
 30
0
 11
-266.3644936556367
 21
156.8568225786063
 31
0
  0
LINE
  8
1
 62
7
 10
-267.4568246757409
 20
156.5850014141252
 30
0
 11
-254.6171425740333
 21
108.6666554575201
 31
0
  0
LINE
  8
1
 62
3
  6
DASHDOT
 10
-225.4999999999999
 20
-14.6173822322238
 30
0
 11
-225.4999999999999
 21
14.6173822322238
 31
0
  0
LINE
  8
1
 62
3
  6
DASHDOT
 10
-210.882617767776
 20
0
 30
0
 11
-240.1173822322237
 21
0
 31
0
  0
LINE
  8
1
 62
7
 10
-220.4999999999999
 20
19.36491673103709
 30
0
 11
-220.4999999999999
 21
23.50000000000001
 31
0
  0
LINE
  8
1
 62
7
 10
-230.4999999999999
 20
19.36491673103708
 30
0
 11
-230.4999999999999
 21
23.50000000000001
 31
0
  0
LINE
  8
1
 62
7
 10
-230.4999999999999
 20
23.50000000000001
 30
0
 11
-220.4999999999999
 21
23.50000000000001
 31
0
  0
LINE
  8
1
 62
7
 10
-257.2167553600585
 20
107.9365435310497
 30
0
 11
-270.0773400833182
 21
155.9328991332981
 31
0
  0
LINE
  8
1
 62
7
 10
-264.836309268164
 20
157.2371036949523
 30
0
 11
-252.0007558980976
 21
109.3341663746033
 31
0
  0
LINE
  8
1
 62
7
 10
-270.0773400833182
 20
155.9328991332981
 30
0
 11
-264.836309268164
 21
157.2371036949523
 31
0
  0
LINE
  8
1
 62
7
 10
-268.0904475808582
 20
156.4273274922637
 30
0
 11
-269.2863041365549
 21
160.3788625598965
 31
0
  0
LINE
  8
1
 62
7
 10
-268.9090204121177
 20
156.2236296972635
 30
0
 11
-270.0423360103877
 21
160.0764498103635
 31
0
  0
LINE
  8
1
 62
7
 10
-267.7693795598599
 20
160.7853212752009
 30
0
 11
-266.829254182559
 21
156.7652632448374
 31
0
  0
LINE
  8
1
 62
7
 10
-266.9634303762834
 20
160.9014400885934
 30
0
 11
-266.0185004183404
 21
156.9981421953021
 31
0
  0
LINE
  8
1
 62
7
 10
229.1999999999999
 20
-88.5
 30
0
 11
224.3
 21
-88.5
 31
0
  0
LINE
  8
1
 62
3
 10
60.49999999999993
 20
-82.5
 30
0
 11
77.99999999999992
 21
-82.5
 31
0
  0
LINE
  8
1
 62
3
 10
60.49999999999993
 20
-75.5
 30
0
 11
77.99999999999992
 21
-75.5
 31
0
  0
LINE
  8
1
 62
7
 10
41.49999999999989
 20
107
 30
0
 11
41.49999999999989
 21
-107
 31
0
  0
LINE
  8
1
 62
7
 10
38.32457351945698
 20
-112.5
 30
0
 11
38.32457351945698
 21
112.5
 31
0
  0
LINE
  8
1
 62
7
 10
3
 20
-107
 30
0
 11
22.39999999999998
 21
-107
 31
0
  0
LINE
  8
1
 62
7
 10
2.899999999999977
 20
107
 30
0
 11
22.39999999999998
 21
107
 31
0
  0
LINE
  8
1
 62
7
 10
-236.4999999999999
 20
135
 30
0
 11
-214.4999999999999
 21
135
 31
0
  0
LINE
  8
1
 62
7
 10
-237.4999999999999
 20
90.99999999999997
 30
0
 11
-237.4999999999999
 21
134
 31
0
  0
LINE
  8
1
 62
7
 10
-213.4999999999999
 20
134
 30
0
 11
-213.4999999999999
 21
90.99999999999997
 31
0
  0
LINE
  8
1
 62
3
  6
DASHDOT
 10
-220.2019313937299
 20
125
 30
0
 11
-230.7980686062699
 21
125
 31
0
  0
LINE
  8
1
 62
3
  6
DASHDOT
 10
-225.4999999999999
 20
130.29806860627
 30
0
 11
-225.4999999999999
 21
119.70193139373
 31
0
  0
LINE
  8
1
 62
7
 10
3
 20
-107
 30
0
 11
3
 21
107
 31
0
  0
LINE
  8
1
 62
7
 10
439.8977516108342
 20
135
 30
0
 11
459.8977516108342
 21
135
 31
0
  0
LINE
  8
1
 62
7
 10
437.8977516108342
 20
133
 30
0
 11
437.8977516108342
 21
111.858169125013
 31
0
  0
LINE
  8
1
 62
7
 10
481.6145069708928
 20
107.9365435310497
 30
0
 11
494.4750916941524
 21
155.9328991332981
 31
0
  0
LINE
  8
1
 62
7
 10
191.6999999999999
 20
-32.5
 30
0
 11
191.7
 21
-50
 31
0
  0
LINE
  8
1
 62
7
 10
191.7
 20
-50
 30
0
 11
173.6999999999999
 21
-50
 31
0
  0
LINE
  8
1
 62
7
 10
173.6999999999999
 20
-31
 30
0
 11
173.6999999999999
 21
-51.5
 31
0
  0
LINE
  8
1
 62
7
 10
191.6999999999999
 20
-32.5
 30
0
 11
173.6999999999999
 21
-32.5
 31
0
  0
LINE
  8
1
 62
7
 10
191.6999999999999
 20
32.50000000000001
 30
0
 11
191.7
 21
50.00000000000001
 31
0
  0
LINE
  8
1
 62
7
 10
191.7
 20
50.00000000000001
 30
0
 11
173.6999999999999
 21
50.00000000000001
 31
0
  0
LINE
  8
1
 62
7
 10
172.15
 20
50.00000000000001
 30
0
 11
168.7
 21
50
 31
0
  0
LINE
  8
1
 62
7
 10
191.6999999999999
 20
32.50000000000001
 30
0
 11
173.6999999999999
 21
32.50000000000001
 31
0
  0
LINE
  8
1
 62
7
 10
171.1999999999999
 20
32.50000000000001
 30
0
 11
168.7
 21
32.50000000000001
 31
0
  0
LINE
  8
1
 62
7
 10
173.6999999999999
 20
51.49999999999998
 30
0
 11
173.6999999999999
 21
31.00000000000001
 31
0
  0
LINE
  8
1
 62
7
 10
223.0999999999999
 20
106.5
 30
0
 11
223.0999999999999
 21
83.62845421394016
 31
0
  0
LINE
  8
1
 62
7
 10
222.6999999999998
 20
-87
 30
0
 11
221.6999999999998
 21
-87
 31
0
  0
LINE
  8
1
 62
7
 10
221.6999999999998
 20
-71
 30
0
 11
222.6999999999998
 21
-71
 31
0
  0
LINE
  8
1
 62
7
 10
221.6999999999998
 20
-70
 30
0
 11
220.8999999999998
 21
-70
 31
0
  0
LINE
  8
1
 62
7
 10
220.8999999999998
 20
-70
 30
0
 11
220.8999999999998
 21
-88
 31
0
  0
LINE
  8
1
 62
7
 10
220.8999999999998
 20
-88
 30
0
 11
221.6999999999998
 21
-88
 31
0
  0
LINE
  8
1
 62
7
 10
221.6999999999998
 20
-88
 30
0
 11
221.6999999999998
 21
-70
 31
0
  0
LINE
  8
1
 62
7
 10
215.4999999999998
 20
-74
 30
0
 11
215.4999999999998
 21
-84
 31
0
  0
LINE
  8
1
 62
7
 10
245.6999999999998
 20
-74
 30
0
 11
246.6999999999998
 21
-75
 31
0
  0
LINE
  8
1
 62
7
 10
246.6999999999998
 20
-75
 30
0
 11
246.6999999999998
 21
-83
 31
0
  0
LINE
  8
1
 62
7
 10
246.6999999999998
 20
-83
 30
0
 11
245.6999999999998
 21
-84
 31
0
  0
LINE
  8
1
 62
7
 10
245.6999999999998
 20
-84
 30
0
 11
222.6999999999998
 21
-84
 31
0
  0
LINE
  8
1
 62
7
 10
245.6999999999998
 20
-74
 30
0
 11
245.6999999999998
 21
-84
 31
0
  0
LINE
  8
1
 62
3
 10
246.6999999999998
 20
-75
 30
0
 11
223.9320508075687
 21
-75
 31
0
  0
LINE
  8
1
 62
3
 10
223.9320508075687
 20
-75
 30
0
 11
222.6999999999998
 21
-74.28867513459483
 31
0
  0
LINE
  8
1
 62
3
 10
246.6999999999998
 20
-83
 30
0
 11
223.9320508075687
 21
-83
 31
0
  0
LINE
  8
1
 62
3
 10
223.9320508075687
 20
-83
 30
0
 11
222.6999999999998
 21
-83.71132486540517
 31
0
  0
LINE
  8
1
 62
3
 10
223.9320508075687
 20
-74
 30
0
 11
223.9320508075687
 21
-84
 31
0
  0
LINE
  8
1
 62
7
 10
222.6999999999998
 20
-74
 30
0
 11
245.6999999999998
 21
-74
 31
0
  0
LINE
  8
1
 62
7
 10
172.15
 20
-51.5
 30
0
 11
172.15
 21
-41.24263336986829
 31
0
  0
LINE
  8
1
 62
7
 10
168.6999999999999
 20
-32.5
 30
0
 11
168.7
 21
32.50000000000001
 31
0
  0
LINE
  8
1
 62
7
 10
168.6999999999999
 20
41.24263336986829
 30
0
 11
168.7
 21
135
 31
0
  0
LINE
  8
1
 62
7
 10
0
 20
-104
 30
0
 11
0
 21
135
 31
0
  0
LINE
  8
1
 62
7
 10
0
 20
104
 30
0
 11
3
 21
107
 31
0
  0
LINE
  8
1
 62
7
 10
44.19999999999993
 20
-107
 30
0
 11
44.19999999999993
 21
107
 31
0
  0
LINE
  8
1
 62
7
 10
76.49999999999992
 20
-84
 30
0
 11
60.49999999999993
 21
-84
 31
0
  0
LINE
  8
1
 62
7
 10
212.6999999999999
 20
20
 30
0
 11
168.6999999999999
 21
20
 31
0
  0
ARC
  8
1
 62
3
  6
DASHDOT
 10
449.8977516108342
 20
0
 30
0
 40
79
 50
140.0360628802878
 51
159.7260338721927
  0
ARC
  8
1
 62
3
  6
DASHDOT
 10
449.8977516108342
 20
0
 30
0
 40
79.0000000000001
 50
257.1134247506369
 51
281.4057526860295
  0
ARC
  8
1
 62
3
  6
DASHDOT
 10
449.8977516108342
 20
0
 30
0
 40
78.99999999999993
 50
19.3514530498621
 51
40.58282284999323
  0
ARC
  8
1
 62
7
 10
449.8977516108342
 20
0
 30
0
 40
20
 50
104.4775121859299
 51
75.52248781407008
  0
ARC
  8
1
 62
7
 10
449.8977516108342
 20
0
 30
0
 40
79.00000000000001
 50
167.4350626965633
 51
252.5649373034367
  0
ARC
  8
1
 62
7
 10
449.8977516108342
 20
0
 30
0
 40
79.00000000000004
 50
287.4350626965633
 51
12.56493730343676
  0
ARC
  8
1
 62
7
 10
449.8977516108342
 20
0
 30
0
 40
78.99999999999997
 50
47.43506269656329
 51
132.5649373034367
  0
ARC
  8
1
 62
7
 10
552.0887492573979
 20
58.99999999999998
 30
0
 40
24.76721550183341
 50
182.704702857163
 51
237.2952971428371
  0
ARC
  8
1
 62
7
 10
506.3977516108342
 20
-4.973799150320701e-014
 30
0
 40
49.99999999999994
 50
359.9999999999999
 51
49.74573655507815
  0
ARC
  8
1
 62
7
 10
502.1979732606508
 20
-4.5756764942521
 30
0
 40
32.99999999999989
 50
354.9999999999999
 51
75.4143167381765
  0
ARC
  8
1
 62
7
 10
449.8977516108342
 20
0
 30
0
 40
85.49999999999994
 50
304.9999999999999
 51
354.9999999999999
  0
ARC
  8
1
 62
7
 10
449.8977516108342
 20
0
 30
0
 40
106.5
 50
300.0000000000001
 51
359.9999999999999
  0
ARC
  8
1
 62
7
 10
449.8977516108342
 20
0
 30
0
 40
106.5
 50
59.99999999999999
 51
120
  0
ARC
  8
1
 62
7
 10
472.0852103522209
 20
47.58115881942411
 30
0
 40
33.00000000000007
 50
344.5856832618236
 51
65.00000000000007
  0
ARC
  8
1
 62
7
 10
478.1477516108342
 20
48.93043531382077
 30
0
 40
49.99999999999997
 50
10.25426344492184
 51
59.99999999999999
  0
ARC
  8
1
 62
7
 10
449.8977516108342
 20
-118
 30
0
 40
24.7672155018334
 50
62.70470285716305
 51
117.2952971428374
  0
ARC
  8
1
 62
7
 10
421.6477516108342
 20
-48.93043531382077
 30
0
 40
49.99999999999996
 50
240
 51
289.7457365550779
  0
ARC
  8
1
 62
7
 10
419.7849887024042
 20
-43.00548232517206
 30
0
 40
32.99999999999995
 50
235.0000000000001
 51
315.4143167381761
  0
ARC
  8
1
 62
7
 10
449.8977516108342
 20
0
 30
0
 40
85.50000000000003
 50
185.0000000000001
 51
235
  0
ARC
  8
1
 62
7
 10
449.8977516108342
 20
0
 30
0
 40
66.50000000000006
 50
264.2953667715586
 51
275.704633228441
  0
ARC
  8
1
 62
7
 10
480.010514519264
 20
-43.00548232517207
 30
0
 40
33.00000000000009
 50
224.5856832618235
 51
304.9999999999998
  0
ARC
  8
1
 62
7
 10
478.1477516108342
 20
-48.93043531382078
 30
0
 40
50.00000000000001
 50
250.2542634449219
 51
300.0000000000001
  0
ARC
  8
1
 62
7
 10
393.3977516108342
 20
-2.131628207280301e-014
 30
0
 40
50.00000000000001
 50
130.2542634449218
 51
180
  0
ARC
  8
1
 62
7
 10
397.5975299610175
 20
-4.575676494252072
 30
0
 40
32.99999999999999
 50
104.5856832618236
 51
185.0000000000001
  0
ARC
  8
1
 62
7
 10
449.8977516108342
 20
0
 30
0
 40
106.5
 50
180
 51
240
  0
ARC
  8
1
 62
7
 10
449.8977516108342
 20
0
 30
0
 40
85.49999999999999
 50
65.00000000000003
 51
115
  0
ARC
  8
1
 62
7
 10
449.8977516108342
 20
0
 30
0
 40
66.50000000000007
 50
144.2953667715589
 51
155.7046332284412
  0
ARC
  8
1
 62
7
 10
427.7102928694474
 20
47.58115881942414
 30
0
 40
32.99999999999992
 50
114.9999999999999
 51
195.4143167381764
  0
ARC
  8
1
 62
7
 10
421.6477516108342
 20
48.9304353138208
 30
0
 40
49.99999999999999
 50
120
 51
169.7457365550782
  0
ARC
  8
1
 62
7
 10
347.7067539642704
 20
58.99999999999998
 30
0
 40
24.76721550183341
 50
302.7047028571631
 51
357.2952971428371
  0
ARC
  8
1
 62
7
 10
459.8977516108342
 20
133
 30
0
 40
2
 50
0
 51
90
  0
ARC
  8
1
 62
7
 10
439.8977516108342
 20
133
 30
0
 40
2
 50
90
 51
180
  0
ARC
  8
1
 62
7
 10
-225.4999999999999
 20
0
 30
0
 40
19.99999999999999
 50
104.4775121859299
 51
75.52248781407008
  0
ARC
  8
1
 62
7
 10
-225.4999999999999
 20
90.99999999999997
 30
0
 40
12
 50
180
 51
0
  0
ARC
  8
1
 62
7
 10
-225.4999999999999
 20
0
 30
0
 40
112.5000000000002
 50
96.12319886626939
 51
83.8768011337306
  0
ARC
  8
1
 62
7
 10
-225.4999999999999
 20
0
 30
0
 40
107.5
 50
96.40916578708128
 51
83.59083421291874
  0
ARC
  8
1
 62
7
 10
-214.4999999999999
 20
134
 30
0
 40
1
 50
0
 51
90
  0
ARC
  8
1
 62
7
 10
-236.4999999999999
 20
134
 30
0
 40
1
 50
90
 51
180
  0
ARC
  8
1
 62
7
 10
449.8977516108342
 20
0
 30
0
 40
66.49999999999986
 50
24.29536677155878
 51
35.7046332284411
  0
ARC
  8
1
 62
7
 10
223.8062093880259
 20
-79.56838267383519
 30
0
 40
10.00000000000002
 50
106.8951343742601
 51
146.1625763597105
  0
ARC
  8
1
 62
7
 10
223.8062093880259
 20
-78.43161732616481
 30
0
 40
10.00000000000005
 50
213.8374236402895
 51
253.1048656257399
  0
CIRCLE
  8
1
 62
7
 10
449.8977516108342
 20
125
 30
0
 40
4.25
  0
CIRCLE
  8
1
 62
7
 10
449.8977516108342
 20
0
 30
0
 40
112.4999999999999
  0
CIRCLE
  8
1
 62
7
 10
449.8977516108342
 20
0
 30
0
 40
107.4999999999999
  0
CIRCLE
  8
1
 62
7
 10
518.3137585098048
 20
39.49999999999998
 30
0
 40
4
  0
CIRCLE
  8
1
 62
7
 10
449.8977516108341
 20
-79
 30
0
 40
4.000000000000057
  0
CIRCLE
  8
1
 62
7
 10
518.3137585098048
 20
39.49999999999998
 30
0
 40
5
  0
CIRCLE
  8
1
 62
7
 10
449.8977516108341
 20
-79
 30
0
 40
5
  0
CIRCLE
  8
1
 62
7
 10
518.3137585098048
 20
39.49999999999998
 30
0
 40
9.5
  0
CIRCLE
  8
1
 62
7
 10
449.8977516108341
 20
-79
 30
0
 40
9.500000000000057
  0
CIRCLE
  8
1
 62
7
 10
533.0361903741402
 20
-48.00000000000006
 30
0
 40
8
  0
CIRCLE
  8
1
 62
7
 10
366.759312847528
 20
-47.99999999999998
 30
0
 40
8
  0
CIRCLE
  8
1
 62
7
 10
381.4817447118635
 20
39.50000000000001
 30
0
 40
4
  0
CIRCLE
  8
1
 62
7
 10
381.4817447118635
 20
39.50000000000001
 30
0
 40
5
  0
CIRCLE
  8
1
 62
7
 10
381.4817447118635
 20
39.50000000000001
 30
0
 40
9.5
  0
CIRCLE
  8
1
 62
7
 10
449.8977516108342
 20
95.99999999999997
 30
0
 40
8
  0
CIRCLE
  8
1
 62
7
 10
-225.4999999999999
 20
125
 30
0
 40
4.25
  0
CIRCLE
  8
1
 62
7
 10
-225.4999999999999
 20
90.99999999999997
 30
0
 40
6
  0
CIRCLE
  8
1
 62
7
 10
-225.4999999999999
 20
0
 30
0
 40
32.5
  0
CIRCLE
  8
1
 62
7
 10
-225.4999999999999
 20
0
 30
0
 40
50
  0
CIRCLE
  8
1
 62
7
 10
449.8977516108342
 20
0
 30
0
 40
39
  0
CIRCLE
  8
1
 62
7
 10
449.8977516108342
 20
0
 30
0
 40
53.5
  0
CIRCLE
  8
1
 62
7
 10
182.6999999999999
 20
-41.25
 30
0
 40
5.250000000000012
  0
CIRCLE
  8
1
 62
7
 10
182.6999999999999
 20
41.25000000000001
 30
0
 40
5.249999999999994
  0
TEXT
  8
1
 62
7
 10
-317.492937032705
 20
239.8451163085751
 30
0
 40
12
  1
TMC 20
 41
0.9
  7
SIMPLEX
  0
TEXT
  8
1
 62
7
 10
-315.494072195628
 20
217.8490893788041
 30
0
 40
12
  1
DC1406
 41
0.9
  7
SIMPLEX
  0
ENDSEC
  0
EOF
