  0
SECTION
  2
HEADER
  9
$ACADVER
  1
AC1009
  9
$INSBASE
 10
0
 20
0
  9
$EXTMIN
 10
-64.9397647420551
 20
-42.5
  9
$EXTMAX
 10
132.6987036217407
 20
82.88979613485446
  9
$LIMMIN
 10
-64.9397647420551
 20
-42.5
  9
$LIMMAX
 10
132.6987036217407
 20
82.88979613485446
  9
$VIEWCTR
 10
10
 20
10
  9
$VIEWSIZE
 40
10
  9
$SNAPMODE
 70
0
  9
$SNAPUNIT
 10
1
 20
1
  9
$SNAPBASE
 10
0
 20
0
  9
$SNAPANG
 50
0
  9
$SNAPSTYLE
 70
0
  9
$SNAPISOPAIR
 70
0
  9
$GRIDMODE
 70
0
  9
$GRIDUNIT
 10
0
 20
0
  9
$ORTHOMODE
 70
0
  9
$REGENMODE
 70
1
  9
$FILLMODE
 70
1
  9
$QTEXTMODE
 70
0
  9
$DRAGMODE
 70
2
  9
$LTSCALE
 40
1
  9
$OSMODE
 70
0
  9
$ATTMODE
 70
1
  9
$TEXTSIZE
 40
3.5
  9
$TRACEWID
 40
0.5
  9
$TEXTSTYLE
  7
STANDARD
  9
$CLAYER
  8
0
  9
$CELTYPE
  6
BYLAYER
  9
$CECOLOR
 62
256
  9
$DIMSCALE
 40
1
  9
$DIMASZ
 40
0.18
  9
$DIMEXO
 40
0.0625
  9
$DIMDLI
 40
0.38
  9
$DIMRND
 40
0
  9
$DIMDLE
 40
0
  9
$DIMEXE
 40
0.18
  9
$DIMTP
 40
0
  9
$DIMTM
 40
0
  9
$DIMTXT
 40
0.18
  9
$DIMCEN
 40
0.09
  9
$DIMTSZ
 40
0
  9
$DIMTOL
 70
0
  9
$DIMLIM
 70
0
  9
$DIMTIH
 70
1
  9
$DIMTOH
 70
1
  9
$DIMSE1
 70
0
  9
$DIMSE2
 70
0
  9
$DIMTAD
 70
0
  9
$DIMZIN
 70
0
  9
$DIMBLK
  1

  9
$DIMASO
 70
1
  9
$DIMSHO
 70
1
  9
$DIMPOST
  1

  9
$DIMAPOST
  1

  9
$DIMALT
 70
0
  9
$DIMALTD
 70
2
  9
$DIMALTF
 40
25.4
  9
$DIMLFAC
 40
1
  9
$DIMTOFL
 70
0
  9
$DIMTVP
 40
0
  9
$DIMTIX
 70
0
  9
$DIMSOXD
 70
0
  9
$DIMSAH
 70
0
  9
$DIMBLK1
  1

  9
$DIMBLK2
  1

  9
$DIMSTYLE
  2
*UNNAMED
  9
$DIMCLRD
 70
0
  9
$DIMCLRE
 70
0
  9
$DIMCLRT
 70
0
  9
$DIMTFAC
 40
1
  9
$DIMGAP
 40
0.09
  9
$LUNITS
 70
2
  9
$LUPREC
 70
4
  9
$AXISMODE
 70
0
  9
$AXISUNIT
 10
0
 20
0
  9
$SKETCHINC
 40
0.1
  9
$FILLETRAD
 40
2
  9
$AUNITS
 70
0
  9
$AUPREC
 70
0
  9
$MENU
  1
ACAD
  9
$ELEVATION
 40
0
  9
$THICKNESS
 40
0
  9
$VIEWDIR
 10
0
 20
0
 30
1
  9
$LIMCHECK
 70
0
  9
$BLIPMODE
 70
1
  9
$CHAMFERA
 40
0
  9
$CHAMFERB
 40
0
  9
$FASTZOOM
 70
1
  9
$SKPOLY
 70
0
  9
$ANGBASE
 50
0
  9
$ANGDIR
 70
0
  9
$PDMODE
 70
0
  9
$PDSIZE
 40
0
  9
$PLINEWID
 40
0
  9
$COORDS
 70
2
  0
ENDSEC
  0
SECTION
  2
TABLES
  0
TABLE
  2
DIMSTYLE
 70
0
  0
ENDTAB
  0
TABLE
  2
LTYPE
 70
9
  0
LTYPE
  2
CONTINUOUS
 70
64
  3
Solid line
 72
65
 73
0
 40
0
  0
LTYPE
  2
BORDER
 70
64
  3
__ __ . __ __ .
 72
65
 73
6
 40
9.101771569385333
 49
2.600506162681524
 49
-1.300253081340762
 49
2.600506162681524
 49
-1.300253081340762
 49
0
 49
-1.300253081340762
  0
LTYPE
  2
CENTER
 70
64
  3
____ _ ____ _
 72
65
 73
4
 40
10.40202465072609
 49
6.501265406703809
 49
-1.300253081340762
 49
1.300253081340762
 49
-1.300253081340762
  0
LTYPE
  2
DASHDOT
 70
64
  3
__ . __ . __ .
 72
65
 73
4
 40
5.201012325363047
 49
2.600506162681524
 49
-1.300253081340762
 49
0
 49
-1.300253081340762
  0
LTYPE
  2
DASHED
 70
64
  3
__ __ __ __ __
 72
65
 73
2
 40
3.900759244022285
 49
2.600506162681524
 49
-1.300253081340762
  0
LTYPE
  2
DIVIDE
 70
64
  3
__ . . __ . . 
 72
65
 73
6
 40
6.501265406703809
 49
2.600506162681524
 49
-1.300253081340762
 49
0
 49
-1.300253081340762
 49
0
 49
-1.300253081340762
  0
LTYPE
  2
DOT
 70
64
  3
..............
 72
65
 73
4
 40
2.600506162681524
 49
0
 49
-1.300253081340762
 49
0
 49
-1.300253081340762
  0
LTYPE
  2
HIDDEN
 70
64
  3
_ _ _ _ _ _ _
 72
65
 73
2
 40
1.950379622011143
 49
1.300253081340762
 49
-0.6501265406703809
  0
LTYPE
  2
PHANTOM
 70
64
  3
_____ _ _ _____ _ _ 
 72
65
 73
6
 40
13.00253081340762
 49
6.501265406703809
 49
-1.300253081340762
 49
1.300253081340762
 49
-1.300253081340762
 49
1.300253081340762
 49
-1.300253081340762
  0
ENDTAB
  0
TABLE
  2
LAYER
 70
3
  0
LAYER
  2
1
 70
0
 62
7
  6
CONTINUOUS
  0
LAYER
  2
0
 70
0
 62
7
  6
CONTINUOUS
  0
ENDTAB
  0
TABLE
  2
STYLE
 70
4
  0
STYLE
  2
STANDARD
 70
0
 40
0
 41
1
 50
0
 71
0
 42
3.5
  3
txt
  4

  0
STYLE
  2
SIMPLEX
 70
0
 40
0
 41
1
 50
0
 71
0
 42
3.5
  3
simplex
  4

  0
STYLE
  2
COMPLEX
 70
0
 40
0
 41
1
 50
0
 71
0
 42
3.5
  3
complex
  4

  0
STYLE
  2
ITALIC
 70
0
 40
0
 41
1
 50
0
 71
0
 42
3.5
  3
italic
  4

  0
ENDTAB
  0
TABLE
  2
VIEW
 70
0
  0
ENDTAB
  0
ENDSEC
  0
SECTION
  2
BLOCKS
  0
ENDSEC
  0
SECTION
  2
ENTITIES
  0
POINT
  8
1
 62
7
  6
DOT
 10
76.76214697787151
 20
9.521585786939966
 30
0
  0
LINE
  8
1
 62
7
 10
-50.69999999999997
 20
-33
 30
0
 11
-54.50115446600329
 21
-33
 31
0
  0
LINE
  8
1
 62
7
 10
-50.69999999999997
 20
32.85
 30
0
 11
-49.49999999999993
 21
32.85000000000002
 31
0
  0
LINE
  8
1
 62
7
 10
-50.69999999999997
 20
33.00000000000004
 30
0
 11
-50.69999999999997
 21
32.85
 31
0
  0
LINE
  8
1
 62
7
 10
-50.69999999999997
 20
-33
 30
0
 11
-50.69999999999997
 21
-32.85
 31
0
  0
LINE
  8
1
 62
7
 10
-38.99999999999997
 20
33
 30
0
 11
-38.99999999999997
 21
-33
 31
0
  0
LINE
  8
1
 62
7
 10
-54.19999999999995
 20
53.32244667880207
 30
0
 11
-55.79999999999994
 21
53.32244667880207
 31
0
  0
LINE
  8
1
 62
7
 10
97.19870362174073
 20
52.48895296070839
 30
0
 11
97.19870362174073
 21
54.23894571604291
 31
0
  0
LINE
  8
1
 62
7
 10
96.89870362174074
 20
52.48895296070839
 30
0
 11
96.89870362174074
 21
54.23894571604291
 31
0
  0
LINE
  8
1
 62
7
 10
96.59870362174074
 20
52.48895296070839
 30
0
 11
96.59870362174074
 21
54.23894571604291
 31
0
  0
LINE
  8
1
 62
3
 10
28.23923048454134
 20
-21.5
 30
0
 11
28.23923048454134
 21
-24.5
 31
0
  0
LINE
  8
1
 62
3
 10
28.23923048454134
 20
-23.9
 30
0
 11
27.20000000000001
 21
-24.5
 31
0
  0
LINE
  8
1
 62
3
 10
34.70000000000002
 20
-23.9
 30
0
 11
28.23923048454134
 21
-23.9
 31
0
  0
LINE
  8
1
 62
3
 10
28.23923048454134
 20
-22.1
 30
0
 11
27.20000000000001
 21
-21.5
 31
0
  0
LINE
  8
1
 62
3
 10
34.70000000000002
 20
-22.1
 30
0
 11
28.23923048454134
 21
-22.1
 31
0
  0
LINE
  8
1
 62
7
 10
34.10000000000002
 20
-21.5
 30
0
 11
34.10000000000002
 21
-24.5
 31
0
  0
LINE
  8
1
 62
7
 10
34.10000000000002
 20
-24.5
 30
0
 11
27.20000000000001
 21
-24.5
 31
0
  0
LINE
  8
1
 62
7
 10
34.70000000000002
 20
-23.9
 30
0
 11
34.10000000000002
 21
-24.5
 31
0
  0
LINE
  8
1
 62
7
 10
34.70000000000002
 20
-22.1
 30
0
 11
34.70000000000002
 21
-23.9
 31
0
  0
LINE
  8
1
 62
7
 10
34.10000000000002
 20
-21.5
 30
0
 11
34.70000000000002
 21
-22.1
 31
0
  0
LINE
  8
1
 62
7
 10
27.20000000000001
 20
-21.5
 30
0
 11
34.10000000000002
 21
-21.5
 31
0
  0
LINE
  8
1
 62
7
 10
24.55000000000001
 20
-21.5
 30
0
 11
24.55000000000001
 21
-24.5
 31
0
  0
LINE
  8
1
 62
7
 10
26.70000000000001
 20
-25.75
 30
0
 11
26.70000000000001
 21
-20.25
 31
0
  0
LINE
  8
1
 62
7
 10
26.30000000000001
 20
-25.75
 30
0
 11
26.70000000000001
 21
-25.75
 31
0
  0
LINE
  8
1
 62
7
 10
26.30000000000001
 20
-20.25
 30
0
 11
26.30000000000001
 21
-25.75
 31
0
  0
LINE
  8
1
 62
7
 10
26.70000000000001
 20
-20.25
 30
0
 11
26.30000000000001
 21
-20.25
 31
0
  0
LINE
  8
1
 62
7
 10
26.70000000000001
 20
-20.25
 30
0
 11
27.20000000000001
 21
-20.25
 31
0
  0
LINE
  8
1
 62
7
 10
27.20000000000001
 20
-25.75
 30
0
 11
26.70000000000001
 21
-25.75
 31
0
  0
LINE
  8
1
 62
7
 10
11.9
 20
-33
 30
0
 11
8.098845533996695
 21
-33
 31
0
  0
LINE
  8
1
 62
7
 10
11.9
 20
-32.85
 30
0
 11
18.9
 21
-32.85
 31
0
  0
LINE
  8
1
 62
7
 10
11.9
 20
-33
 30
0
 11
11.9
 21
-32.85
 31
0
  0
LINE
  8
1
 62
7
 10
13.09999999999999
 20
33.35
 30
0
 11
13.09999999999999
 21
35
 31
0
  0
LINE
  8
1
 62
7
 10
11.9
 20
33.00000000000004
 30
0
 11
8.098845533996695
 21
33.00000000000006
 31
0
  0
LINE
  8
1
 62
7
 10
18.9
 20
32.85
 30
0
 11
18.9
 21
18.5
 31
0
  0
LINE
  8
1
 62
7
 10
11.9
 20
32.85
 30
0
 11
18.9
 21
32.85
 31
0
  0
LINE
  8
1
 62
7
 10
11.9
 20
33.00000000000004
 30
0
 11
11.9
 21
32.85
 31
0
  0
LINE
  8
1
 62
7
 10
23.60000000000001
 20
-16.666
 30
0
 11
23.60000000000001
 21
-33
 31
0
  0
LINE
  8
1
 62
7
 10
23.60000000000001
 20
33
 30
0
 11
23.60000000000001
 21
16.66600000000001
 31
0
  0
LINE
  8
1
 62
7
 10
26.8
 20
-26.25
 30
0
 11
26.8
 21
-33.5
 31
0
  0
LINE
  8
1
 62
3
  6
DASHDOT
 10
97.69870362174072
 20
3.770951999571594
 30
0
 11
97.69870362174072
 21
-3.770951999571594
 31
0
  0
LINE
  8
1
 62
3
  6
DASHDOT
 10
101.4696556213123
 20
0
 30
0
 11
93.9277516221691
 21
0
 31
0
  0
LINE
  8
1
 62
7
 10
3.400000000000006
 20
-5.999999990676429
 30
0
 11
23.40000000000001
 21
-5.999999990676429
 31
0
  0
LINE
  8
1
 62
7
 10
-49.49999999999993
 20
-35
 30
0
 11
-40.95470053837916
 21
-35
 31
0
  0
LINE
  8
1
 62
7
 10
-49.49999999999993
 20
35
 30
0
 11
-40.95470053837916
 21
35
 31
0
  0
LINE
  8
1
 62
7
 10
13.09999999999999
 20
-35
 30
0
 11
21.64529946162079
 21
-35
 31
0
  0
LINE
  8
1
 62
7
 10
13.09999999999999
 20
35
 30
0
 11
21.64529946162079
 21
35
 31
0
  0
LINE
  8
1
 62
7
 10
0
 20
-17.5
 30
0
 11
2.000000000000099
 21
-17.5
 31
0
  0
LINE
  8
1
 62
7
 10
0
 20
17.5
 30
0
 11
2
 21
17.5
 31
0
  0
LINE
  8
1
 62
3
  6
DASHDOT
 10
23.3910277017474
 20
-23
 30
0
 11
35.6133175759031
 21
-23
 31
0
  0
LINE
  8
1
 62
7
 10
21.64529946162079
 20
-35
 30
0
 11
22.80000000000001
 21
-33
 31
0
  0
LINE
  8
1
 62
7
 10
13.09999999999999
 20
-35
 30
0
 11
13.09999999999999
 21
-33.35
 31
0
  0
LINE
  8
1
 62
7
 10
20.09999999999999
 20
-33.35
 30
0
 11
13.09999999999999
 21
-33.35
 31
0
  0
LINE
  8
1
 62
7
 10
20.09999999999999
 20
-18.00000000000005
 30
0
 11
13.09999999999999
 21
-18.00000000000005
 31
0
  0
LINE
  8
1
 62
7
 10
13.09999999999999
 20
-18.00000000000005
 30
0
 11
13.09999999999999
 21
-11.5
 31
0
  0
LINE
  8
1
 62
7
 10
20.09999999999999
 20
-33.35
 30
0
 11
20.09999999999999
 21
-18.00000000000005
 31
0
  0
LINE
  8
1
 62
7
 10
23.40000000000001
 20
-15.5
 30
0
 11
23.40000000000001
 21
15.5
 31
0
  0
LINE
  8
1
 62
7
 10
22.80000000000001
 20
-18
 30
0
 11
23.60000000000001
 21
-18
 31
0
  0
LINE
  8
1
 62
7
 10
22.80000000000001
 20
-15.5
 30
0
 11
22.80000000000001
 21
-18
 31
0
  0
LINE
  8
1
 62
7
 10
22.80000000000001
 20
18
 30
0
 11
22.80000000000001
 21
15.5
 31
0
  0
LINE
  8
1
 62
7
 10
23.60000000000001
 20
18
 30
0
 11
22.80000000000001
 21
18
 31
0
  0
LINE
  8
1
 62
7
 10
20.09999999999999
 20
18
 30
0
 11
20.09999999999999
 21
33.35
 31
0
  0
LINE
  8
1
 62
7
 10
13.09999999999999
 20
18
 30
0
 11
20.09999999999999
 21
18
 31
0
  0
LINE
  8
1
 62
7
 10
13.09999999999999
 20
33.35
 30
0
 11
20.09999999999999
 21
33.35
 31
0
  0
LINE
  8
1
 62
7
 10
22.80000000000001
 20
33
 30
0
 11
21.64529946162079
 21
35
 31
0
  0
LINE
  8
1
 62
7
 10
23.60000000000001
 20
33
 30
0
 11
22.80000000000001
 21
33
 31
0
  0
LINE
  8
1
 62
7
 10
13.09999999999999
 20
18
 30
0
 11
13.09999999999999
 21
11.5
 31
0
  0
LINE
  8
1
 62
7
 10
3.400000000000006
 20
7.5
 30
0
 11
23.40000000000001
 21
7.5
 31
0
  0
LINE
  8
1
 62
7
 10
3.400000000000006
 20
6
 30
0
 11
23.40000000000001
 21
6
 31
0
  0
LINE
  8
1
 62
7
 10
22.80000000000001
 20
15.5
 30
0
 11
23.40000000000001
 21
15.5
 31
0
  0
LINE
  8
1
 62
7
 10
22.80000000000001
 20
-15.5
 30
0
 11
23.40000000000001
 21
-15.5
 31
0
  0
LINE
  8
1
 62
7
 10
3.400000000000006
 20
11.5
 30
0
 11
13.09999999999999
 21
11.5
 31
0
  0
LINE
  8
1
 62
7
 10
3.400000000000006
 20
-11.5
 30
0
 11
3.400000000000006
 21
11.5
 31
0
  0
LINE
  8
1
 62
7
 10
13.09999999999999
 20
-11.5
 30
0
 11
3.400000000000006
 21
-11.5
 31
0
  0
LINE
  8
1
 62
7
 10
2.000000000000099
 20
-42.5
 30
0
 11
2
 21
31
 31
0
  0
LINE
  8
1
 62
7
 10
0
 20
31
 30
0
 11
0
 21
-42.5
 31
0
  0
LINE
  8
1
 62
7
 10
6.800000000000011
 20
32.8866772150148
 30
0
 11
6.800000000000011
 21
53.32244667880207
 31
0
  0
LINE
  8
1
 62
7
 10
18.9
 20
-18.5
 30
0
 11
18.9
 21
-32.85
 31
0
  0
LINE
  8
1
 62
7
 10
18.9
 20
-18.5
 30
0
 11
3.634743918859016
 21
-18.5
 31
0
  0
LINE
  8
1
 62
7
 10
18.9
 20
18.5
 30
0
 11
3.634743918858902
 21
18.5
 31
0
  0
LINE
  8
1
 62
3
  6
DASHDOT
 10
121.7646761919964
 20
-24.06597257025561
 30
0
 11
126.4946153176189
 21
-28.7959116958782
 31
0
  0
LINE
  8
1
 62
3
  6
DASHDOT
 10
68.85556214046849
 20
-28.84314148127214
 30
0
 11
73.65826956033152
 21
-24.0404340614092
 31
0
  0
LINE
  8
1
 62
3
  6
DASHDOT
 10
68.71658969078311
 20
28.98211393095767
 30
0
 11
73.59206540488631
 21
24.10663821685438
 31
0
  0
LINE
  8
1
 62
3
  6
DASHDOT
 10
121.7581120532011
 20
24.0594084314605
 30
0
 11
126.7063560615448
 21
29.00765243980419
 31
0
  0
LINE
  8
1
 62
7
 10
7.158304068081918
 20
53.32244667880207
 30
0
 11
7.158304068081918
 21
54.67288306339736
 31
0
  0
LINE
  8
1
 62
7
 10
8.040024316675499
 20
53.32244667880207
 30
0
 11
8.040024316675499
 21
54.68393626025926
 31
0
  0
LINE
  8
1
 62
7
 10
7.599999999999994
 20
53.32244667880207
 30
0
 11
7.599999999999994
 21
54.69498945712115
 31
0
  0
LINE
  8
1
 62
7
 10
28.49999999999999
 20
32
 30
0
 11
27.20000000000001
 21
32
 31
0
  0
LINE
  8
1
 62
7
 10
28.49999999999999
 20
26
 30
0
 11
28.8
 21
26.29999999999995
 31
0
  0
LINE
  8
1
 62
7
 10
28.49999999999999
 20
32
 30
0
 11
28.80000000000001
 21
31.7000000000001
 31
0
  0
LINE
  8
1
 62
7
 10
27.20000000000001
 20
26
 30
0
 11
28.49999999999999
 21
26
 31
0
  0
LINE
  8
1
 62
7
 10
27.70000000000001
 20
26
 30
0
 11
27.70000000000001
 21
32
 31
0
  0
LINE
  8
1
 62
7
 10
28.80000000000001
 20
31.7000000000001
 30
0
 11
28.8
 21
26.29999999999995
 31
0
  0
LINE
  8
1
 62
7
 10
23.8
 20
-17.5
 30
0
 11
27.20000000000001
 21
-17.5
 31
0
  0
LINE
  8
1
 62
7
 10
23.8
 20
-33.5
 30
0
 11
26.8
 21
-33.5
 31
0
  0
LINE
  8
1
 62
7
 10
23.80000000000001
 20
17.5
 30
0
 11
27.20000000000001
 21
17.5
 31
0
  0
LINE
  8
1
 62
7
 10
26.8
 20
23
 30
0
 11
27.20000000000001
 21
23
 31
0
  0
LINE
  8
1
 62
7
 10
23.8
 20
33.5
 30
0
 11
26.8
 21
33.5
 31
0
  0
LINE
  8
1
 62
7
 10
27.20000000000002
 20
32.75
 30
0
 11
27.20000000000001
 21
24.54548132206247
 31
0
  0
LINE
  8
1
 62
7
 10
27.20000000000001
 20
24.54548132206247
 30
0
 11
27.59999999999999
 21
23.05266099903506
 31
0
  0
LINE
  8
1
 62
7
 10
27.20000000000001
 20
23
 30
0
 11
26.80000000000001
 21
24.49282032302756
 31
0
  0
LINE
  8
1
 62
7
 10
26.8
 20
25.25
 30
0
 11
27.20000000000001
 21
25.25
 31
0
  0
LINE
  8
1
 62
7
 10
23.8
 20
-19.75
 30
0
 11
27.20000000000001
 21
-19.75
 31
0
  0
LINE
  8
1
 62
7
 10
23.8
 20
-26.25
 30
0
 11
26.8
 21
-26.25
 31
0
  0
LINE
  8
1
 62
7
 10
27.20000000000001
 20
23
 30
0
 11
27.20000000000001
 21
-32.75
 31
0
  0
LINE
  8
1
 62
7
 10
27.20000000000001
 20
-32.75
 30
0
 11
27.59999999999999
 21
-32.75
 31
0
  0
LINE
  8
1
 62
7
 10
27.20000000000001
 20
-18
 30
0
 11
27.59999999999999
 21
-18
 31
0
  0
LINE
  8
1
 62
7
 10
28.9
 20
-24.5
 30
0
 11
28.90000000000001
 21
-26.5
 31
0
  0
LINE
  8
1
 62
7
 10
27.59999999999999
 20
-26.5
 30
0
 11
28.90000000000001
 21
-26.5
 31
0
  0
LINE
  8
1
 62
7
 10
27.59999999999999
 20
-32.75
 30
0
 11
27.59999999999999
 21
-24.5
 31
0
  0
LINE
  8
1
 62
7
 10
27.59999999999999
 20
-19.5
 30
0
 11
28.9
 21
-19.5
 31
0
  0
LINE
  8
1
 62
7
 10
28.9
 20
-19.5
 30
0
 11
28.9
 21
-21.5
 31
0
  0
LINE
  8
1
 62
7
 10
23.8
 20
-33.5
 30
0
 11
23.8
 21
33.5
 31
0
  0
LINE
  8
1
 62
7
 10
8.400000000000006
 20
53.32244667880207
 30
0
 11
8.400000000000006
 21
33
 31
0
  0
LINE
  8
1
 62
7
 10
6.800000000000011
 20
53.32244667880207
 30
0
 11
8.400000000000006
 21
53.32244667880207
 31
0
  0
LINE
  8
1
 62
7
 10
0
 20
-35.25
 30
0
 11
2
 21
-35.25
 31
0
  0
LINE
  8
1
 62
3
  6
DASHDOT
 10
-0.4762004247026965
 20
-37.5
 30
0
 11
2.617777841579596
 21
-37.5
 31
0
  0
LINE
  8
1
 62
7
 10
0
 20
-39.75
 30
0
 11
2.000000000000099
 21
-39.75
 31
0
  0
LINE
  8
1
 62
7
 10
0
 20
-42.5
 30
0
 11
2.000000000000099
 21
-42.5
 31
0
  0
LINE
  8
1
 62
7
 10
0
 20
31
 30
0
 11
2
 21
31
 31
0
  0
LINE
  8
1
 62
7
 10
95.69870362174072
 20
7.5
 30
0
 11
95.69870362174072
 21
5.656854249492369
 31
0
  0
LINE
  8
1
 62
7
 10
99.69870362174072
 20
7.5
 30
0
 11
99.69870362174072
 21
5.656854249492369
 31
0
  0
LINE
  8
1
 62
7
 10
95.69870362174072
 20
7.5
 30
0
 11
99.69870362174072
 21
7.5
 31
0
  0
LINE
  8
1
 62
7
 10
66.69870362174072
 20
16.24807680927199
 30
0
 11
66.69870362174072
 21
29.07318352021326
 31
0
  0
LINE
  8
1
 62
7
 10
113.9467804310126
 20
31
 30
0
 11
126.7718871419539
 21
31
 31
0
  0
LINE
  8
1
 62
7
 10
128.6987036217406
 20
-16.24807680927205
 30
0
 11
128.6987036217407
 21
-29.07318352021321
 31
0
  0
LINE
  8
1
 62
7
 10
81.4506268124687
 20
-31
 30
0
 11
68.6255201015274
 21
-31
 31
0
  0
LINE
  8
1
 62
7
 10
99.29870362174071
 20
52.48895296070839
 30
0
 11
99.29870362174071
 21
34.96340944473241
 31
0
  0
LINE
  8
1
 62
7
 10
97.69870362174072
 20
52.48895296070839
 30
0
 11
97.69870362174072
 21
35
 31
0
  0
LINE
  8
1
 62
7
 10
96.09870362174061
 20
52.48895296070839
 30
0
 11
96.09870362174061
 21
34.96340944473241
 31
0
  0
LINE
  8
1
 62
7
 10
66.69870362174072
 20
-29.07318352021321
 30
0
 11
66.69870362174072
 21
-16.24807680927194
 31
0
  0
LINE
  8
1
 62
7
 10
126.7718871419539
 20
-31
 30
0
 11
113.9467804310126
 21
-31
 31
0
  0
LINE
  8
1
 62
7
 10
128.6987036217407
 20
29.07318352021326
 30
0
 11
128.6987036217407
 21
16.24807680927199
 31
0
  0
LINE
  8
1
 62
7
 10
68.6255201015274
 20
31
 30
0
 11
81.4506268124687
 21
31
 31
0
  0
LINE
  8
1
 62
3
  6
DASHDOT
 10
73.7742241999681
 20
13.81280463438208
 30
0
 11
81.49706946642991
 21
9.354017840880488
 31
0
  0
LINE
  8
1
 62
7
 10
96.09870362174061
 20
52.48895296070839
 30
0
 11
99.29870362174071
 21
52.48895296070839
 31
0
  0
LINE
  8
1
 62
7
 10
98.19870362174071
 20
54.23894571604291
 30
0
 11
98.19870362174071
 21
52.48895296070839
 31
0
  0
LINE
  8
1
 62
7
 10
98.4987036217407
 20
54.23894571604291
 30
0
 11
98.4987036217407
 21
52.48895296070839
 31
0
  0
LINE
  8
1
 62
3
  6
DASHDOT
 10
114.0758401008632
 20
9.455344154776697
 30
0
 11
121.6795329028347
 21
13.84533824083019
 31
0
  0
LINE
  8
1
 62
3
  6
DASHDOT
 10
97.69870362174072
 20
-18.89895989326254
 30
0
 11
97.69870362174072
 21
-27.38377616693555
 31
0
  0
LINE
  8
1
 62
7
 10
98.7987036217407
 20
54.23894571604291
 30
0
 11
98.7987036217407
 21
52.48895296070839
 31
0
  0
LINE
  8
1
 62
3
  6
DASHDOT
 10
27.59999999999999
 20
0
 30
0
 11
30.4343942695516
 21
0
 31
0
  0
LINE
  8
1
 62
3
  6
DASHDOT
 10
0
 20
0
 30
0
 11
-2.339764742055095
 21
0
 31
0
  0
LINE
  8
1
 62
7
 10
26.8
 20
23
 30
0
 11
26.8
 21
33.5
 31
0
  0
LINE
  8
1
 62
7
 10
-34.99999999999994
 20
-19.5
 30
0
 11
-34.99999999999994
 21
-32.75
 31
0
  0
LINE
  8
1
 62
7
 10
-28.19999999999994
 20
-21.5
 30
0
 11
-28.19999999999995
 21
-24.5
 31
0
  0
LINE
  8
1
 62
7
 10
-28.19999999999995
 20
-24.5
 30
0
 11
-33.69999999999994
 21
-24.5
 31
0
  0
LINE
  8
1
 62
7
 10
-27.89999999999993
 20
-24.20000000000005
 30
0
 11
-28.19999999999995
 21
-24.5
 31
0
  0
LINE
  8
1
 62
7
 10
-27.89999999999992
 20
-21.80000000000001
 30
0
 11
-27.89999999999993
 21
-24.20000000000005
 31
0
  0
LINE
  8
1
 62
7
 10
-28.19999999999994
 20
-21.5
 30
0
 11
-27.89999999999992
 21
-21.80000000000001
 31
0
  0
LINE
  8
1
 62
3
  6
DASHDOT
 10
-38.04497229825255
 20
-23
 30
0
 11
-26.98668242409686
 21
-23
 31
0
  0
LINE
  8
1
 62
7
 10
-39.79999999999997
 20
-33
 30
0
 11
-38.99999999999997
 21
-33
 31
0
  0
LINE
  8
1
 62
7
 10
-40.95470053837916
 20
-35
 30
0
 11
-39.79999999999997
 21
-33
 31
0
  0
LINE
  8
1
 62
7
 10
-49.49999999999993
 20
35
 30
0
 11
-49.49999999999993
 21
-35
 31
0
  0
LINE
  8
1
 62
7
 10
-39.79999999999997
 20
33
 30
0
 11
-40.95470053837916
 21
35
 31
0
  0
LINE
  8
1
 62
7
 10
-38.99999999999997
 20
33
 30
0
 11
-39.79999999999997
 21
33
 31
0
  0
LINE
  8
1
 62
7
 10
-62.59999999999995
 20
31
 30
0
 11
-62.59999999999998
 21
-42.5
 31
0
  0
LINE
  8
1
 62
7
 10
-55.44169593191809
 20
53.32244667880207
 30
0
 11
-55.44169593191809
 21
54.67288306339736
 31
0
  0
LINE
  8
1
 62
7
 10
-54.99999999999996
 20
53.32244667880207
 30
0
 11
-54.99999999999996
 21
54.69498945712115
 31
0
  0
LINE
  8
1
 62
7
 10
-34.09999999999994
 20
32
 30
0
 11
-35.39999999999995
 21
32
 31
0
  0
LINE
  8
1
 62
7
 10
-34.09999999999994
 20
26
 30
0
 11
-33.79999999999996
 21
26.29999999999995
 31
0
  0
LINE
  8
1
 62
7
 10
-34.09999999999994
 20
32
 30
0
 11
-33.79999999999997
 21
31.7000000000001
 31
0
  0
LINE
  8
1
 62
7
 10
-34.89999999999995
 20
26
 30
0
 11
-34.89999999999995
 21
32
 31
0
  0
LINE
  8
1
 62
7
 10
-34.09999999999994
 20
26
 30
0
 11
-35.39999999999995
 21
26
 31
0
  0
LINE
  8
1
 62
7
 10
-33.79999999999997
 20
31.7000000000001
 30
0
 11
-33.79999999999996
 21
26.29999999999995
 31
0
  0
LINE
  8
1
 62
7
 10
-38.79999999999996
 20
-33.5
 30
0
 11
-35.79999999999997
 21
-33.5
 31
0
  0
LINE
  8
1
 62
7
 10
-38.79999999999996
 20
-33.5
 30
0
 11
-38.79999999999996
 21
33.5
 31
0
  0
LINE
  8
1
 62
7
 10
-38.79999999999996
 20
33.5
 30
0
 11
-35.79999999999996
 21
33.5
 31
0
  0
LINE
  8
1
 62
7
 10
-60.59999999999995
 20
31
 30
0
 11
-60.59999999999992
 21
-42.5
 31
0
  0
LINE
  8
1
 62
7
 10
-35.79999999999996
 20
32.75
 30
0
 11
-35.39999999999995
 21
32.75
 31
0
  0
LINE
  8
1
 62
7
 10
-35.39999999999995
 20
32.75
 30
0
 11
-35.39999999999996
 21
24.54548132206247
 31
0
  0
LINE
  8
1
 62
7
 10
-35.39999999999995
 20
23
 30
0
 11
-35.79999999999996
 21
24.49282032302756
 31
0
  0
LINE
  8
1
 62
7
 10
-35.39999999999996
 20
-32.75
 30
0
 11
-34.99999999999994
 21
-32.75
 31
0
  0
LINE
  8
1
 62
7
 10
-35.39999999999996
 20
-32.75
 30
0
 11
-35.39999999999995
 21
23
 31
0
  0
LINE
  8
1
 62
7
 10
-34.99999999999994
 20
-26.5
 30
0
 11
-33.69999999999994
 21
-26.5
 31
0
  0
LINE
  8
1
 62
7
 10
-34.99999999999994
 20
-19.5
 30
0
 11
-33.69999999999995
 21
-19.5
 31
0
  0
LINE
  8
1
 62
7
 10
-33.69999999999995
 20
-19.5
 30
0
 11
-33.69999999999994
 21
-26.5
 31
0
  0
LINE
  8
1
 62
7
 10
-54.19999999999995
 20
53.32244667880207
 30
0
 11
-54.19999999999995
 21
33
 31
0
  0
LINE
  8
1
 62
7
 10
-55.79999999999994
 20
53.32244667880207
 30
0
 11
-55.79999999999994
 21
32.8866772150148
 31
0
  0
LINE
  8
1
 62
3
  6
DASHDOT
 10
-63.12745997838479
 20
-37.5
 30
0
 11
-60.03348171210249
 21
-37.5
 31
0
  0
LINE
  8
1
 62
7
 10
-62.59999999999998
 20
-42.5
 30
0
 11
-60.59999999999992
 21
-42.5
 31
0
  0
LINE
  8
1
 62
7
 10
-62.59999999999995
 20
31
 30
0
 11
-60.59999999999995
 21
31
 31
0
  0
LINE
  8
1
 62
7
 10
-34.99999999999994
 20
-19.5
 30
0
 11
-34.99999999999996
 21
23.13905232776784
 31
0
  0
LINE
  8
1
 62
7
 10
-54.55997568332451
 20
54.68393626025926
 30
0
 11
-54.55997568332451
 21
53.32244667880207
 31
0
  0
LINE
  8
1
 62
3
  6
DASHDOT
 10
-34.99999999999994
 20
0
 30
0
 11
-32.16560573044836
 21
0
 31
0
  0
LINE
  8
1
 62
3
  6
DASHDOT
 10
-62.59999999999995
 20
0
 30
0
 11
-64.9397647420551
 21
0
 31
0
  0
LINE
  8
1
 62
7
 10
-35.79999999999996
 20
33.5
 30
0
 11
-35.79999999999997
 21
-33.5
 31
0
  0
LINE
  8
1
 62
3
 10
-27.89999999999992
 20
-21.80000000000001
 30
0
 11
-33.69999999999994
 21
-21.80000000000001
 31
0
  0
LINE
  8
1
 62
3
 10
-27.89999999999993
 20
-24.20000000000005
 30
0
 11
-33.69999999999994
 21
-24.20000000000005
 31
0
  0
LINE
  8
1
 62
7
 10
-39.79999999999997
 20
33
 30
0
 11
-39.79999999999997
 21
-33
 31
0
  0
LINE
  8
1
 62
7
 10
-40.95470053837916
 20
-35
 30
0
 11
-40.95470053837916
 21
35
 31
0
  0
LINE
  8
1
 62
7
 10
-33.69999999999995
 20
-21.5
 30
0
 11
-28.19999999999994
 21
-21.5
 31
0
  0
LINE
  8
1
 62
7
 10
22.80000000000001
 20
-33
 30
0
 11
23.60000000000001
 21
-33
 31
0
  0
LINE
  8
1
 62
7
 10
27.59999999999999
 20
23.05266099903506
 30
0
 11
27.59999999999999
 21
-21.5
 31
0
  0
LINE
  8
1
 62
7
 10
27.20000000000002
 20
32.75
 30
0
 11
26.8
 21
32.75
 31
0
  0
LINE
  8
1
 62
7
 10
-49.49999999999993
 20
-32.85
 30
0
 11
-50.69999999999997
 21
-32.85
 31
0
  0
LINE
  8
1
 62
7
 10
-54.50115446600329
 20
33.00000000000006
 30
0
 11
-50.69999999999997
 21
33.00000000000004
 31
0
  0
LINE
  8
1
 62
7
 10
-35.39999999999996
 20
24.54548132206247
 30
0
 11
-34.99999999999996
 21
23.13905232776784
 31
0
  0
LINE
  8
1
 62
7
 10
-35.39999999999995
 20
23
 30
0
 11
-35.79999999999996
 21
23
 31
0
  0
ARC
  8
1
 62
7
 10
27.05285611788651
 20
-22.8460014349589
 30
0
 40
2.999999999999982
 50
213.4585005244444
 51
255.4661438916069
  0
ARC
  8
1
 62
7
 10
27.05285611788651
 20
-23.1539985650411
 30
0
 40
2.999999999999983
 50
104.5338561083931
 51
146.5414994755556
  0
ARC
  8
1
 62
7
 10
7.098845533996695
 20
-24
 30
0
 40
6.49999999999996
 50
122.2042275039715
 51
141.6687091359965
  0
ARC
  8
1
 62
7
 10
8.098845533996695
 20
25.50000000000006
 30
0
 40
7.499999999999996
 50
90
 51
144.4077412596521
  0
ARC
  8
1
 62
7
 10
8.098845533996695
 20
-25.5
 30
0
 40
7.499999999999967
 50
215.5922587403491
 51
270
  0
ARC
  8
1
 62
7
 10
7.098845533996695
 20
24
 30
0
 40
6.500000000000088
 50
218.3312908640031
 51
237.7957724960277
  0
ARC
  8
1
 62
7
 10
-54.50115446600329
 20
25.50000000000006
 30
0
 40
7.499999999999996
 50
90
 51
144.4077412596519
  0
ARC
  8
1
 62
7
 10
-54.50115446600329
 20
-25.5
 30
0
 40
7.499999999999999
 50
215.592258740349
 51
270
  0
ARC
  8
1
 62
7
 10
97.69870362174072
 20
0
 30
0
 40
5.999999999999989
 50
109.4712206344907
 51
70.52877936550928
  0
ARC
  8
1
 62
7
 10
88.82370362174072
 20
15.37195091717376
 30
0
 40
15.00000000000004
 50
119.9999999999999
 51
175.5879275866445
  0
ARC
  8
1
 62
7
 10
90.40853860671362
 20
15.63380932638216
 30
0
 40
8.000000000000087
 50
114.9999999999996
 51
212.8220018628976
  0
ARC
  8
1
 62
7
 10
97.69870362174072
 20
0
 30
0
 40
42.49999999999994
 50
313.1628971402916
 51
316.8371028597084
  0
ARC
  8
1
 62
7
 10
97.69870362174072
 20
0
 30
0
 40
42.49999999999998
 50
43.16289714029168
 51
46.83710285970842
  0
ARC
  8
1
 62
7
 10
97.69870362174072
 20
0
 30
0
 40
42.50000000000004
 50
133.1628971402917
 51
136.8371028597083
  0
ARC
  8
1
 62
7
 10
97.69870362174072
 20
0
 30
0
 40
42.49999999999996
 50
223.1628971402916
 51
226.8371028597083
  0
ARC
  8
1
 62
7
 10
80.51434507965811
 20
-1.503436562397098
 30
0
 40
7.999999999999994
 50
87.17799813710221
 51
184.9999999999996
  0
ARC
  8
1
 62
7
 10
79.94870362174072
 20
0
 30
0
 40
15.00000000000001
 50
124.4120724133557
 51
180
  0
ARC
  8
1
 62
7
 10
107.5928971487962
 20
-14.13037276398501
 30
0
 40
8.000000000000023
 50
207.1779981371024
 51
305
  0
ARC
  8
1
 62
7
 10
106.5737036217407
 20
-15.37195091717371
 30
0
 40
15.00000000000007
 50
244.4120724133555
 51
299.9999999999997
  0
ARC
  8
1
 62
7
 10
87.8045100946851
 20
-14.13037276398501
 30
0
 40
8.000000000000084
 50
234.9999999999998
 51
332.8220018628978
  0
ARC
  8
1
 62
7
 10
88.82370362174072
 20
-15.37195091717371
 30
0
 40
15.00000000000017
 50
240.0000000000001
 51
295.5879275866441
  0
ARC
  8
1
 62
7
 10
104.9888686367678
 20
15.63380932638216
 30
0
 40
7.999999999999952
 50
327.1779981371022
 51
65.00000000000104
  0
ARC
  8
1
 62
7
 10
114.8830621638233
 20
-1.503436562397098
 30
0
 40
7.999999999999952
 50
354.9999999999992
 51
92.82200186289819
  0
ARC
  8
1
 62
7
 10
115.4487036217407
 20
0
 30
0
 40
15.0000000000001
 50
0
 51
55.58792758664468
  0
ARC
  8
1
 62
7
 10
106.5737036217407
 20
15.37195091717376
 30
0
 40
14.99999999999995
 50
4.412072413355605
 51
59.99999999999994
  0
ARC
  8
1
 62
7
 10
97.69870362174072
 20
0
 30
0
 40
32.74999999999994
 50
59.99999999999997
 51
120
  0
ARC
  8
1
 62
7
 10
97.69870362174072
 20
0
 30
0
 40
25.25000000000005
 50
65.00000000000024
 51
115
  0
ARC
  8
1
 62
7
 10
97.69870362174072
 20
0
 30
0
 40
25.25000000000005
 50
184.9999999999999
 51
234.9999999999997
  0
ARC
  8
1
 62
7
 10
97.69870362174072
 20
0
 30
0
 40
25.24999999999994
 50
305
 51
354.9999999999998
  0
ARC
  8
1
 62
7
 10
97.69870362174072
 20
0
 30
0
 40
32.75000000000001
 50
180
 51
240
  0
ARC
  8
1
 62
7
 10
97.69870362174072
 20
0
 30
0
 40
32.75000000000005
 50
299.9999999999999
 51
0
  0
ARC
  8
1
 62
7
 10
97.69870362174072
 20
0
 30
0
 40
18.00000000000004
 50
141.1236096126171
 51
158.8763903873829
  0
ARC
  8
1
 62
7
 10
97.69870362174072
 20
0
 30
0
 40
17.99999999999996
 50
261.1236096126169
 51
278.8763903873827
  0
ARC
  8
1
 62
7
 10
97.69870362174072
 20
0
 30
0
 40
17.99999999999997
 50
21.12360961261732
 51
38.87639038738286
  0
ARC
  8
1
 62
7
 10
97.69870362174072
 20
-35.32713703891352
 30
0
 40
6.858664189549427
 50
69.54806916653259
 51
110.4519308334684
  0
ARC
  8
1
 62
7
 10
128.292901740414
 20
17.66356851945676
 30
0
 40
6.858664189549494
 50
189.548069166532
 51
230.4519308334674
  0
ARC
  8
1
 62
7
 10
106.5737036217407
 20
15.37195091717376
 30
0
 40
14.99999999999995
 50
4.412072413355605
 51
59.99999999999994
  0
ARC
  8
1
 62
7
 10
79.94870362174072
 20
0
 30
0
 40
15.00000000000001
 50
124.4120724133557
 51
180
  0
ARC
  8
1
 62
7
 10
67.10450550306732
 20
17.66356851945676
 30
0
 40
6.85866418954949
 50
309.5480691665325
 51
350.4519308334679
  0
ARC
  8
1
 62
7
 10
79.94870362174072
 20
0
 30
0
 40
15.00000000000001
 50
124.4120724133557
 51
180
  0
ARC
  8
1
 62
7
 10
97.69870362174072
 20
0
 30
0
 40
23.00000000000003
 50
168.9480419809165
 51
251.0519580190835
  0
ARC
  8
1
 62
7
 10
97.69870362174072
 20
0
 30
0
 40
22.99999999999999
 50
288.9480419809164
 51
11.05195801908353
  0
ARC
  8
1
 62
3
  6
DASHDOT
 10
97.69870362174072
 20
0
 30
0
 40
37.5
 50
126.2492675313013
 51
143.5837302353994
  0
ARC
  8
1
 62
3
  6
DASHDOT
 10
97.69870362174072
 20
0
 30
0
 40
37.50000000000005
 50
217.6284581497312
 51
232.2886149291684
  0
ARC
  8
1
 62
3
  6
DASHDOT
 10
97.69870362174072
 20
0
 30
0
 40
37.50000000000001
 50
307.1825371100609
 51
322.2032419599134
  0
ARC
  8
1
 62
3
  6
DASHDOT
 10
97.69870362174072
 20
0
 30
0
 40
37.49999999999997
 50
37.55627180849752
 51
52.73283636466111
  0
ARC
  8
1
 62
3
  6
DASHDOT
 10
97.69870362174072
 20
0
 30
0
 40
22.99999999999993
 50
18.45278970911082
 51
43.14448721527194
  0
ARC
  8
1
 62
3
  6
DASHDOT
 10
97.69870362174072
 20
0
 30
0
 40
23.00000000000008
 50
136.8857894948232
 51
163.962187675806
  0
ARC
  8
1
 62
3
  6
DASHDOT
 10
97.69870362174072
 20
0
 30
0
 40
23.00000000000005
 50
257.8532985580105
 51
282.3775052300903
  0
ARC
  8
1
 62
7
 10
97.69870362174072
 20
0
 30
0
 40
22.99999999999994
 50
49.43502705554199
 51
131.0519580190835
  0
CIRCLE
  8
1
 62
7
 10
97.69870362174072
 20
0
 30
0
 40
34.99999999999997
  0
CIRCLE
  8
1
 62
7
 10
77.7801193346985
 20
11.5
 30
0
 40
1.499999999999972
  0
CIRCLE
  8
1
 62
7
 10
77.7801193346985
 20
11.5
 30
0
 40
1.099999999999994
  0
CIRCLE
  8
1
 62
7
 10
117.6172879087827
 20
11.5
 30
0
 40
1.5
  0
CIRCLE
  8
1
 62
7
 10
117.6172879087827
 20
11.5
 30
0
 40
1.099999999999994
  0
CIRCLE
  8
1
 62
7
 10
122.8134403314893
 20
-14.5
 30
0
 40
3
  0
CIRCLE
  8
1
 62
7
 10
97.69870362174072
 20
-23
 30
0
 40
1.099999999999994
  0
CIRCLE
  8
1
 62
7
 10
97.69870362174072
 20
-23
 30
0
 40
1.5
  0
CIRCLE
  8
1
 62
7
 10
72.58396691199189
 20
-14.49999999999994
 30
0
 40
3
  0
CIRCLE
  8
1
 62
7
 10
97.69870362174072
 20
29
 30
0
 40
2.999999999999986
  0
CIRCLE
  8
1
 62
7
 10
124.2152079162362
 20
-26.51650429449552
 30
0
 40
2.25
  0
CIRCLE
  8
1
 62
7
 10
71.18219932724512
 20
-26.51650429449552
 30
0
 40
2.25
  0
CIRCLE
  8
1
 62
7
 10
71.18219932724512
 20
26.51650429449558
 30
0
 40
2.25
  0
CIRCLE
  8
1
 62
7
 10
124.2152079162362
 20
26.51650429449558
 30
0
 40
2.25
  0
CIRCLE
  8
1
 62
7
 10
117.6172879087827
 20
11.5
 30
0
 40
3.5
  0
CIRCLE
  8
1
 62
7
 10
117.6172879087827
 20
11.5
 30
0
 40
3.5
  0
CIRCLE
  8
1
 62
7
 10
77.7801193346985
 20
11.5
 30
0
 40
3.500000000000114
  0
CIRCLE
  8
1
 62
7
 10
97.69870362174072
 20
-23
 30
0
 40
3.499999999999986
  0
CIRCLE
  8
1
 62
7
 10
97.69870362174072
 20
0
 30
0
 40
15.50000000000009
  0
CIRCLE
  8
1
 62
7
 10
97.69870362174072
 20
0
 30
0
 40
17.49999999999999
  0
CIRCLE
  8
1
 62
7
 10
97.69870362174072
 20
0
 30
0
 40
32.99999999999997
  0
TEXT
  8
1
 62
7
 10
-61.39165121974186
 20
79.88979613485446
 30
0
 40
3
  1
TMF 0.6
 41
0.9
  7
SIMPLEX
  0
TEXT
  8
1
 62
7
 10
-61.40782679925047
 20
74.66823121116147
 30
0
 40
3
  1
DC1501
 41
0.9
  7
SIMPLEX
  0
ENDSEC
  0
EOF
