  0
SECTION
  2
HEADER
  9
$ACADVER
  1
AC1009
  9
$INSBASE
 10
0
 20
0
  9
$EXTMIN
 10
-78.30930931072763
 20
-55
  9
$EXTMAX
 10
165.19482175035
 20
111.0199019757078
  9
$LIMMIN
 10
-78.30930931072763
 20
-55
  9
$LIMMAX
 10
165.19482175035
 20
111.0199019757078
  9
$VIEWCTR
 10
10
 20
10
  9
$VIEWSIZE
 40
10
  9
$SNAPMODE
 70
0
  9
$SNAPUNIT
 10
1
 20
1
  9
$SNAPBASE
 10
0
 20
0
  9
$SNAPANG
 50
0
  9
$SNAPSTYLE
 70
0
  9
$SNAPISOPAIR
 70
0
  9
$GRIDMODE
 70
0
  9
$GRIDUNIT
 10
0
 20
0
  9
$ORTHOMODE
 70
0
  9
$REGENMODE
 70
1
  9
$FILLMODE
 70
1
  9
$QTEXTMODE
 70
0
  9
$DRAGMODE
 70
2
  9
$LTSCALE
 40
1
  9
$OSMODE
 70
0
  9
$ATTMODE
 70
1
  9
$TEXTSIZE
 40
3.5
  9
$TRACEWID
 40
0.5
  9
$TEXTSTYLE
  7
STANDARD
  9
$CLAYER
  8
0
  9
$CELTYPE
  6
BYLAYER
  9
$CECOLOR
 62
256
  9
$DIMSCALE
 40
1
  9
$DIMASZ
 40
0.18
  9
$DIMEXO
 40
0.0625
  9
$DIMDLI
 40
0.38
  9
$DIMRND
 40
0
  9
$DIMDLE
 40
0
  9
$DIMEXE
 40
0.18
  9
$DIMTP
 40
0
  9
$DIMTM
 40
0
  9
$DIMTXT
 40
0.18
  9
$DIMCEN
 40
0.09
  9
$DIMTSZ
 40
0
  9
$DIMTOL
 70
0
  9
$DIMLIM
 70
0
  9
$DIMTIH
 70
1
  9
$DIMTOH
 70
1
  9
$DIMSE1
 70
0
  9
$DIMSE2
 70
0
  9
$DIMTAD
 70
0
  9
$DIMZIN
 70
0
  9
$DIMBLK
  1

  9
$DIMASO
 70
1
  9
$DIMSHO
 70
1
  9
$DIMPOST
  1

  9
$DIMAPOST
  1

  9
$DIMALT
 70
0
  9
$DIMALTD
 70
2
  9
$DIMALTF
 40
25.4
  9
$DIMLFAC
 40
1
  9
$DIMTOFL
 70
0
  9
$DIMTVP
 40
0
  9
$DIMTIX
 70
0
  9
$DIMSOXD
 70
0
  9
$DIMSAH
 70
0
  9
$DIMBLK1
  1

  9
$DIMBLK2
  1

  9
$DIMSTYLE
  2
*UNNAMED
  9
$DIMCLRD
 70
0
  9
$DIMCLRE
 70
0
  9
$DIMCLRT
 70
0
  9
$DIMTFAC
 40
1
  9
$DIMGAP
 40
0.09
  9
$LUNITS
 70
2
  9
$LUPREC
 70
4
  9
$AXISMODE
 70
0
  9
$AXISUNIT
 10
0
 20
0
  9
$SKETCHINC
 40
0.1
  9
$FILLETRAD
 40
2
  9
$AUNITS
 70
0
  9
$AUPREC
 70
0
  9
$MENU
  1
ACAD
  9
$ELEVATION
 40
0
  9
$THICKNESS
 40
0
  9
$VIEWDIR
 10
0
 20
0
 30
1
  9
$LIMCHECK
 70
0
  9
$BLIPMODE
 70
1
  9
$CHAMFERA
 40
0
  9
$CHAMFERB
 40
0
  9
$FASTZOOM
 70
1
  9
$SKPOLY
 70
0
  9
$ANGBASE
 50
0
  9
$ANGDIR
 70
0
  9
$PDMODE
 70
0
  9
$PDSIZE
 40
0
  9
$PLINEWID
 40
0
  9
$COORDS
 70
2
  0
ENDSEC
  0
SECTION
  2
TABLES
  0
TABLE
  2
DIMSTYLE
 70
0
  0
ENDTAB
  0
TABLE
  2
LTYPE
 70
9
  0
LTYPE
  2
CONTINUOUS
 70
64
  3
Solid line
 72
65
 73
0
 40
0
  0
LTYPE
  2
BORDER
 70
64
  3
__ __ . __ __ .
 72
65
 73
6
 40
11.21400603570752
 49
3.204001724487863
 49
-1.602000862243932
 49
3.204001724487863
 49
-1.602000862243932
 49
0
 49
-1.602000862243932
  0
LTYPE
  2
CENTER
 70
64
  3
____ _ ____ _
 72
65
 73
4
 40
12.81600689795145
 49
8.010004311219658
 49
-1.602000862243932
 49
1.602000862243932
 49
-1.602000862243932
  0
LTYPE
  2
DASHDOT
 70
64
  3
__ . __ . __ .
 72
65
 73
4
 40
6.408003448975727
 49
3.204001724487863
 49
-1.602000862243932
 49
0
 49
-1.602000862243932
  0
LTYPE
  2
DASHED
 70
64
  3
__ __ __ __ __
 72
65
 73
2
 40
4.806002586731795
 49
3.204001724487863
 49
-1.602000862243932
  0
LTYPE
  2
DIVIDE
 70
64
  3
__ . . __ . . 
 72
65
 73
6
 40
8.010004311219658
 49
3.204001724487863
 49
-1.602000862243932
 49
0
 49
-1.602000862243932
 49
0
 49
-1.602000862243932
  0
LTYPE
  2
DOT
 70
64
  3
..............
 72
65
 73
4
 40
3.204001724487863
 49
0
 49
-1.602000862243932
 49
0
 49
-1.602000862243932
  0
LTYPE
  2
HIDDEN
 70
64
  3
_ _ _ _ _ _ _
 72
65
 73
2
 40
2.403001293365898
 49
1.602000862243932
 49
-0.8010004311219658
  0
LTYPE
  2
PHANTOM
 70
64
  3
_____ _ _ _____ _ _ 
 72
65
 73
6
 40
16.02000862243932
 49
8.010004311219658
 49
-1.602000862243932
 49
1.602000862243932
 49
-1.602000862243932
 49
1.602000862243932
 49
-1.602000862243932
  0
ENDTAB
  0
TABLE
  2
LAYER
 70
3
  0
LAYER
  2
1
 70
0
 62
7
  6
CONTINUOUS
  0
LAYER
  2
0
 70
0
 62
7
  6
CONTINUOUS
  0
ENDTAB
  0
TABLE
  2
STYLE
 70
4
  0
STYLE
  2
STANDARD
 70
0
 40
0
 41
1
 50
0
 71
0
 42
3.5
  3
txt
  4

  0
STYLE
  2
SIMPLEX
 70
0
 40
0
 41
1
 50
0
 71
0
 42
3.5
  3
simplex
  4

  0
STYLE
  2
COMPLEX
 70
0
 40
0
 41
1
 50
0
 71
0
 42
3.5
  3
complex
  4

  0
STYLE
  2
ITALIC
 70
0
 40
0
 41
1
 50
0
 71
0
 42
3.5
  3
italic
  4

  0
ENDTAB
  0
TABLE
  2
VIEW
 70
0
  0
ENDTAB
  0
ENDSEC
  0
SECTION
  2
BLOCKS
  0
ENDSEC
  0
SECTION
  2
ENTITIES
  0
LINE
  8
1
 62
3
  6
DASHDOT
 10
-75.59999999999999
 20
0
 30
0
 11
-78.30930931072763
 21
0
 31
0
  0
LINE
  8
1
 62
7
 10
-45.70000000000001
 20
30
 30
0
 11
-46.20000000000001
 21
30
 31
0
  0
LINE
  8
1
 62
7
 10
-62.79999999999999
 20
-42.35
 30
0
 11
-61.7
 21
-42.35
 31
0
  0
LINE
  8
1
 62
7
 10
-62.79999999999999
 20
42.35
 30
0
 11
-61.7
 21
42.34999999999999
 31
0
  0
LINE
  8
1
 62
7
 10
-62.79999999999999
 20
-42.5
 30
0
 11
-62.79999999999999
 21
-42.35
 31
0
  0
LINE
  8
1
 62
7
 10
-62.79999999999999
 20
42.35
 30
0
 11
-62.79999999999999
 21
42.5
 31
0
  0
LINE
  8
1
 62
7
 10
25.79999999999999
 20
-42.5
 30
0
 11
25.79999999999999
 21
-21.9156325432423
 31
0
  0
LINE
  8
1
 62
7
 10
29.69999999999999
 20
-28
 30
0
 11
38.59999999999999
 21
-28
 31
0
  0
LINE
  8
1
 62
3
 10
30.73923048454132
 20
-28
 30
0
 11
30.73923048454132
 21
-32
 31
0
  0
LINE
  8
1
 62
3
 10
30.73923048454132
 20
-31.4
 30
0
 11
29.69999999999999
 21
-32
 31
0
  0
LINE
  8
1
 62
3
 10
39.19999999999999
 20
-31.4
 30
0
 11
30.73923048454132
 21
-31.4
 31
0
  0
LINE
  8
1
 62
3
 10
30.73923048454132
 20
-28.6
 30
0
 11
29.69999999999999
 21
-28
 31
0
  0
LINE
  8
1
 62
3
 10
39.19999999999999
 20
-28.6
 30
0
 11
30.73923048454132
 21
-28.6
 31
0
  0
LINE
  8
1
 62
7
 10
38.59999999999999
 20
-28
 30
0
 11
38.59999999999999
 21
-32
 31
0
  0
LINE
  8
1
 62
7
 10
38.59999999999999
 20
-32
 30
0
 11
29.69999999999999
 21
-32
 31
0
  0
LINE
  8
1
 62
7
 10
39.19999999999999
 20
-31.4
 30
0
 11
38.59999999999999
 21
-32
 31
0
  0
LINE
  8
1
 62
7
 10
39.19999999999999
 20
-28.6
 30
0
 11
39.19999999999999
 21
-31.4
 31
0
  0
LINE
  8
1
 62
7
 10
38.59999999999999
 20
-28
 30
0
 11
39.19999999999999
 21
-28.6
 31
0
  0
LINE
  8
1
 62
7
 10
26.44999999999999
 20
-28
 30
0
 11
26.44999999999999
 21
-32
 31
0
  0
LINE
  8
1
 62
7
 10
29.19999999999999
 20
-33.75
 30
0
 11
29.19999999999999
 21
-26.25
 31
0
  0
LINE
  8
1
 62
7
 10
28.79999999999999
 20
-33.75
 30
0
 11
29.19999999999999
 21
-33.75
 31
0
  0
LINE
  8
1
 62
7
 10
28.79999999999999
 20
-26.25
 30
0
 11
28.79999999999999
 21
-33.75
 31
0
  0
LINE
  8
1
 62
7
 10
29.19999999999999
 20
-26.25
 30
0
 11
28.79999999999999
 21
-26.25
 31
0
  0
LINE
  8
1
 62
7
 10
29.19999999999999
 20
-26.5
 30
0
 11
29.69999999999999
 21
-26.5
 31
0
  0
LINE
  8
1
 62
7
 10
29.69999999999999
 20
-33.5
 30
0
 11
29.19999999999999
 21
-33.5
 31
0
  0
LINE
  8
1
 62
7
 10
20.6
 20
42.35
 30
0
 11
20.6
 21
23.5
 31
0
  0
LINE
  8
1
 62
7
 10
12.6
 20
42.35
 30
0
 11
20.6
 21
42.35
 31
0
  0
LINE
  8
1
 62
7
 10
12.6
 20
42.35
 30
0
 11
12.6
 21
42.5
 31
0
  0
LINE
  8
1
 62
7
 10
13.69999999999999
 20
-42.85
 30
0
 11
13.69999999999999
 21
-45
 31
0
  0
LINE
  8
1
 62
7
 10
12.6
 20
-42.35
 30
0
 11
20.6
 21
-42.35
 31
0
  0
LINE
  8
1
 62
7
 10
12.6
 20
-42.5
 30
0
 11
12.6
 21
-42.35
 31
0
  0
LINE
  8
1
 62
7
 10
122.69482175035
 20
9.5
 30
0
 11
122.69482175035
 21
7.071067811865504
 31
0
  0
LINE
  8
1
 62
7
 10
117.69482175035
 20
9.5
 30
0
 11
122.69482175035
 21
9.5
 31
0
  0
LINE
  8
1
 62
7
 10
117.69482175035
 20
7.071067811865504
 30
0
 11
117.69482175035
 21
9.5
 31
0
  0
LINE
  8
1
 62
7
 10
2.099999999999994
 20
41.00000000000001
 30
0
 11
2.099999999999994
 21
-55
 31
0
  0
LINE
  8
1
 62
7
 10
-0.2000000000000028
 20
41.00000000000001
 30
0
 11
-0.2000000000000028
 21
-55
 31
0
  0
LINE
  8
1
 62
7
 10
-75.59999999999999
 20
-55
 30
0
 11
-73.3
 21
-55
 31
0
  0
LINE
  8
1
 62
7
 10
25.6
 20
-7.5
 30
0
 11
3.600479827978645
 21
-7.5
 31
0
  0
LINE
  8
1
 62
7
 10
24.69999999999999
 20
-42.5
 30
0
 11
25.79999999999999
 21
-42.5
 31
0
  0
LINE
  8
1
 62
7
 10
23.25662432702595
 20
-45
 30
0
 11
24.69999999999999
 21
-42.5
 31
0
  0
LINE
  8
1
 62
7
 10
13.69999999999999
 20
-45
 30
0
 11
23.25662432702595
 21
-45
 31
0
  0
LINE
  8
1
 62
7
 10
24.69999999999999
 20
-23
 30
0
 11
25.79999999999999
 21
-23
 31
0
  0
LINE
  8
1
 62
7
 10
24.69999999999999
 20
-20.5
 30
0
 11
24.69999999999999
 21
-23
 31
0
  0
LINE
  8
1
 62
7
 10
25.6
 20
-20.5
 30
0
 11
25.6
 21
20.5
 31
0
  0
LINE
  8
1
 62
7
 10
21.69999999999999
 20
23
 30
0
 11
21.69999999999999
 21
42.84999999999999
 31
0
  0
LINE
  8
1
 62
7
 10
25.79999999999999
 20
21.9156325432423
 30
0
 11
25.79999999999999
 21
42.5
 31
0
  0
LINE
  8
1
 62
7
 10
24.69999999999999
 20
20.5
 30
0
 11
25.5
 21
20.5
 31
0
  0
LINE
  8
1
 62
7
 10
24.69999999999999
 20
23
 30
0
 11
24.69999999999999
 21
20.5
 31
0
  0
LINE
  8
1
 62
7
 10
25.79999999999999
 20
23
 30
0
 11
24.69999999999999
 21
23
 31
0
  0
LINE
  8
1
 62
7
 10
23.25662432702595
 20
45
 30
0
 11
13.69999999999999
 21
45
 31
0
  0
LINE
  8
1
 62
7
 10
24.69999999999999
 20
42.5
 30
0
 11
23.25662432702595
 21
45
 31
0
  0
LINE
  8
1
 62
7
 10
25.79999999999999
 20
42.5
 30
0
 11
24.69999999999999
 21
42.5
 31
0
  0
LINE
  8
1
 62
7
 10
13.69999999999999
 20
45
 30
0
 11
13.69999999999999
 21
42.85
 31
0
  0
LINE
  8
1
 62
7
 10
30.19999999999999
 20
30.0658262487936
 30
0
 11
30.19999999999999
 21
-28
 31
0
  0
LINE
  8
1
 62
7
 10
29.69999999999999
 20
-23.75
 30
0
 11
30.19999999999999
 21
-23.75
 31
0
  0
LINE
  8
1
 62
7
 10
29.69999999999999
 20
-37
 30
0
 11
30.19999999999999
 21
-37
 31
0
  0
LINE
  8
1
 62
7
 10
29.69999999999999
 20
-42
 30
0
 11
29.69999999999999
 21
30
 31
0
  0
LINE
  8
1
 62
3
  6
DASHDOT
 10
40.70071442151288
 20
-30
 30
0
 11
26
 21
-30
 31
0
  0
LINE
  8
1
 62
7
 10
30.19999999999999
 20
-34.5
 30
0
 11
32.19999999999999
 21
-34.5
 31
0
  0
LINE
  8
1
 62
7
 10
32.19999999999999
 20
-32
 30
0
 11
32.19999999999999
 21
-34.5
 31
0
  0
LINE
  8
1
 62
7
 10
32.19999999999999
 20
-25.5
 30
0
 11
32.19999999999999
 21
-28
 31
0
  0
LINE
  8
1
 62
7
 10
30.19999999999999
 20
-25.5
 30
0
 11
32.19999999999999
 21
-25.5
 31
0
  0
LINE
  8
1
 62
7
 10
30.19999999999999
 20
-32
 30
0
 11
30.19999999999999
 21
-42
 31
0
  0
LINE
  8
1
 62
7
 10
26
 20
-34.25
 30
0
 11
29.19999999999999
 21
-34.25
 31
0
  0
LINE
  8
1
 62
7
 10
26
 20
-25.75
 30
0
 11
29.69999999999999
 21
-25.75
 31
0
  0
LINE
  8
1
 62
7
 10
29.69999999999999
 20
-42
 30
0
 11
30.19999999999999
 21
-42
 31
0
  0
LINE
  8
1
 62
7
 10
31.09999999999998
 20
33.90000000000001
 30
0
 11
31.59999999999998
 21
34.40000000000001
 31
0
  0
LINE
  8
1
 62
7
 10
31.59999999999998
 20
40.59999999999999
 30
0
 11
31.09999999999998
 21
41.09999999999999
 31
0
  0
LINE
  8
1
 62
7
 10
30.19999999999999
 20
41.09999999999999
 30
0
 11
30.19999999999999
 21
33.90000000000001
 31
0
  0
LINE
  8
1
 62
7
 10
29.69999999999999
 20
33.90000000000001
 30
0
 11
31.09999999999998
 21
33.90000000000001
 31
0
  0
LINE
  8
1
 62
7
 10
31.59999999999998
 20
40.59999999999999
 30
0
 11
31.59999999999998
 21
34.40000000000001
 31
0
  0
LINE
  8
1
 62
7
 10
29.69999999999999
 20
41.09999999999999
 30
0
 11
31.09999999999998
 21
41.09999999999999
 31
0
  0
LINE
  8
1
 62
7
 10
29.19999999999999
 20
33
 30
0
 11
29.69999999999999
 21
33
 31
0
  0
LINE
  8
1
 62
7
 10
29.19999999999999
 20
31.86602540378442
 30
0
 11
29.69999999999999
 21
30
 31
0
  0
LINE
  8
1
 62
7
 10
29.69999999999999
 20
31.9318516525781
 30
0
 11
30.19999999999999
 21
30.0658262487936
 31
0
  0
LINE
  8
1
 62
7
 10
29.69999999999999
 20
42
 30
0
 11
29.69999999999999
 21
31.9318516525781
 31
0
  0
LINE
  8
1
 62
7
 10
29.19999999999999
 20
42
 30
0
 11
29.69999999999999
 21
42
 31
0
  0
LINE
  8
1
 62
7
 10
-66.3
 20
71.64700467175609
 30
0
 11
-66.3
 21
68.3437575941814
 31
0
  0
LINE
  8
1
 62
7
 10
-65.8
 20
71.64700467175609
 30
0
 11
-65.8
 21
68.3437575941814
 31
0
  0
LINE
  8
1
 62
7
 10
-65.3
 20
71.64700467175609
 30
0
 11
-65.3
 21
68.3437575941814
 31
0
  0
LINE
  8
1
 62
7
 10
-67.05
 20
68.3437575941814
 30
0
 11
-64.55
 21
68.3437575941814
 31
0
  0
LINE
  8
1
 62
7
 10
10.85
 20
42.5
 30
0
 11
10.85
 21
68.3437575941814
 31
0
  0
LINE
  8
1
 62
7
 10
8.349999999999994
 20
68.3437575941814
 30
0
 11
8.349999999999994
 21
42.5
 31
0
  0
LINE
  8
1
 62
7
 10
26
 20
-43
 30
0
 11
26
 21
43
 31
0
  0
LINE
  8
1
 62
7
 10
29.19999999999999
 20
-43
 30
0
 11
26
 21
-43
 31
0
  0
LINE
  8
1
 62
7
 10
29.69999999999999
 20
-22.5
 30
0
 11
26
 21
-22.5
 31
0
  0
LINE
  8
1
 62
7
 10
26
 20
22.5
 30
0
 11
29.69999999999999
 21
22.5
 31
0
  0
LINE
  8
1
 62
7
 10
29.19999999999999
 20
30
 30
0
 11
29.69999999999999
 21
30
 31
0
  0
LINE
  8
1
 62
7
 10
26
 20
43
 30
0
 11
29.19999999999999
 21
43
 31
0
  0
LINE
  8
1
 62
7
 10
2.099999999999994
 20
22.50023346977082
 30
0
 11
-0.2000000000000028
 21
22.50023346977082
 31
0
  0
LINE
  8
1
 62
7
 10
2.099999999999994
 20
-22.50023346977082
 30
0
 11
-0.2000000000000028
 21
-22.50023346977082
 31
0
  0
LINE
  8
1
 62
7
 10
2.099999999999994
 20
-46.25
 30
0
 11
-0.2000000000000028
 21
-46.25
 31
0
  0
LINE
  8
1
 62
3
  6
DASHDOT
 10
-1.274770576658597
 20
-49
 30
0
 11
3.657739746443866
 21
-49
 31
0
  0
LINE
  8
1
 62
7
 10
2.099999999999994
 20
-51.75
 30
0
 11
-0.2000000000000028
 21
-51.75
 31
0
  0
LINE
  8
1
 62
7
 10
2.099999999999994
 20
-55
 30
0
 11
-0.2000000000000028
 21
-55
 31
0
  0
LINE
  8
1
 62
7
 10
2.099999999999994
 20
41.00000000000001
 30
0
 11
-0.2000000000000028
 21
41.00000000000001
 31
0
  0
LINE
  8
1
 62
7
 10
161.19482175035
 20
36.66060555964671
 30
0
 11
161.19482175035
 21
18.54723699099139
 31
0
  0
LINE
  8
1
 62
7
 10
83.53421619070329
 20
-41
 30
0
 11
101.6475847593586
 21
-41
 31
0
  0
LINE
  8
1
 62
7
 10
79.19482175034997
 20
36.66060555964671
 30
0
 11
79.19482175034997
 21
18.54723699099139
 31
0
  0
LINE
  8
1
 62
7
 10
83.53421619070329
 20
41
 30
0
 11
101.6475847593586
 21
41
 31
0
  0
LINE
  8
1
 62
3
  6
DASHDOT
 10
82.12806266054687
 20
38.06675908980321
 30
0
 11
88.77333914941488
 21
31.42148260093509
 31
0
  0
LINE
  8
1
 62
3
  6
DASHDOT
 10
82.12806266054687
 20
-38.06675908980321
 30
0
 11
88.77333914941499
 21
-31.42148260093512
 31
0
  0
LINE
  8
1
 62
3
  6
DASHDOT
 10
158.2615808401532
 20
-38.06675908980321
 30
0
 11
151.6163043512851
 21
-31.42148260093512
 31
0
  0
LINE
  8
1
 62
3
  6
DASHDOT
 10
158.2615808401531
 20
38.06675908980321
 30
0
 11
151.6163043512851
 21
31.42148260093509
 31
0
  0
LINE
  8
1
 62
7
 10
117.69482175035
 20
68.49814491535182
 30
0
 11
122.69482175035
 21
68.49814491535182
 31
0
  0
LINE
  8
1
 62
7
 10
122.69482175035
 20
68.49814491535182
 30
0
 11
122.69482175035
 21
44.93050188902862
 31
0
  0
LINE
  8
1
 62
7
 10
117.69482175035
 20
68.49814491535182
 30
0
 11
117.69482175035
 21
44.93050188902862
 31
0
  0
LINE
  8
1
 62
7
 10
138.7420587413415
 20
-41
 30
0
 11
156.8554273099967
 21
-41
 31
0
  0
LINE
  8
1
 62
7
 10
161.19482175035
 20
-18.54723699099139
 30
0
 11
161.19482175035
 21
-36.66060555964668
 31
0
  0
LINE
  8
1
 62
7
 10
138.7420587413415
 20
41
 30
0
 11
156.8554273099967
 21
41
 31
0
  0
LINE
  8
1
 62
7
 10
79.19482175034997
 20
-18.54723699099139
 30
0
 11
79.19482175034997
 21
-36.66060555964668
 31
0
  0
LINE
  8
1
 62
7
 10
120.7490354806967
 20
72.19615322933569
 30
0
 11
120.7490354806967
 21
68.49814491535182
 31
0
  0
LINE
  8
1
 62
7
 10
121.2776873047995
 20
72.27167491849332
 30
0
 11
121.2776873047995
 21
68.49814491535182
 31
0
  0
LINE
  8
1
 62
7
 10
121.8818608180599
 20
72.27167491849332
 30
0
 11
121.8818608180599
 21
68.49814491535182
 31
0
  0
LINE
  8
1
 62
7
 10
118.5077826826402
 20
68.49814491535182
 30
0
 11
118.5077826826402
 21
72.27167491849332
 31
0
  0
LINE
  8
1
 62
7
 10
119.1119561959006
 20
68.49814491535182
 30
0
 11
119.1119561959006
 21
72.27167491849332
 31
0
  0
LINE
  8
1
 62
7
 10
119.6406080200034
 20
68.49814491535182
 30
0
 11
119.6406080200034
 21
72.19615322933569
 31
0
  0
LINE
  8
1
 62
7
 10
13.69999999999999
 20
15
 30
0
 11
3.600479827978645
 21
15
 31
0
  0
LINE
  8
1
 62
7
 10
13.69999999999999
 20
-15
 30
0
 11
3.600479827978645
 21
-15
 31
0
  0
LINE
  8
1
 62
7
 10
3.600479827978645
 20
-15
 30
0
 11
3.600479827978645
 21
15
 31
0
  0
LINE
  8
1
 62
7
 10
25.5
 20
20.5
 30
0
 11
24.69999999999999
 21
20.5
 31
0
  0
LINE
  8
1
 62
7
 10
21.69999999999999
 20
42.84999999999999
 30
0
 11
13.69999999999999
 21
42.85
 31
0
  0
LINE
  8
1
 62
7
 10
4.73047686298608
 20
23.5
 30
0
 11
20.6
 21
23.5
 31
0
  0
LINE
  8
1
 62
7
 10
13.69999999999999
 20
23
 30
0
 11
13.69999999999999
 21
15
 31
0
  0
LINE
  8
1
 62
7
 10
13.69999999999999
 20
23
 30
0
 11
21.69999999999999
 21
23
 31
0
  0
LINE
  8
1
 62
7
 10
21.69999999999999
 20
-22.99999999999989
 30
0
 11
13.69999999999999
 21
-22.99999999999989
 31
0
  0
LINE
  8
1
 62
7
 10
20.6
 20
-23.49999999999989
 30
0
 11
4.73047686298608
 21
-23.49999999999989
 31
0
  0
LINE
  8
1
 62
7
 10
20.6
 20
-23.49999999999989
 30
0
 11
20.6
 21
-42.35
 31
0
  0
LINE
  8
1
 62
7
 10
21.69999999999999
 20
-42.85
 30
0
 11
21.69999999999999
 21
-22.99999999999989
 31
0
  0
LINE
  8
1
 62
7
 10
21.69999999999999
 20
-42.85
 30
0
 11
13.69999999999999
 21
-42.85
 31
0
  0
LINE
  8
1
 62
7
 10
13.69999999999999
 20
-22.99999999999989
 30
0
 11
13.69999999999999
 21
-15
 31
0
  0
LINE
  8
1
 62
7
 10
29.19999999999999
 20
-43
 30
0
 11
29.19999999999999
 21
-34.25
 31
0
  0
LINE
  8
1
 62
3
  6
DASHDOT
 10
88.76151346450919
 20
18.1480290003507
 30
0
 11
99.62671841046958
 21
11.875
 31
0
  0
LINE
  8
1
 62
3
  6
DASHDOT
 10
140.7629250902304
 20
11.875
 30
0
 11
151.5250716706106
 21
18.08852822524071
 31
0
  0
LINE
  8
1
 62
7
 10
120.19482175035
 20
68.49814491535182
 30
0
 11
120.19482175035
 21
45
 31
0
  0
LINE
  8
1
 62
3
  6
DASHDOT
 10
120.19482175035
 20
-23.75
 30
0
 11
120.19482175035
 21
-36.19619322860018
 31
0
  0
LINE
  8
1
 62
3
  6
DASHDOT
 10
125.6371815785098
 20
0
 30
0
 11
114.7524619221903
 21
0
 31
0
  0
LINE
  8
1
 62
3
  6
DASHDOT
 10
120.19482175035
 20
5.442359828159795
 30
0
 11
120.19482175035
 21
-5.442359828159795
 31
0
  0
LINE
  8
1
 62
7
 10
29.19999999999999
 20
43
 30
0
 11
29.19999999999999
 21
30
 31
0
  0
LINE
  8
1
 62
3
  6
DASHDOT
 10
30.19999999999999
 20
0
 30
0
 11
33.20802031764418
 21
0
 31
0
  0
LINE
  8
1
 62
3
  6
DASHDOT
 10
-0.2000000000000028
 20
0
 30
0
 11
-2.909309310727636
 21
0
 31
0
  0
LINE
  8
1
 62
7
 10
25.5
 20
20.5
 30
0
 11
25.6
 21
20.5
 31
0
  0
LINE
  8
1
 62
7
 10
25.6
 20
9.5
 30
0
 11
3.600479827978645
 21
9.5
 31
0
  0
LINE
  8
1
 62
7
 10
25.6
 20
7.5
 30
0
 11
3.600479827978645
 21
7.5
 31
0
  0
LINE
  8
1
 62
7
 10
-73.3
 20
-55
 30
0
 11
-73.3
 21
40.99999999999999
 31
0
  0
LINE
  8
1
 62
7
 10
-50.7
 20
-42.5
 30
0
 11
-49.6
 21
-42.5
 31
0
  0
LINE
  8
1
 62
7
 10
-52.14337567297405
 20
-45
 30
0
 11
-50.7
 21
-42.5
 31
0
  0
LINE
  8
1
 62
7
 10
-61.7
 20
-45
 30
0
 11
-52.14337567297405
 21
-45
 31
0
  0
LINE
  8
1
 62
7
 10
-49.6
 20
-42.5
 30
0
 11
-49.6
 21
42.5
 31
0
  0
LINE
  8
1
 62
7
 10
-52.14337567297405
 20
45
 30
0
 11
-61.7
 21
45
 31
0
  0
LINE
  8
1
 62
7
 10
-50.7
 20
42.5
 30
0
 11
-52.14337567297405
 21
45
 31
0
  0
LINE
  8
1
 62
7
 10
-49.6
 20
42.5
 30
0
 11
-50.7
 21
42.5
 31
0
  0
LINE
  8
1
 62
7
 10
-45.70000000000001
 20
-42
 30
0
 11
-45.70000000000001
 21
30
 31
0
  0
LINE
  8
1
 62
3
  6
DASHDOT
 10
-34.6992855784871
 20
-30
 30
0
 11
-49.4
 21
-30
 31
0
  0
LINE
  8
1
 62
7
 10
-45.20000000000001
 20
-34.5
 30
0
 11
-43.20000000000001
 21
-34.5
 31
0
  0
LINE
  8
1
 62
7
 10
-45.20000000000001
 20
-25.5
 30
0
 11
-43.20000000000001
 21
-25.5
 31
0
  0
LINE
  8
1
 62
7
 10
-45.70000000000001
 20
-42
 30
0
 11
-45.20000000000001
 21
-42
 31
0
  0
LINE
  8
1
 62
7
 10
-44.29999999999999
 20
33.90000000000001
 30
0
 11
-43.8
 21
34.40000000000001
 31
0
  0
LINE
  8
1
 62
7
 10
-43.79999999999999
 20
40.59999999999999
 30
0
 11
-44.3
 21
41.09999999999999
 31
0
  0
LINE
  8
1
 62
7
 10
-45.20000000000001
 20
41.09999999999999
 30
0
 11
-45.20000000000001
 21
33.90000000000001
 31
0
  0
LINE
  8
1
 62
7
 10
-45.70000000000001
 20
33.90000000000001
 30
0
 11
-44.29999999999999
 21
33.90000000000001
 31
0
  0
LINE
  8
1
 62
7
 10
-43.79999999999999
 20
40.59999999999999
 30
0
 11
-43.8
 21
34.40000000000001
 31
0
  0
LINE
  8
1
 62
7
 10
-45.70000000000001
 20
41.09999999999999
 30
0
 11
-44.3
 21
41.09999999999999
 31
0
  0
LINE
  8
1
 62
7
 10
-46.20000000000001
 20
31.86602540378442
 30
0
 11
-45.70000000000001
 21
30
 31
0
  0
LINE
  8
1
 62
7
 10
-45.70000000000001
 20
31.9318516525781
 30
0
 11
-45.20000000000001
 21
30.0658262487936
 31
0
  0
LINE
  8
1
 62
7
 10
-45.7
 20
42
 30
0
 11
-45.70000000000001
 21
31.9318516525781
 31
0
  0
LINE
  8
1
 62
7
 10
-46.20000000000001
 20
42
 30
0
 11
-45.7
 21
42
 31
0
  0
LINE
  8
1
 62
7
 10
-64.55
 20
42.5
 30
0
 11
-64.55
 21
68.3437575941814
 31
0
  0
LINE
  8
1
 62
7
 10
-67.05
 20
68.3437575941814
 30
0
 11
-67.05
 21
42.5
 31
0
  0
LINE
  8
1
 62
7
 10
-49.4
 20
-43
 30
0
 11
-49.4
 21
43
 31
0
  0
LINE
  8
1
 62
7
 10
-46.20000000000001
 20
-43
 30
0
 11
-49.4
 21
-43
 31
0
  0
LINE
  8
1
 62
7
 10
-49.4
 20
43
 30
0
 11
-46.20000000000001
 21
43
 31
0
  0
LINE
  8
1
 62
3
  6
DASHDOT
 10
-76.67477057665859
 20
-49
 30
0
 11
-71.74226025355613
 21
-49
 31
0
  0
LINE
  8
1
 62
7
 10
-73.3
 20
40.99999999999999
 30
0
 11
-75.59999999999999
 21
40.99999999999999
 31
0
  0
LINE
  8
1
 62
7
 10
-46.20000000000001
 20
-43
 30
0
 11
-46.20000000000001
 21
43
 31
0
  0
LINE
  8
1
 62
7
 10
-36.60000000000003
 20
-28
 30
0
 11
-36.20000000000001
 21
-28.39999999999998
 31
0
  0
LINE
  8
1
 62
7
 10
-36.20000000000001
 20
-31.59999999999997
 30
0
 11
-36.60000000000002
 21
-32
 31
0
  0
LINE
  8
1
 62
7
 10
-36.60000000000002
 20
-32
 30
0
 11
-43.20000000000001
 21
-32
 31
0
  0
LINE
  8
1
 62
7
 10
-36.60000000000003
 20
-28
 30
0
 11
-36.60000000000002
 21
-32
 31
0
  0
LINE
  8
1
 62
3
 10
-36.20000000000001
 20
-28.39999999999998
 30
0
 11
-43.20000000000001
 21
-28.39999999999998
 31
0
  0
LINE
  8
1
 62
3
 10
-36.20000000000001
 20
-31.59999999999997
 30
0
 11
-43.20000000000001
 21
-31.59999999999997
 31
0
  0
LINE
  8
1
 62
7
 10
-36.20000000000001
 20
-31.59999999999997
 30
0
 11
-36.20000000000001
 21
-28.39999999999998
 31
0
  0
LINE
  8
1
 62
3
  6
DASHDOT
 10
-45.2
 20
0
 30
0
 11
-42.19197968235583
 21
0
 31
0
  0
LINE
  8
1
 62
7
 10
-43.20000000000001
 20
-25.5
 30
0
 11
-43.20000000000001
 21
-34.5
 31
0
  0
LINE
  8
1
 62
7
 10
-43.20000000000001
 20
-28
 30
0
 11
-36.60000000000003
 21
-28
 31
0
  0
LINE
  8
1
 62
7
 10
9.099999999999994
 20
71.64700467175609
 30
0
 11
9.099999999999994
 21
68.3437575941814
 31
0
  0
LINE
  8
1
 62
7
 10
9.599999999999994
 20
71.64700467175609
 30
0
 11
9.599999999999994
 21
68.3437575941814
 31
0
  0
LINE
  8
1
 62
7
 10
10.1
 20
71.64700467175609
 30
0
 11
10.1
 21
68.3437575941814
 31
0
  0
LINE
  8
1
 62
7
 10
8.349999999999994
 20
68.3437575941814
 30
0
 11
10.85
 21
68.3437575941814
 31
0
  0
LINE
  8
1
 62
7
 10
-50.7
 20
-42.5
 30
0
 11
-50.7
 21
42.5
 31
0
  0
LINE
  8
1
 62
7
 10
-52.14337567297405
 20
45
 30
0
 11
-52.14337567297405
 21
-45
 31
0
  0
LINE
  8
1
 62
7
 10
-75.59999999999999
 20
-55
 30
0
 11
-75.59999999999999
 21
40.99999999999999
 31
0
  0
LINE
  8
1
 62
7
 10
-68.49099508615795
 20
42.5
 30
0
 11
-62.79999999999999
 21
42.5
 31
0
  0
LINE
  8
1
 62
7
 10
-45.20000000000001
 20
30.0658262487936
 30
0
 11
-45.20000000000001
 21
-42
 31
0
  0
LINE
  8
1
 62
7
 10
-68.49099508615795
 20
-42.49999999999989
 30
0
 11
-62.79999999999999
 21
-42.5
 31
0
  0
LINE
  8
1
 62
7
 10
-61.7
 20
-45
 30
0
 11
-61.7
 21
45
 31
0
  0
LINE
  8
1
 62
7
 10
6.90900491384204
 20
42.5
 30
0
 11
12.6
 21
42.5
 31
0
  0
LINE
  8
1
 62
7
 10
24.69999999999999
 20
-20.5
 30
0
 11
25.6
 21
-20.5
 31
0
  0
LINE
  8
1
 62
7
 10
6.90900491384204
 20
-42.49999999999989
 30
0
 11
12.6
 21
-42.5
 31
0
  0
ARC
  8
1
 62
7
 10
29.91212774770101
 20
-29.80371416737291
 30
0
 40
4.099999999999978
 50
212.3900032281657
 51
254.2612974326881
  0
ARC
  8
1
 62
7
 10
29.91212774770101
 20
-30.19628583262709
 30
0
 40
4.09999999999998
 50
105.738702567312
 51
147.6099967718343
  0
ARC
  8
1
 62
7
 10
120.19482175035
 20
0
 30
0
 40
29.99999999999999
 50
289.3746472082033
 51
10.62535279179652
  0
ARC
  8
1
 62
7
 10
109.19482175035
 20
-19.05255888325765
 30
0
 40
19.99999999999996
 50
239.9999999999998
 51
291.1403903382368
  0
ARC
  8
1
 62
7
 10
109.19482175035
 20
19.05255888325766
 30
0
 40
19.99999999999997
 50
120
 51
171.1403903382368
  0
ARC
  8
1
 62
7
 10
120.1948217503499
 20
-47.50000000000004
 30
0
 40
10.50011321438865
 50
68.85960966176278
 51
111.1403903382366
  0
ARC
  8
1
 62
7
 10
79.05861507058914
 20
23.75000000000007
 30
0
 40
10.50011321438864
 50
308.8596096617632
 51
351.1403903382369
  0
ARC
  8
1
 62
7
 10
131.1948217503501
 20
-19.05255888325769
 30
0
 40
20.00000000000004
 50
248.8596096617627
 51
300.0000000000002
  0
ARC
  8
1
 62
7
 10
98.19482175034995
 20
-2.842170943040401e-014
 30
0
 40
20.00000000000004
 50
128.8596096617628
 51
179.9999999999999
  0
ARC
  8
1
 62
7
 10
161.3310284301109
 20
23.75
 30
0
 40
10.50011321438861
 50
188.8596096617632
 51
231.140390338237
  0
ARC
  8
1
 62
7
 10
131.19482175035
 20
19.05255888325772
 30
0
 40
20.00000000000007
 50
8.859609661762738
 51
59.99999999999982
  0
ARC
  8
1
 62
7
 10
142.19482175035
 20
0
 30
0
 40
20
 50
0
 51
51.14039033823677
  0
ARC
  8
1
 62
7
 10
120.19482175035
 20
0
 30
0
 40
7.500000000000028
 50
109.4712206344906
 51
70.52877936550938
  0
ARC
  8
1
 62
7
 10
110.474601730314
 20
20.845079101843
 30
0
 40
10.00000000000005
 50
115.0000000000006
 51
213.1154666816526
  0
ARC
  8
1
 62
7
 10
120.19482175035
 20
0
 30
0
 40
42.00000000000011
 50
59.99999999999996
 51
120
  0
ARC
  8
1
 62
7
 10
97.2823436942399
 20
-2.004582083196084
 30
0
 40
9.999999999999908
 50
86.88453331834772
 51
184.9999999999998
  0
ARC
  8
1
 62
7
 10
120.19482175035
 20
0
 30
0
 40
23.74999999999998
 50
139.6349937582304
 51
160.3650062417697
  0
ARC
  8
1
 62
7
 10
120.19482175035
 20
0
 30
0
 40
32.99999999999999
 50
184.9999999999999
 51
235
  0
ARC
  8
1
 62
7
 10
120.19482175035
 20
0
 30
0
 40
42.00000000000003
 50
180
 51
239.9999999999999
  0
ARC
  8
1
 62
7
 10
107.0025637142759
 20
-18.84049701864677
 30
0
 40
9.999999999999957
 50
235.0000000000003
 51
333.1154666816525
  0
ARC
  8
1
 62
7
 10
120.19482175035
 20
0
 30
0
 40
23.74999999999997
 50
259.6349937582303
 51
280.3650062417697
  0
ARC
  8
1
 62
7
 10
133.3870797864241
 20
-18.84049701864677
 30
0
 40
9.999999999999991
 50
206.8845333183475
 51
305.0000000000003
  0
ARC
  8
1
 62
7
 10
120.19482175035
 20
0
 30
0
 40
41.99999999999996
 50
300.0000000000002
 51
0
  0
ARC
  8
1
 62
7
 10
120.19482175035
 20
0
 30
0
 40
32.99999999999999
 50
305.0000000000002
 51
355.0000000000001
  0
ARC
  8
1
 62
7
 10
143.1072998064602
 20
-2.004582083196084
 30
0
 40
10.00000000000005
 50
354.9999999999999
 51
93.11546668165259
  0
ARC
  8
1
 62
7
 10
120.19482175035
 20
0
 30
0
 40
23.75000000000001
 50
19.63499375823036
 51
40.36500624176962
  0
ARC
  8
1
 62
7
 10
129.9150417703861
 20
20.84507910184291
 30
0
 40
9.999999999999954
 50
326.8845333183475
 51
65.00000000000017
  0
ARC
  8
1
 62
7
 10
120.19482175035
 20
0
 30
0
 40
33.00000000000006
 50
65.00000000000001
 51
115
  0
ARC
  8
1
 62
7
 10
120.19482175035
 20
0
 30
0
 40
29.99999999999998
 50
49.37464720820338
 51
130.6253527917966
  0
ARC
  8
1
 62
7
 10
120.19482175035
 20
0
 30
0
 40
29.99999999999998
 50
169.3746472082035
 51
250.6253527917966
  0
ARC
  8
1
 62
7
 10
120.19482175035
 20
0
 30
0
 40
54.99999999999999
 50
131.8018441931411
 51
138.198155806859
  0
ARC
  8
1
 62
7
 10
120.19482175035
 20
0
 30
0
 40
54.99999999999999
 50
41.80184419314107
 51
48.19815580685894
  0
ARC
  8
1
 62
7
 10
120.19482175035
 20
0
 30
0
 40
54.99999999999999
 50
311.8018441931411
 51
318.198155806859
  0
ARC
  8
1
 62
7
 10
120.19482175035
 20
0
 30
0
 40
54.99999999999999
 50
221.801844193141
 51
228.198155806859
  0
ARC
  8
1
 62
3
  6
DASHDOT
 10
120.19482175035
 20
0
 30
0
 40
49.00000000000001
 50
128.3841217090012
 51
141.811129328886
  0
ARC
  8
1
 62
3
  6
DASHDOT
 10
120.19482175035
 20
0
 30
0
 40
48.99999999999999
 50
218.3841217090012
 51
231.8111293288863
  0
ARC
  8
1
 62
3
  6
DASHDOT
 10
120.19482175035
 20
0
 30
0
 40
49.00000000000002
 50
308.3841217090012
 51
321.8111293288861
  0
ARC
  8
1
 62
3
  6
DASHDOT
 10
120.19482175035
 20
0
 30
0
 40
48.99999999999999
 50
38.38412170900127
 51
51.81112932888604
  0
ARC
  8
1
 62
7
 10
6.707620746113662
 20
37.8878657081458
 30
0
 40
4.616528816016322
 50
87.49982596828745
 51
176.4400694750349
  0
ARC
  8
1
 62
7
 10
6.140826713729126
 20
27.34062986206152
 30
0
 40
4.091396392290698
 50
189.0176897281661
 51
249.8358372713084
  0
ARC
  8
1
 62
7
 10
6.140826713729126
 20
-27.34062986206152
 30
0
 40
4.091396392290835
 50
110.1641627286911
 51
170.9823102718339
  0
ARC
  8
1
 62
7
 10
6.707620746113662
 20
-37.8878657081458
 30
0
 40
4.616528816016289
 50
183.5599305249652
 51
272.5001740317126
  0
ARC
  8
1
 62
3
  6
DASHDOT
 10
120.19482175035
 20
0
 30
0
 40
29.99999999999999
 50
255.2052492377092
 51
284.3632599466973
  0
ARC
  8
1
 62
3
  6
DASHDOT
 10
120.19482175035
 20
0
 30
0
 40
29.99999999999998
 50
136.7014752782784
 51
163.8961914317367
  0
ARC
  8
1
 62
3
  6
DASHDOT
 10
120.19482175035
 20
0
 30
0
 40
29.99999999999995
 50
15.57349682037523
 51
44.83928884694326
  0
ARC
  8
1
 62
7
 10
-68.69237925388633
 20
37.8878657081458
 30
0
 40
4.616528816016322
 50
87.49982596828745
 51
176.4400694750349
  0
ARC
  8
1
 62
7
 10
-68.69237925388633
 20
-37.8878657081458
 30
0
 40
4.616528816016289
 50
183.5599305249652
 51
272.5001740317126
  0
CIRCLE
  8
1
 62
7
 10
120.19482175035
 20
0
 30
0
 40
45
  0
CIRCLE
  8
1
 62
7
 10
94.21405963681687
 20
15
 30
0
 40
5.5
  0
CIRCLE
  8
1
 62
7
 10
94.21405963681687
 20
15
 30
0
 40
2
  0
CIRCLE
  8
1
 62
7
 10
94.21405963681687
 20
15
 30
0
 40
1.5
  0
CIRCLE
  8
1
 62
7
 10
120.19482175035
 20
-30
 30
0
 40
5.5
  0
CIRCLE
  8
1
 62
7
 10
120.19482175035
 20
-30
 30
0
 40
1.5
  0
CIRCLE
  8
1
 62
3
 10
120.19482175035
 20
-30
 30
0
 40
1.5
  0
CIRCLE
  8
1
 62
7
 10
120.19482175035
 20
-30
 30
0
 40
2
  0
CIRCLE
  8
1
 62
7
 10
146.1755838638832
 20
15
 30
0
 40
2
  0
CIRCLE
  8
1
 62
7
 10
146.1755838638832
 20
15
 30
0
 40
1.5
  0
CIRCLE
  8
1
 62
7
 10
146.1755838638832
 20
15
 30
0
 40
5.5
  0
CIRCLE
  8
1
 62
7
 10
85.54658947220918
 20
34.6482322781408
 30
0
 40
2.75
  0
CIRCLE
  8
1
 62
7
 10
85.54658947220918
 20
-34.64823227814077
 30
0
 40
2.75
  0
CIRCLE
  8
1
 62
7
 10
154.8430540284909
 20
-34.64823227814077
 30
0
 40
2.75
  0
CIRCLE
  8
1
 62
7
 10
154.8430540284909
 20
34.6482322781408
 30
0
 40
2.75
  0
CIRCLE
  8
1
 62
7
 10
120.19482175035
 20
37.5
 30
0
 40
3.599999999999994
  0
CIRCLE
  8
1
 62
7
 10
120.19482175035
 20
0
 30
0
 40
43.00000000000009
  0
CIRCLE
  8
1
 62
7
 10
87.71886910843358
 20
-18.75
 30
0
 40
3.599999999999994
  0
CIRCLE
  8
1
 62
7
 10
152.6707743922665
 20
-18.75
 30
0
 40
3.599999999999994
  0
CIRCLE
  8
1
 62
7
 10
120.19482175035
 20
0
 30
0
 40
22.5
  0
CIRCLE
  8
1
 62
7
 10
120.19482175035
 20
0
 30
0
 40
20.49999999999989
  0
TEXT
  8
1
 62
7
 10
-76.82770382297582
 20
107.5199019757078
 30
0
 40
3.5
  1
TMF 1.2
 41
0.9
  7
SIMPLEX
  0
TEXT
  8
1
 62
7
 10
-76.78924547486342
 20
101.1170981716628
 30
0
 40
3.5
  1
DC1502
 41
0.9
  7
SIMPLEX
  0
ENDSEC
  0
EOF
