  0
SECTION
  2
HEADER
  9
$ACADVER
  1
AC1009
  9
$INSBASE
 10
0
 20
0
  9
$EXTMIN
 10
-141.996241953306
 20
-105
  9
$EXTMAX
 10
314.4849050709768
 20
202.5561210302957
  9
$LIMMIN
 10
-141.996241953306
 20
-105
  9
$LIMMAX
 10
314.4849050709768
 20
202.5561210302957
  9
$VIEWCTR
 10
10
 20
10
  9
$VIEWSIZE
 40
10
  9
$SNAPMODE
 70
0
  9
$SNAPUNIT
 10
1
 20
1
  9
$SNAPBASE
 10
0
 20
0
  9
$SNAPANG
 50
0
  9
$SNAPSTYLE
 70
0
  9
$SNAPISOPAIR
 70
0
  9
$GRIDMODE
 70
0
  9
$GRIDUNIT
 10
0
 20
0
  9
$ORTHOMODE
 70
0
  9
$REGENMODE
 70
1
  9
$FILLMODE
 70
1
  9
$QTEXTMODE
 70
0
  9
$DRAGMODE
 70
2
  9
$LTSCALE
 40
1
  9
$OSMODE
 70
0
  9
$ATTMODE
 70
1
  9
$TEXTSIZE
 40
3.5
  9
$TRACEWID
 40
0.5
  9
$TEXTSTYLE
  7
STANDARD
  9
$CLAYER
  8
0
  9
$CELTYPE
  6
BYLAYER
  9
$CECOLOR
 62
256
  9
$DIMSCALE
 40
1
  9
$DIMASZ
 40
0.18
  9
$DIMEXO
 40
0.0625
  9
$DIMDLI
 40
0.38
  9
$DIMRND
 40
0
  9
$DIMDLE
 40
0
  9
$DIMEXE
 40
0.18
  9
$DIMTP
 40
0
  9
$DIMTM
 40
0
  9
$DIMTXT
 40
0.18
  9
$DIMCEN
 40
0.09
  9
$DIMTSZ
 40
0
  9
$DIMTOL
 70
0
  9
$DIMLIM
 70
0
  9
$DIMTIH
 70
1
  9
$DIMTOH
 70
1
  9
$DIMSE1
 70
0
  9
$DIMSE2
 70
0
  9
$DIMTAD
 70
0
  9
$DIMZIN
 70
0
  9
$DIMBLK
  1

  9
$DIMASO
 70
1
  9
$DIMSHO
 70
1
  9
$DIMPOST
  1

  9
$DIMAPOST
  1

  9
$DIMALT
 70
0
  9
$DIMALTD
 70
2
  9
$DIMALTF
 40
25.4
  9
$DIMLFAC
 40
1
  9
$DIMTOFL
 70
0
  9
$DIMTVP
 40
0
  9
$DIMTIX
 70
0
  9
$DIMSOXD
 70
0
  9
$DIMSAH
 70
0
  9
$DIMBLK1
  1

  9
$DIMBLK2
  1

  9
$DIMSTYLE
  2
*UNNAMED
  9
$DIMCLRD
 70
0
  9
$DIMCLRE
 70
0
  9
$DIMCLRT
 70
0
  9
$DIMTFAC
 40
1
  9
$DIMGAP
 40
0.09
  9
$LUNITS
 70
2
  9
$LUPREC
 70
4
  9
$AXISMODE
 70
0
  9
$AXISUNIT
 10
0
 20
0
  9
$SKETCHINC
 40
0.1
  9
$FILLETRAD
 40
2
  9
$AUNITS
 70
0
  9
$AUPREC
 70
0
  9
$MENU
  1
ACAD
  9
$ELEVATION
 40
0
  9
$THICKNESS
 40
0
  9
$VIEWDIR
 10
0
 20
0
 30
1
  9
$LIMCHECK
 70
0
  9
$BLIPMODE
 70
1
  9
$CHAMFERA
 40
0
  9
$CHAMFERB
 40
0
  9
$FASTZOOM
 70
1
  9
$SKPOLY
 70
0
  9
$ANGBASE
 50
0
  9
$ANGDIR
 70
0
  9
$PDMODE
 70
0
  9
$PDSIZE
 40
0
  9
$PLINEWID
 40
0
  9
$COORDS
 70
2
  0
ENDSEC
  0
SECTION
  2
TABLES
  0
TABLE
  2
DIMSTYLE
 70
0
  0
ENDTAB
  0
TABLE
  2
LTYPE
 70
9
  0
LTYPE
  2
CONTINUOUS
 70
64
  3
Solid line
 72
65
 73
0
 40
0
  0
LTYPE
  2
BORDER
 70
64
  3
__ __ . __ __ .
 72
65
 73
6
 40
21.0221580866446
 49
6.006330881898458
 49
-3.003165440949229
 49
6.006330881898458
 49
-3.003165440949229
 49
0
 49
-3.003165440949229
  0
LTYPE
  2
CENTER
 70
64
  3
____ _ ____ _
 72
65
 73
4
 40
24.02532352759383
 49
15.01582720474614
 49
-3.003165440949229
 49
3.003165440949229
 49
-3.003165440949229
  0
LTYPE
  2
DASHDOT
 70
64
  3
__ . __ . __ .
 72
65
 73
4
 40
12.01266176379692
 49
6.006330881898458
 49
-3.003165440949229
 49
0
 49
-3.003165440949229
  0
LTYPE
  2
DASHED
 70
64
  3
__ __ __ __ __
 72
65
 73
2
 40
9.009496322847687
 49
6.006330881898458
 49
-3.003165440949229
  0
LTYPE
  2
DIVIDE
 70
64
  3
__ . . __ . . 
 72
65
 73
6
 40
15.01582720474614
 49
6.006330881898458
 49
-3.003165440949229
 49
0
 49
-3.003165440949229
 49
0
 49
-3.003165440949229
  0
LTYPE
  2
DOT
 70
64
  3
..............
 72
65
 73
4
 40
6.006330881898458
 49
0
 49
-3.003165440949229
 49
0
 49
-3.003165440949229
  0
LTYPE
  2
HIDDEN
 70
64
  3
_ _ _ _ _ _ _
 72
65
 73
2
 40
4.504748161423843
 49
3.003165440949229
 49
-1.501582720474614
  0
LTYPE
  2
PHANTOM
 70
64
  3
_____ _ _ _____ _ _ 
 72
65
 73
6
 40
30.03165440949229
 49
15.01582720474614
 49
-3.003165440949229
 49
3.003165440949229
 49
-3.003165440949229
 49
3.003165440949229
 49
-3.003165440949229
  0
ENDTAB
  0
TABLE
  2
LAYER
 70
3
  0
LAYER
  2
1
 70
0
 62
7
  6
CONTINUOUS
  0
LAYER
  2
0
 70
0
 62
7
  6
CONTINUOUS
  0
ENDTAB
  0
TABLE
  2
STYLE
 70
4
  0
STYLE
  2
STANDARD
 70
0
 40
0
 41
1
 50
0
 71
0
 42
3.5
  3
txt
  4

  0
STYLE
  2
SIMPLEX
 70
0
 40
0
 41
1
 50
0
 71
0
 42
3.5
  3
simplex
  4

  0
STYLE
  2
COMPLEX
 70
0
 40
0
 41
1
 50
0
 71
0
 42
3.5
  3
complex
  4

  0
STYLE
  2
ITALIC
 70
0
 40
0
 41
1
 50
0
 71
0
 42
3.5
  3
italic
  4

  0
ENDTAB
  0
TABLE
  2
VIEW
 70
0
  0
ENDTAB
  0
ENDSEC
  0
SECTION
  2
BLOCKS
  0
ENDSEC
  0
SECTION
  2
ENTITIES
  0
POINT
  8
1
 62
7
  6
DOT
 10
225.4849050709768
 20
-15
 30
0
  0
LINE
  8
1
 62
3
  6
DASHDOT
 10
-141.3732925697322
 20
0
 30
0
 11
-136.4999999999998
 21
0
 31
0
  0
LINE
  8
1
 62
7
 10
-120.0999999999998
 20
-84.35000000000002
 30
0
 11
-117.3106922674391
 21
-84.35000000000002
 31
0
  0
LINE
  8
1
 62
7
 10
-120.0999999999998
 20
84.34999999999991
 30
0
 11
-117.3106922674391
 21
84.34999999999991
 31
0
  0
LINE
  8
1
 62
7
 10
-117.3106922674391
 20
84.75
 30
0
 11
-117.3106922674391
 21
-84.74999999999989
 31
0
  0
LINE
  8
1
 62
7
 10
-103.8980762113533
 20
-88.99999999999989
 30
0
 11
-103.8980762113533
 21
89
 31
0
  0
LINE
  8
1
 62
7
 10
-101.2999999999999
 20
84.5
 30
0
 11
-101.2999999999999
 21
-84.49999999999989
 31
0
  0
LINE
  8
1
 62
7
 10
-98.50000000000001
 20
85
 30
0
 11
-98.50000000000001
 21
-85
 31
0
  0
LINE
  8
1
 62
7
 10
-85.89999999999991
 20
-56
 30
0
 11
-72.69999999999992
 21
-56
 31
0
  0
LINE
  8
1
 62
7
 10
-117.3106922674391
 20
-88.99999999999989
 30
0
 11
-103.8980762113533
 21
-88.99999999999989
 31
0
  0
LINE
  8
1
 62
7
 10
-122.0999999999998
 20
136.7873208451654
 30
0
 11
-122.0999999999998
 21
134.6230738313751
 31
0
  0
LINE
  8
1
 62
3
  6
DASHDOT
 10
-89.89999999999999
 20
0
 30
0
 11
-85.02670743026759
 21
0
 31
0
  0
LINE
  8
1
 62
7
 10
-98.79999999999991
 20
84.5
 30
0
 11
-98.79999999999991
 21
-84.49999999999989
 31
0
  0
LINE
  8
1
 62
7
 10
-123.2999999999998
 20
84.5
 30
0
 11
-120.8999999999998
 21
84.5
 31
0
  0
LINE
  8
1
 62
3
 10
-71.89999999999991
 20
-63.20000000000005
 30
0
 11
-85.89999999999991
 21
-63.20000000000005
 31
0
  0
LINE
  8
1
 62
3
 10
-71.89999999999991
 20
-56.79999999999995
 30
0
 11
-85.89999999999991
 21
-56.79999999999995
 31
0
  0
LINE
  8
1
 62
7
 10
-72.69999999999992
 20
-56
 30
0
 11
-72.69999999999992
 21
-64
 31
0
  0
LINE
  8
1
 62
7
 10
-72.69999999999992
 20
-64
 30
0
 11
-85.89999999999991
 21
-64
 31
0
  0
LINE
  8
1
 62
7
 10
-71.89999999999991
 20
-63.20000000000005
 30
0
 11
-72.69999999999992
 21
-64
 31
0
  0
LINE
  8
1
 62
7
 10
-71.89999999999991
 20
-56.79999999999995
 30
0
 11
-71.89999999999991
 21
-63.20000000000005
 31
0
  0
LINE
  8
1
 62
7
 10
-72.69999999999992
 20
-56
 30
0
 11
-71.89999999999991
 21
-56.79999999999995
 31
0
  0
LINE
  8
1
 62
7
 10
-103.8980762113533
 20
-88.99999999999989
 30
0
 11
-101.2999999999999
 21
-84.49999999999989
 31
0
  0
LINE
  8
1
 62
7
 10
-117.3106922674391
 20
-88.99999999999989
 30
0
 11
-117.3106922674391
 21
-84.74999999999989
 31
0
  0
LINE
  8
1
 62
7
 10
-98.79999999999991
 20
-84.49999999999989
 30
0
 11
-101.2999999999999
 21
-84.49999999999989
 31
0
  0
LINE
  8
1
 62
7
 10
-101.2999999999999
 20
84.5
 30
0
 11
-98.79999999999991
 21
84.5
 31
0
  0
LINE
  8
1
 62
7
 10
-117.3106922674391
 20
89
 30
0
 11
-103.8980762113533
 21
89
 31
0
  0
LINE
  8
1
 62
7
 10
-117.3106922674391
 20
84.75
 30
0
 11
-117.3106922674391
 21
89
 31
0
  0
LINE
  8
1
 62
7
 10
-136.4999999999998
 20
-105
 30
0
 11
-136.4999999999998
 21
78
 31
0
  0
LINE
  8
1
 62
7
 10
-123.2999999999998
 20
84.5
 30
0
 11
-125.5999999999998
 21
84.5
 31
0
  0
LINE
  8
1
 62
7
 10
-125.5999999999998
 20
-84.5
 30
0
 11
-120.0999999999998
 21
-84.5
 31
0
  0
LINE
  8
1
 62
7
 10
-120.0999999999998
 20
84.5
 30
0
 11
-120.8999999999998
 21
84.5
 31
0
  0
LINE
  8
1
 62
7
 10
-120.0999999999998
 20
84.5
 30
0
 11
-120.0999999999998
 21
84.34999999999991
 31
0
  0
LINE
  8
1
 62
7
 10
-122.5999999999998
 20
136.7873208451654
 30
0
 11
-122.5999999999998
 21
134.6230738313751
 31
0
  0
LINE
  8
1
 62
7
 10
-121.5999999999998
 20
136.7873208451654
 30
0
 11
-121.5999999999998
 21
134.6230738313751
 31
0
  0
LINE
  8
1
 62
7
 10
-136.4999999999998
 20
78
 30
0
 11
-133.5999999999998
 21
78
 31
0
  0
LINE
  8
1
 62
3
  6
DASHDOT
 10
-138.5451324660813
 20
-95
 30
0
 11
-130.0048881171817
 21
-95
 31
0
  0
LINE
  8
1
 62
7
 10
-136.4999999999998
 20
-105
 30
0
 11
-133.5999999999998
 21
-105
 31
0
  0
LINE
  8
1
 62
7
 10
-101.2999999999999
 20
84.5
 30
0
 11
-103.8980762113533
 21
89
 31
0
  0
LINE
  8
1
 62
7
 10
-122.6891863135947
 20
134.6230738313751
 30
0
 11
-121.4876698550154
 21
134.6230738313751
 31
0
  0
LINE
  8
1
 62
7
 10
-121.4876698550154
 20
134.6230738313751
 30
0
 11
-120.8999999999998
 21
134.6230738313751
 31
0
  0
LINE
  8
1
 62
7
 10
-123.2999999999998
 20
134.6230738313751
 30
0
 11
-122.6891863135947
 21
134.6230738313751
 31
0
  0
LINE
  8
1
 62
7
 10
-120.8999999999998
 20
84.54388018027123
 30
0
 11
-120.8999999999998
 21
134.6230738313751
 31
0
  0
LINE
  8
1
 62
7
 10
-123.2999999999998
 20
134.6230738313751
 30
0
 11
-123.2999999999998
 21
84.54388018027123
 31
0
  0
LINE
  8
1
 62
3
  6
DASHDOT
 10
-98.50000000000001
 20
-60
 30
0
 11
-70.18196761324289
 21
-60
 31
0
  0
LINE
  8
1
 62
7
 10
-89.89999999999999
 20
-68
 30
0
 11
-85.89999999999991
 21
-68
 31
0
  0
LINE
  8
1
 62
7
 10
-85.89999999999991
 20
-68
 30
0
 11
-85.89999999999991
 21
-52
 31
0
  0
LINE
  8
1
 62
7
 10
-89.89999999999999
 20
-52
 30
0
 11
-85.89999999999991
 21
-52
 31
0
  0
LINE
  8
1
 62
7
 10
-91.0999999999999
 20
-84
 30
0
 11
-89.89999999999999
 21
-84
 31
0
  0
LINE
  8
1
 62
7
 10
-92.09999999999981
 20
-85
 30
0
 11
-98.50000000000001
 21
-85
 31
0
  0
LINE
  8
1
 62
7
 10
-87.0999999999999
 20
82
 30
0
 11
-87.5999999999999
 21
82.5
 31
0
  0
LINE
  8
1
 62
7
 10
-87.5999999999999
 20
68.5
 30
0
 11
-87.0999999999999
 21
69
 31
0
  0
LINE
  8
1
 62
7
 10
-89.89999999999999
 20
82.5
 30
0
 11
-89.89999999999999
 21
68.5
 31
0
  0
LINE
  8
1
 62
7
 10
-90.89999999999999
 20
68.5
 30
0
 11
-87.5999999999999
 21
68.5
 31
0
  0
LINE
  8
1
 62
7
 10
-87.0999999999999
 20
69
 30
0
 11
-87.0999999999999
 21
82
 31
0
  0
LINE
  8
1
 62
7
 10
-90.89999999999999
 20
82.5
 30
0
 11
-87.5999999999999
 21
82.5
 31
0
  0
LINE
  8
1
 62
7
 10
-92.09999999999981
 20
63.73205080756884
 30
0
 11
-91.0999999999999
 21
60
 31
0
  0
LINE
  8
1
 62
7
 10
-89.89999999999999
 20
60.15798299710491
 30
0
 11
-89.89999999999999
 21
-84
 31
0
  0
LINE
  8
1
 62
7
 10
-90.89999999999999
 20
63.89003380467386
 30
0
 11
-89.89999999999999
 21
60.15798299710491
 31
0
  0
LINE
  8
1
 62
7
 10
-92.09999999999981
 20
84
 30
0
 11
-90.89999999999999
 21
84
 31
0
  0
LINE
  8
1
 62
7
 10
-91.0999999999999
 20
60
 30
0
 11
-91.0999999999999
 21
-84
 31
0
  0
LINE
  8
1
 62
7
 10
-92.09999999999981
 20
85
 30
0
 11
-92.09999999999981
 21
-85
 31
0
  0
LINE
  8
1
 62
7
 10
-98.50000000000001
 20
85
 30
0
 11
-92.09999999999981
 21
85
 31
0
  0
LINE
  8
1
 62
7
 10
-120.8999999999998
 20
84.54388018027123
 30
0
 11
-120.8999999999998
 21
84.5
 31
0
  0
LINE
  8
1
 62
7
 10
-123.2999999999998
 20
85.09976390846623
 30
0
 11
-123.2999999999998
 21
84.5
 31
0
  0
LINE
  8
1
 62
7
 10
37.6999999999999
 20
-40.14
 30
0
 11
37.6999999999999
 21
-84.49999999999989
 31
0
  0
LINE
  8
1
 62
7
 10
14.39999999999999
 20
136.7873208451654
 30
0
 11
14.39999999999999
 21
134.6230738313751
 31
0
  0
LINE
  8
1
 62
7
 10
224.2349050709768
 20
136.0994077136328
 30
0
 11
224.2349050709768
 21
131.446522082708
 31
0
  0
LINE
  8
1
 62
7
 10
224.7349050709768
 20
136.0994077136328
 30
0
 11
224.7349050709768
 21
131.446522082708
 31
0
  0
LINE
  8
1
 62
7
 10
223.7349050709768
 20
136.0994077136328
 30
0
 11
223.7349050709768
 21
131.446522082708
 31
0
  0
LINE
  8
1
 62
7
 10
226.7349050709768
 20
136.0994077136328
 30
0
 11
226.7349050709768
 21
131.446522082708
 31
0
  0
LINE
  8
1
 62
3
  6
DASHDOT
 10
0
 20
0
 30
0
 11
-5.108790804783098
 21
0
 31
0
  0
LINE
  8
1
 62
3
  6
DASHDOT
 10
46.59999999999986
 20
0
 30
0
 11
51.47329256973229
 21
0
 31
0
  0
LINE
  8
1
 62
7
 10
37.6999999999999
 20
84.5
 30
0
 11
37.6999999999999
 21
40.14
 31
0
  0
LINE
  8
1
 62
7
 10
35.19999999999989
 20
37
 30
0
 11
37.49999999999999
 21
37
 31
0
  0
LINE
  8
1
 62
7
 10
35.19999999999989
 20
-36.99999999999989
 30
0
 11
37.49999999999999
 21
-37
 31
0
  0
LINE
  8
1
 62
3
  6
DASHDOT
 10
225.4849050709768
 20
-50.88569540065635
 30
0
 11
225.4849050709768
 21
-70.04018369659434
 31
0
  0
LINE
  8
1
 62
3
  6
DASHDOT
 10
225.4849050709768
 20
10.67509684566301
 30
0
 11
225.4849050709768
 21
-10.67509684566301
 31
0
  0
LINE
  8
1
 62
3
  6
DASHDOT
 10
236.1600019166398
 20
0
 30
0
 11
214.8098082253138
 21
0
 31
0
  0
LINE
  8
1
 62
3
  6
DASHDOT
 10
164.9589715939791
 20
34.94466398589805
 30
0
 11
182.6166475836471
 21
24.75
 31
0
  0
LINE
  8
1
 62
3
  6
DASHDOT
 10
269.2793556078397
 20
25.28473780646959
 30
0
 11
287.1504117657138
 21
35.60259688992107
 31
0
  0
LINE
  8
1
 62
7
 10
19.18930773256069
 20
-33.49999999999989
 30
0
 11
4.499999999999776
 21
-33.5
 31
0
  0
LINE
  8
1
 62
7
 10
27.89999999999999
 20
-42.49999999999989
 30
0
 11
27.89999999999999
 21
-84.34999999999999
 31
0
  0
LINE
  8
1
 62
7
 10
8.116117818584883
 20
-42.49999999999989
 30
0
 11
27.89999999999999
 21
-42.49999999999989
 31
0
  0
LINE
  8
1
 62
7
 10
32.60192378864659
 20
-88.99999999999989
 30
0
 11
35.19999999999989
 21
-84.49999999999989
 31
0
  0
LINE
  8
1
 62
7
 10
35.19999999999989
 20
-41.99999999999989
 30
0
 11
37.6999999999999
 21
-41.99999999999989
 31
0
  0
LINE
  8
1
 62
7
 10
35.19999999999989
 20
-36.99999999999989
 30
0
 11
35.19999999999989
 21
-41.99999999999989
 31
0
  0
LINE
  8
1
 62
7
 10
19.18930773256069
 20
-33.49999999999989
 30
0
 11
19.18930773256069
 21
-41.99999999999989
 31
0
  0
LINE
  8
1
 62
7
 10
30.68930773256069
 20
-41.99999999999989
 30
0
 11
19.18930773256069
 21
-41.99999999999989
 31
0
  0
LINE
  8
1
 62
7
 10
30.68930773256069
 20
-84.84999999999999
 30
0
 11
19.18930773256069
 21
-84.84999999999999
 31
0
  0
LINE
  8
1
 62
7
 10
19.18930773256069
 20
-88.99999999999989
 30
0
 11
19.18930773256069
 21
-84.84999999999999
 31
0
  0
LINE
  8
1
 62
7
 10
32.60192378864659
 20
-88.99999999999989
 30
0
 11
19.18930773256069
 21
-88.99999999999989
 31
0
  0
LINE
  8
1
 62
7
 10
37.6999999999999
 20
-84.49999999999989
 30
0
 11
35.19999999999989
 21
-84.49999999999989
 31
0
  0
LINE
  8
1
 62
7
 10
30.68930773256069
 20
-41.99999999999989
 30
0
 11
30.68930773256069
 21
-84.84999999999999
 31
0
  0
LINE
  8
1
 62
7
 10
30.68930773256069
 20
84.84999999999999
 30
0
 11
30.68930773256069
 21
42
 31
0
  0
LINE
  8
1
 62
7
 10
35.19999999999989
 20
84.5
 30
0
 11
37.6999999999999
 21
84.5
 31
0
  0
LINE
  8
1
 62
7
 10
19.18930773256069
 20
89
 30
0
 11
32.60192378864659
 21
89
 31
0
  0
LINE
  8
1
 62
7
 10
19.18930773256069
 20
84.84999999999999
 30
0
 11
19.18930773256069
 21
89
 31
0
  0
LINE
  8
1
 62
7
 10
19.18930773256069
 20
84.84999999999999
 30
0
 11
30.68930773256069
 21
84.84999999999999
 31
0
  0
LINE
  8
1
 62
7
 10
19.18930773256069
 20
42
 30
0
 11
30.68930773256069
 21
42
 31
0
  0
LINE
  8
1
 62
7
 10
19.18930773256069
 20
42
 30
0
 11
19.18930773256069
 21
33.5
 31
0
  0
LINE
  8
1
 62
7
 10
27.89999999999999
 20
42.5
 30
0
 11
8.116117818584883
 21
42.5
 31
0
  0
LINE
  8
1
 62
7
 10
2.900000000000006
 20
-105
 30
0
 11
2.900000000000006
 21
78
 31
0
  0
LINE
  8
1
 62
7
 10
0
 20
-105
 30
0
 11
0
 21
78
 31
0
  0
LINE
  8
1
 62
7
 10
4.499999999999773
 20
-15
 30
0
 11
37.49999999999979
 21
-15
 31
0
  0
LINE
  8
1
 62
7
 10
37.49999999999979
 20
15
 30
0
 11
4.499999999999773
 21
15
 31
0
  0
LINE
  8
1
 62
7
 10
10.90000000000001
 20
84.5
 30
0
 11
16.39999999999999
 21
84.5
 31
0
  0
LINE
  8
1
 62
7
 10
13.89999999999999
 20
136.7873208451654
 30
0
 11
13.89999999999999
 21
134.6230738313751
 31
0
  0
LINE
  8
1
 62
7
 10
14.89999999999999
 20
136.7873208451654
 30
0
 11
14.89999999999999
 21
134.6230738313751
 31
0
  0
LINE
  8
1
 62
7
 10
228.9849050709768
 20
18
 30
0
 11
228.9849050709768
 21
14.58595214581476
 31
0
  0
LINE
  8
1
 62
7
 10
221.9849050709768
 20
18
 30
0
 11
228.9849050709768
 21
18
 31
0
  0
LINE
  8
1
 62
7
 10
221.9849050709768
 20
14.58595214581476
 30
0
 11
221.9849050709768
 21
18
 31
0
  0
LINE
  8
1
 62
7
 10
268.3451430544504
 20
78
 30
0
 11
295.7771521541367
 21
78
 31
0
  0
LINE
  8
1
 62
7
 10
147.4849050709768
 20
-42.86023798347367
 30
0
 11
147.4849050709768
 21
-70.29224708315996
 31
0
  0
LINE
  8
1
 62
7
 10
268.3451430544504
 20
-78
 30
0
 11
295.7771521541367
 21
-78
 31
0
  0
LINE
  8
1
 62
7
 10
303.4849050709768
 20
-42.86023798347367
 30
0
 11
303.4849050709768
 21
-70.29224708315985
 31
0
  0
LINE
  8
1
 62
7
 10
0
 20
78
 30
0
 11
2.900000000000006
 21
78
 31
0
  0
LINE
  8
1
 62
7
 10
0
 20
40
 30
0
 11
2.900000000000006
 21
40
 31
0
  0
LINE
  8
1
 62
7
 10
0
 20
-40
 30
0
 11
2.900000000000006
 21
-40
 31
0
  0
LINE
  8
1
 62
7
 10
0
 20
-90.75
 30
0
 11
2.900000000000006
 21
-90.75
 31
0
  0
LINE
  8
1
 62
3
  6
DASHDOT
 10
-2.045132466081498
 20
-95
 30
0
 11
6.495111882818179
 21
-95
 31
0
  0
LINE
  8
1
 62
7
 10
0
 20
-99.25
 30
0
 11
2.900000000000006
 21
-99.25
 31
0
  0
LINE
  8
1
 62
7
 10
0
 20
-105
 30
0
 11
2.900000000000006
 21
-105
 31
0
  0
LINE
  8
1
 62
7
 10
37.49999999999979
 20
18
 30
0
 11
4.499999999999773
 21
18
 31
0
  0
LINE
  8
1
 62
7
 10
4.5
 20
33.5
 30
0
 11
4.499999999999776
 21
-33.5
 31
0
  0
LINE
  8
1
 62
7
 10
35.19999999999989
 20
42
 30
0
 11
35.19999999999989
 21
37
 31
0
  0
LINE
  8
1
 62
7
 10
37.6999999999999
 20
42
 30
0
 11
35.19999999999989
 21
42
 31
0
  0
LINE
  8
1
 62
7
 10
35.19999999999989
 20
84.5
 30
0
 11
32.60192378864659
 21
89
 31
0
  0
LINE
  8
1
 62
7
 10
45.39999999999998
 20
-49.5
 30
0
 11
46.59999999999986
 21
-49.5
 31
0
  0
LINE
  8
1
 62
7
 10
45.39999999999998
 20
-73.32981656940058
 30
0
 11
46.59999999999986
 21
-73.32981656940058
 31
0
  0
LINE
  8
1
 62
7
 10
13.81081368640508
 20
134.6230738313751
 30
0
 11
15.01233014498439
 21
134.6230738313751
 31
0
  0
LINE
  8
1
 62
7
 10
15.01233014498439
 20
134.6230738313751
 30
0
 11
15.59999999999999
 21
134.6230738313751
 31
0
  0
LINE
  8
1
 62
7
 10
13.19999999999999
 20
134.6230738313751
 30
0
 11
13.81081368640508
 21
134.6230738313751
 31
0
  0
LINE
  8
1
 62
7
 10
15.59999999999999
 20
84.5
 30
0
 11
15.59999999999999
 21
134.6230738313751
 31
0
  0
LINE
  8
1
 62
7
 10
13.19999999999999
 20
134.6230738313751
 30
0
 11
13.19999999999999
 21
84.5
 31
0
  0
LINE
  8
1
 62
3
  6
DASHDOT
 10
37.99999999999979
 20
-60
 30
0
 11
66.3180323867569
 21
-60
 31
0
  0
LINE
  8
1
 62
7
 10
37.99999999999979
 20
-52.5
 30
0
 11
45.39999999999998
 21
-52.5
 31
0
  0
LINE
  8
1
 62
7
 10
44.4
 20
-67.5
 30
0
 11
44.4
 21
-85
 31
0
  0
LINE
  8
1
 62
7
 10
37.99999999999979
 20
-67.5
 30
0
 11
44.4
 21
-67.5
 31
0
  0
LINE
  8
1
 62
7
 10
37.99999999999979
 20
-85
 30
0
 11
37.99999999999979
 21
85
 31
0
  0
LINE
  8
1
 62
7
 10
46.59999999999986
 20
-64
 30
0
 11
46.59999999999986
 21
-84
 31
0
  0
LINE
  8
1
 62
7
 10
46.59999999999986
 20
-68
 30
0
 11
50.59999999999992
 21
-68
 31
0
  0
LINE
  8
1
 62
7
 10
50.59999999999992
 20
-64
 30
0
 11
50.59999999999992
 21
-68
 31
0
  0
LINE
  8
1
 62
7
 10
50.59999999999992
 20
-52
 30
0
 11
50.59999999999992
 21
-56
 31
0
  0
LINE
  8
1
 62
7
 10
46.59999999999986
 20
-52
 30
0
 11
50.59999999999992
 21
-52
 31
0
  0
LINE
  8
1
 62
7
 10
45.39999999999998
 20
-84
 30
0
 11
46.59999999999986
 21
-84
 31
0
  0
LINE
  8
1
 62
7
 10
45.39999999999986
 20
-41.5
 30
0
 11
37.99999999999979
 21
-41.5
 31
0
  0
LINE
  8
1
 62
7
 10
44.4
 20
-85
 30
0
 11
37.99999999999979
 21
-85
 31
0
  0
LINE
  8
1
 62
7
 10
45.39999999999998
 20
60
 30
0
 11
45.39999999999998
 21
-84
 31
0
  0
LINE
  8
1
 62
7
 10
44.4
 20
67
 30
0
 11
45.59999999999986
 21
67
 31
0
  0
LINE
  8
1
 62
7
 10
49.39999999999993
 20
82
 30
0
 11
48.89999999999993
 21
82.5
 31
0
  0
LINE
  8
1
 62
7
 10
48.89999999999993
 20
68.5
 30
0
 11
49.39999999999993
 21
69
 31
0
  0
LINE
  8
1
 62
7
 10
46.59999999999986
 20
82.5
 30
0
 11
46.59999999999986
 21
68.5
 31
0
  0
LINE
  8
1
 62
7
 10
45.59999999999986
 20
68.5
 30
0
 11
48.89999999999993
 21
68.5
 31
0
  0
LINE
  8
1
 62
7
 10
49.39999999999993
 20
69
 30
0
 11
49.39999999999993
 21
82
 31
0
  0
LINE
  8
1
 62
7
 10
45.59999999999986
 20
82.5
 30
0
 11
48.89999999999993
 21
82.5
 31
0
  0
LINE
  8
1
 62
7
 10
44.4
 20
63.73205080756884
 30
0
 11
45.39999999999998
 21
60
 31
0
  0
LINE
  8
1
 62
7
 10
46.59999999999986
 20
60.15798299710491
 30
0
 11
46.59999999999986
 21
-56
 31
0
  0
LINE
  8
1
 62
7
 10
45.59999999999986
 20
63.89003380467386
 30
0
 11
46.59999999999986
 21
60.15798299710491
 31
0
  0
LINE
  8
1
 62
7
 10
44.4
 20
84
 30
0
 11
45.59999999999986
 21
84
 31
0
  0
LINE
  8
1
 62
7
 10
44.4
 20
60
 30
0
 11
45.39999999999998
 21
60
 31
0
  0
LINE
  8
1
 62
7
 10
44.4
 20
85
 30
0
 11
44.4
 21
60
 31
0
  0
LINE
  8
1
 62
7
 10
37.99999999999979
 20
85
 30
0
 11
44.4
 21
85
 31
0
  0
LINE
  8
1
 62
7
 10
37.99999999999979
 20
41.5
 30
0
 11
45.39999999999986
 21
41.5
 31
0
  0
LINE
  8
1
 62
3
  6
DASHDOT
 10
298.5912502804324
 20
73.10634520945564
 30
0
 11
287.0217990512
 21
61.53689398022311
 31
0
  0
LINE
  8
1
 62
3
  6
DASHDOT
 10
298.5912502804324
 20
-73.10634520945564
 30
0
 11
287.0217990512
 21
-61.53689398022323
 31
0
  0
LINE
  8
1
 62
3
  6
DASHDOT
 10
152.3785598615212
 20
-73.10634520945564
 30
0
 11
163.9480110907536
 21
-61.53689398022323
 31
0
  0
LINE
  8
1
 62
3
  6
DASHDOT
 10
152.3785598615212
 20
73.10634520945564
 30
0
 11
163.9480110907536
 21
61.53689398022311
 31
0
  0
LINE
  8
1
 62
7
 10
155.1926579878169
 20
78
 30
0
 11
182.6246670875031
 21
78
 31
0
  0
LINE
  8
1
 62
7
 10
303.4849050709768
 20
70.29224708315985
 30
0
 11
303.4849050709768
 21
42.86023798347367
 31
0
  0
LINE
  8
1
 62
7
 10
155.1926579878169
 20
-78
 30
0
 11
182.6246670875031
 21
-78
 31
0
  0
LINE
  8
1
 62
7
 10
147.4849050709768
 20
70.29224708315985
 30
0
 11
147.4849050709768
 21
42.86023798347367
 31
0
  0
LINE
  8
1
 62
7
 10
222.9849050709768
 20
131.446522082708
 30
0
 11
227.9849050709768
 21
131.446522082708
 31
0
  0
LINE
  8
1
 62
7
 10
227.9849050709768
 20
88.96488071143574
 30
0
 11
227.9849050709768
 21
131.446522082708
 31
0
  0
LINE
  8
1
 62
7
 10
222.9849050709768
 20
88.96488071143574
 30
0
 11
222.9849050709768
 21
131.446522082708
 31
0
  0
LINE
  8
1
 62
7
 10
19.19999999999999
 20
33.5
 30
0
 11
4.5
 21
33.5
 31
0
  0
LINE
  8
1
 62
7
 10
227.2349050709768
 20
136.0994077136328
 30
0
 11
227.2349050709768
 21
131.446522082708
 31
0
  0
LINE
  8
1
 62
7
 10
226.2349050709768
 20
136.0994077136328
 30
0
 11
226.2349050709768
 21
131.446522082708
 31
0
  0
LINE
  8
1
 62
7
 10
-120.0999999999998
 20
-84.35000000000002
 30
0
 11
-120.0999999999998
 21
-84.5
 31
0
  0
LINE
  8
1
 62
7
 10
225.4849050709768
 20
89
 30
0
 11
225.4849050709768
 21
131.446522082708
 31
0
  0
LINE
  8
1
 62
7
 10
16.39999999999999
 20
-84.5
 30
0
 11
16.39999999999999
 21
-84.34999999999999
 31
0
  0
LINE
  8
1
 62
7
 10
16.39999999999999
 20
-84.34999999999999
 30
0
 11
27.89999999999999
 21
-84.34999999999999
 31
0
  0
LINE
  8
1
 62
7
 10
16.39999999999999
 20
-84.5
 30
0
 11
10.90000000000001
 21
-84.5
 31
0
  0
LINE
  8
1
 62
7
 10
16.39999999999999
 20
84.34999999999999
 30
0
 11
16.39999999999999
 21
84.5
 31
0
  0
LINE
  8
1
 62
7
 10
16.39999999999999
 20
84.34999999999999
 30
0
 11
27.89999999999999
 21
84.34999999999999
 31
0
  0
LINE
  8
1
 62
7
 10
27.89999999999999
 20
84.34999999999999
 30
0
 11
27.89999999999999
 21
42.5
 31
0
  0
LINE
  8
1
 62
7
 10
37.49999999999999
 20
37
 30
0
 11
37.49999999999999
 21
-37
 31
0
  0
LINE
  8
1
 62
7
 10
45.59999999999986
 20
84
 30
0
 11
45.59999999999986
 21
63.89003380467386
 31
0
  0
LINE
  8
1
 62
7
 10
45.40000000000008
 20
-66.49999999999999
 30
0
 11
44.60000000000008
 21
-66.5
 31
0
  0
LINE
  8
1
 62
7
 10
44.59999999999987
 20
-53.5
 30
0
 11
45.39999999999987
 21
-53.49999999999999
 31
0
  0
LINE
  8
1
 62
7
 10
44.59999999999997
 20
-53
 30
0
 11
43.79999999999998
 21
-53
 31
0
  0
LINE
  8
1
 62
7
 10
43.79999999999998
 20
-53
 30
0
 11
43.79999999999998
 21
-67
 31
0
  0
LINE
  8
1
 62
7
 10
43.79999999999998
 20
-67
 30
0
 11
44.59999999999998
 21
-67
 31
0
  0
LINE
  8
1
 62
7
 10
44.59999999999998
 20
-67
 30
0
 11
44.59999999999997
 21
-53
 31
0
  0
LINE
  8
1
 62
7
 10
39.39999999999998
 20
-56
 30
0
 11
39.39999999999998
 21
-64
 31
0
  0
LINE
  8
1
 62
7
 10
63.79999999999993
 20
-56
 30
0
 11
64.59999999999998
 21
-56.8
 31
0
  0
LINE
  8
1
 62
7
 10
64.59999999999998
 20
-56.8
 30
0
 11
64.59999999999998
 21
-63.2
 31
0
  0
LINE
  8
1
 62
7
 10
64.59999999999998
 20
-63.2
 30
0
 11
63.79999999999993
 21
-64
 31
0
  0
LINE
  8
1
 62
7
 10
63.79999999999993
 20
-64
 30
0
 11
45.39999999999998
 21
-64
 31
0
  0
LINE
  8
1
 62
7
 10
63.79999999999993
 20
-56
 30
0
 11
63.79999999999993
 21
-64
 31
0
  0
LINE
  8
1
 62
3
 10
64.59999999999998
 20
-56.8
 30
0
 11
46.48564064605508
 21
-56.8
 31
0
  0
LINE
  8
1
 62
3
 10
46.48564064605508
 20
-56.8
 30
0
 11
45.39999999999998
 21
-56.17320508075689
 31
0
  0
LINE
  8
1
 62
3
 10
64.59999999999998
 20
-63.2
 30
0
 11
46.48564064605508
 21
-63.2
 31
0
  0
LINE
  8
1
 62
3
 10
46.48564064605508
 20
-63.2
 30
0
 11
45.39999999999998
 21
-63.82679491924311
 31
0
  0
LINE
  8
1
 62
3
 10
46.48564064605508
 20
-56
 30
0
 11
46.48564064605507
 21
-64
 31
0
  0
LINE
  8
1
 62
7
 10
45.39999999999998
 20
-55.99999999999999
 30
0
 11
63.79999999999993
 21
-56
 31
0
  0
LINE
  8
1
 62
7
 10
-133.5999999999998
 20
-105
 30
0
 11
-133.5999999999998
 21
78
 31
0
  0
LINE
  8
1
 62
7
 10
-91.0999999999999
 20
60
 30
0
 11
-92.09999999999981
 21
60
 31
0
  0
LINE
  8
1
 62
7
 10
-90.89999999999999
 20
84
 30
0
 11
-90.89999999999999
 21
63.89003380467386
 31
0
  0
ARC
  8
1
 62
3
  6
DASHDOT
 10
225.4849050709768
 20
0
 30
0
 40
60.00000000000003
 50
18.87563363713824
 51
41.91442682819991
  0
ARC
  8
1
 62
3
  6
DASHDOT
 10
225.4849050709768
 20
0
 30
0
 40
59.99999999999996
 50
138.7440001607083
 51
162.3061360581689
  0
ARC
  8
1
 62
3
  6
DASHDOT
 10
225.4849050709768
 20
0
 30
0
 40
60.00000000000004
 50
257.6916978908755
 51
282.2191528658169
  0
ARC
  8
1
 62
7
 10
225.4849050709768
 20
0
 30
0
 40
59.99999999999999
 50
287.182698115413
 51
12.81730188458695
  0
ARC
  8
1
 62
7
 10
10.90000000000001
 20
50
 30
0
 40
8.000000000000004
 50
180
 51
249.6358651936814
  0
ARC
  8
1
 62
7
 10
10.90000000000001
 20
-50
 30
0
 40
8.00000000000014
 50
110.3641348063183
 51
180
  0
ARC
  8
1
 62
7
 10
225.4849050709768
 20
0
 30
0
 40
14.99999999999994
 50
103.4933988215517
 51
76.50660117844826
  0
ARC
  8
1
 62
3
  6
DASHDOT
 10
225.4849050709768
 20
0
 30
0
 40
95.00000000000001
 50
218.6609463271926
 51
231.514938519335
  0
ARC
  8
1
 62
3
  6
DASHDOT
 10
225.4849050709768
 20
0
 30
0
 40
95.00000000000001
 50
39.60205267537874
 51
51.08523433625137
  0
ARC
  8
1
 62
3
  6
DASHDOT
 10
225.4849050709768
 20
0
 30
0
 40
94.99999999999994
 50
129.2356257536401
 51
141.1695612802237
  0
ARC
  8
1
 62
7
 10
225.4849050709768
 20
0
 30
0
 40
105
 50
312.0246275793772
 51
317.9753724206228
  0
ARC
  8
1
 62
7
 10
225.4849050709768
 20
0
 30
0
 40
105
 50
222.0246275793773
 51
227.9753724206228
  0
ARC
  8
1
 62
7
 10
225.4849050709768
 20
0
 30
0
 40
105
 50
132.0246275793772
 51
137.9753724206228
  0
ARC
  8
1
 62
7
 10
225.4849050709768
 20
0
 30
0
 40
105
 50
42.0246275793772
 51
47.97537242062278
  0
ARC
  8
1
 62
7
 10
313.8194962569896
 20
51
 30
0
 40
28.67018343059946
 50
187.3001618313576
 51
232.6998381686426
  0
ARC
  8
1
 62
7
 10
272.4849050709768
 20
0
 30
0
 40
37
 50
359.9999999999998
 51
49.64006324378043
  0
ARC
  8
1
 62
7
 10
270.3136664851053
 20
-3.922008423644684
 30
0
 40
22.00000000000012
 50
354.9999999999999
 51
86.70031372287066
  0
ARC
  8
1
 62
7
 10
225.4849050709768
 20
0
 30
0
 40
84.00000000000001
 50
300.0000000000001
 51
359.9999999999999
  0
ARC
  8
1
 62
7
 10
225.4849050709768
 20
0
 30
0
 40
49.50000000000004
 50
21.37528431144579
 51
38.62471568855428
  0
ARC
  8
1
 62
7
 10
225.4849050709768
 20
0
 30
0
 40
84.00000000000001
 50
59.99999999999999
 51
119.9999999999999
  0
ARC
  8
1
 62
7
 10
244.5027268493083
 20
40.78385041664922
 30
0
 40
21.99999999999995
 50
333.2996862771292
 51
65.0000000000002
  0
ARC
  8
1
 62
7
 10
248.9849050709768
 20
40.70319397786864
 30
0
 40
37.00000000000001
 50
10.35993675621931
 51
59.99999999999994
  0
ARC
  8
1
 62
7
 10
201.9849050709767
 20
-40.70319397786864
 30
0
 40
36.99999999999999
 50
240
 51
289.6400632437806
  0
ARC
  8
1
 62
7
 10
199.6739654351797
 20
-36.86184199300465
 30
0
 40
21.99999999999998
 50
235
 51
326.700313722871
  0
ARC
  8
1
 62
7
 10
225.4849050709768
 20
0
 30
0
 40
49.5
 50
261.3752843114457
 51
278.6247156885544
  0
ARC
  8
1
 62
7
 10
225.4849050709768
 20
0
 30
0
 40
67.00000000000001
 50
305
 51
354.9999999999999
  0
ARC
  8
1
 62
7
 10
251.2958447067739
 20
-36.86184199300465
 30
0
 40
21.99999999999991
 50
213.2996862771292
 51
305
  0
ARC
  8
1
 62
7
 10
248.9849050709768
 20
-40.70319397786864
 30
0
 40
37.00000000000006
 50
250.3599367562194
 51
300.0000000000001
  0
ARC
  8
1
 62
7
 10
225.4849050709767
 20
-102
 30
0
 40
28.67018343059933
 50
67.30016183135732
 51
112.6998381686424
  0
ARC
  8
1
 62
7
 10
178.4849050709768
 20
0
 30
0
 40
36.99999999999997
 50
130.3599367562194
 51
180
  0
ARC
  8
1
 62
7
 10
180.6561436568482
 20
-3.922008423644684
 30
0
 40
22.00000000000003
 50
93.29968627712906
 51
184.9999999999998
  0
ARC
  8
1
 62
7
 10
225.4849050709768
 20
0
 30
0
 40
84
 50
180
 51
239.9999999999999
  0
ARC
  8
1
 62
7
 10
225.4849050709768
 20
0
 30
0
 40
67.00000000000004
 50
185
 51
235
  0
ARC
  8
1
 62
7
 10
225.4849050709768
 20
0
 30
0
 40
49.49999999999997
 50
141.3752843114458
 51
158.6247156885543
  0
ARC
  8
1
 62
7
 10
225.4849050709768
 20
0
 30
0
 40
66.99999999999999
 50
65.00000000000004
 51
114.9999999999999
  0
ARC
  8
1
 62
7
 10
206.4670832926454
 20
40.78385041664922
 30
0
 40
22.00000000000007
 50
115
 51
206.7003137228708
  0
ARC
  8
1
 62
7
 10
201.9849050709768
 20
40.70319397786864
 30
0
 40
37
 50
119.9999999999998
 51
169.6400632437807
  0
ARC
  8
1
 62
7
 10
137.150313884964
 20
51
 30
0
 40
28.67018343059944
 50
307.3001618313576
 51
352.6998381686424
  0
ARC
  8
1
 62
7
 10
225.4849050709768
 20
0
 30
0
 40
60.00000000000001
 50
47.18269811541303
 51
132.8173018845869
  0
ARC
  8
1
 62
7
 10
225.4849050709768
 20
0
 30
0
 40
59.99999999999998
 50
167.182698115413
 51
252.8173018845869
  0
ARC
  8
1
 62
7
 10
-125.5999999999998
 20
-76.5
 30
0
 40
8
 50
180
 51
270
  0
ARC
  8
1
 62
7
 10
-125.5999999999998
 20
76.5
 30
0
 40
8
 50
90
 51
180
  0
ARC
  8
1
 62
7
 10
10.90000000000001
 20
-76.5
 30
0
 40
8.000000000000004
 50
180
 51
270
  0
ARC
  8
1
 62
7
 10
10.90000000000001
 20
76.5
 30
0
 40
8
 50
90
 51
180
  0
ARC
  8
1
 62
3
  6
DASHDOT
 10
225.4849050709768
 20
0
 30
0
 40
94.99999999999994
 50
309.2356257536401
 51
321.1695612802237
  0
ARC
  8
1
 62
7
 10
45.54979066057193
 20
-60.2930263021722
 30
0
 40
7.500000000000022
 50
103.4917541946821
 51
145.0819997597357
  0
ARC
  8
1
 62
7
 10
45.54979066057188
 20
-59.70697369782787
 30
0
 40
7.499999999999941
 50
214.9180002402641
 51
256.5082458053181
  0
CIRCLE
  8
1
 62
7
 10
225.4849050709768
 20
0
 30
0
 40
41.50000000000003
  0
CIRCLE
  8
1
 62
7
 10
225.4849050709768
 20
0
 30
0
 40
37.25000000000003
  0
CIRCLE
  8
1
 62
7
 10
292.6600492836988
 20
67.17514421272199
 30
0
 40
4.25
  0
CIRCLE
  8
1
 62
7
 10
292.6600492836988
 20
-67.17514421272199
 30
0
 40
4.25
  0
CIRCLE
  8
1
 62
7
 10
158.3097608582547
 20
-67.17514421272199
 30
0
 40
4.25
  0
CIRCLE
  8
1
 62
7
 10
158.3097608582548
 20
67.17514421272199
 30
0
 40
4.25
  0
CIRCLE
  8
1
 62
7
 10
225.4849050709768
 20
0
 30
0
 40
85.00000000000003
  0
CIRCLE
  8
1
 62
7
 10
277.4464292980432
 20
30
 30
0
 40
2.999999999999886
  0
CIRCLE
  8
1
 62
7
 10
225.4849050709768
 20
-60
 30
0
 40
3.000000000000114
  0
CIRCLE
  8
1
 62
7
 10
277.4464292980432
 20
30
 30
0
 40
3.999999999999886
  0
CIRCLE
  8
1
 62
7
 10
225.4849050709768
 20
-60
 30
0
 40
4
  0
CIRCLE
  8
1
 62
7
 10
277.4464292980432
 20
30
 30
0
 40
7.999999999999886
  0
CIRCLE
  8
1
 62
7
 10
225.4849050709768
 20
-60
 30
0
 40
8.000000000000114
  0
CIRCLE
  8
1
 62
7
 10
290.8698230567019
 20
-37.75
 30
0
 40
6.650000000000034
  0
CIRCLE
  8
1
 62
7
 10
160.0999870852516
 20
-37.75
 30
0
 40
6.650000000000006
  0
CIRCLE
  8
1
 62
7
 10
173.5233808439105
 20
30
 30
0
 40
3
  0
CIRCLE
  8
1
 62
7
 10
173.5233808439105
 20
30
 30
0
 40
4
  0
CIRCLE
  8
1
 62
7
 10
173.5233808439105
 20
30
 30
0
 40
8
  0
CIRCLE
  8
1
 62
7
 10
225.4849050709768
 20
75.5
 30
0
 40
6.650000000000119
  0
CIRCLE
  8
1
 62
7
 10
225.4849050709768
 20
0
 30
0
 40
88.99999999999994
  0
TEXT
  8
1
 62
7
 10
-141.996241953306
 20
195.5561210302957
 30
0
 40
7
  1
TMF 10
 41
0.9
  7
SIMPLEX
  0
TEXT
  8
1
 62
7
 10
-141.996241953306
 20
185.0561210302957
 30
0
 40
7
  1
DC1505
 41
0.9
  7
SIMPLEX
  0
ENDSEC
  0
EOF
