  0
SECTION
  2
HEADER
  9
$ACADVER
  1
AC1009
  9
$INSBASE
 10
0
 20
0
  9
$EXTMIN
 10
-85.65695806535831
 20
-42.50000000000001
  9
$EXTMAX
 10
141.6346192901349
 20
79.04127494753516
  9
$LIMMIN
 10
-85.65695806535831
 20
-42.50000000000001
  9
$LIMMAX
 10
141.6346192901349
 20
79.04127494753516
  9
$VIEWCTR
 10
10
 20
10
  9
$VIEWSIZE
 40
10
  9
$SNAPMODE
 70
0
  9
$SNAPUNIT
 10
1
 20
1
  9
$SNAPBASE
 10
0
 20
0
  9
$SNAPANG
 50
0
  9
$SNAPSTYLE
 70
0
  9
$SNAPISOPAIR
 70
0
  9
$GRIDMODE
 70
0
  9
$GRIDUNIT
 10
0
 20
0
  9
$ORTHOMODE
 70
0
  9
$REGENMODE
 70
1
  9
$FILLMODE
 70
1
  9
$QTEXTMODE
 70
0
  9
$DRAGMODE
 70
2
  9
$LTSCALE
 40
1
  9
$OSMODE
 70
0
  9
$ATTMODE
 70
1
  9
$TEXTSIZE
 40
3.5
  9
$TRACEWID
 40
0.5
  9
$TEXTSTYLE
  7
STANDARD
  9
$CLAYER
  8
0
  9
$CELTYPE
  6
BYLAYER
  9
$CECOLOR
 62
256
  9
$DIMSCALE
 40
1
  9
$DIMASZ
 40
0.18
  9
$DIMEXO
 40
0.0625
  9
$DIMDLI
 40
0.38
  9
$DIMRND
 40
0
  9
$DIMDLE
 40
0
  9
$DIMEXE
 40
0.18
  9
$DIMTP
 40
0
  9
$DIMTM
 40
0
  9
$DIMTXT
 40
0.18
  9
$DIMCEN
 40
0.09
  9
$DIMTSZ
 40
0
  9
$DIMTOL
 70
0
  9
$DIMLIM
 70
0
  9
$DIMTIH
 70
1
  9
$DIMTOH
 70
1
  9
$DIMSE1
 70
0
  9
$DIMSE2
 70
0
  9
$DIMTAD
 70
0
  9
$DIMZIN
 70
0
  9
$DIMBLK
  1

  9
$DIMASO
 70
1
  9
$DIMSHO
 70
1
  9
$DIMPOST
  1

  9
$DIMAPOST
  1

  9
$DIMALT
 70
0
  9
$DIMALTD
 70
2
  9
$DIMALTF
 40
25.4
  9
$DIMLFAC
 40
1
  9
$DIMTOFL
 70
0
  9
$DIMTVP
 40
0
  9
$DIMTIX
 70
0
  9
$DIMSOXD
 70
0
  9
$DIMSAH
 70
0
  9
$DIMBLK1
  1

  9
$DIMBLK2
  1

  9
$DIMSTYLE
  2
*UNNAMED
  9
$DIMCLRD
 70
0
  9
$DIMCLRE
 70
0
  9
$DIMCLRT
 70
0
  9
$DIMTFAC
 40
1
  9
$DIMGAP
 40
0.09
  9
$LUNITS
 70
2
  9
$LUPREC
 70
4
  9
$AXISMODE
 70
0
  9
$AXISUNIT
 10
0
 20
0
  9
$SKETCHINC
 40
0.1
  9
$FILLETRAD
 40
2
  9
$AUNITS
 70
0
  9
$AUPREC
 70
0
  9
$MENU
  1
ACAD
  9
$ELEVATION
 40
0
  9
$THICKNESS
 40
0
  9
$VIEWDIR
 10
0
 20
0
 30
1
  9
$LIMCHECK
 70
0
  9
$BLIPMODE
 70
1
  9
$CHAMFERA
 40
0
  9
$CHAMFERB
 40
0
  9
$FASTZOOM
 70
1
  9
$SKPOLY
 70
0
  9
$ANGBASE
 50
0
  9
$ANGDIR
 70
0
  9
$PDMODE
 70
0
  9
$PDSIZE
 40
0
  9
$PLINEWID
 40
0
  9
$COORDS
 70
2
  0
ENDSEC
  0
SECTION
  2
TABLES
  0
TABLE
  2
DIMSTYLE
 70
0
  0
ENDTAB
  0
TABLE
  2
LTYPE
 70
9
  0
LTYPE
  2
CONTINUOUS
 70
64
  3
Solid line
 72
65
 73
0
 40
0
  0
LTYPE
  2
BORDER
 70
64
  3
__ __ . __ __ .
 72
65
 73
6
 40
10.46737527295035
 49
2.990678649414384
 49
-1.495339324707192
 49
2.990678649414384
 49
-1.495339324707192
 49
0
 49
-1.495339324707192
  0
LTYPE
  2
CENTER
 70
64
  3
____ _ ____ _
 72
65
 73
4
 40
11.96271459765754
 49
7.476696623535961
 49
-1.495339324707192
 49
1.495339324707192
 49
-1.495339324707192
  0
LTYPE
  2
DASHDOT
 70
64
  3
__ . __ . __ .
 72
65
 73
4
 40
5.981357298828769
 49
2.990678649414384
 49
-1.495339324707192
 49
0
 49
-1.495339324707192
  0
LTYPE
  2
DASHED
 70
64
  3
__ __ __ __ __
 72
65
 73
2
 40
4.486017974121577
 49
2.990678649414384
 49
-1.495339324707192
  0
LTYPE
  2
DIVIDE
 70
64
  3
__ . . __ . . 
 72
65
 73
6
 40
7.476696623535961
 49
2.990678649414384
 49
-1.495339324707192
 49
0
 49
-1.495339324707192
 49
0
 49
-1.495339324707192
  0
LTYPE
  2
DOT
 70
64
  3
..............
 72
65
 73
4
 40
2.990678649414384
 49
0
 49
-1.495339324707192
 49
0
 49
-1.495339324707192
  0
LTYPE
  2
HIDDEN
 70
64
  3
_ _ _ _ _ _ _
 72
65
 73
2
 40
2.243008987060788
 49
1.495339324707192
 49
-0.7476696623535961
  0
LTYPE
  2
PHANTOM
 70
64
  3
_____ _ _ _____ _ _ 
 72
65
 73
6
 40
14.95339324707192
 49
7.476696623535961
 49
-1.495339324707192
 49
1.495339324707192
 49
-1.495339324707192
 49
1.495339324707192
 49
-1.495339324707192
  0
ENDTAB
  0
TABLE
  2
LAYER
 70
3
  0
LAYER
  2
1
 70
0
 62
7
  6
CONTINUOUS
  0
LAYER
  2
0
 70
0
 62
7
  6
CONTINUOUS
  0
ENDTAB
  0
TABLE
  2
STYLE
 70
4
  0
STYLE
  2
STANDARD
 70
0
 40
0
 41
1
 50
0
 71
0
 42
3.5
  3
txt
  4

  0
STYLE
  2
SIMPLEX
 70
0
 40
0
 41
1
 50
0
 71
0
 42
3.5
  3
simplex
  4

  0
STYLE
  2
COMPLEX
 70
0
 40
0
 41
1
 50
0
 71
0
 42
3.5
  3
complex
  4

  0
STYLE
  2
ITALIC
 70
0
 40
0
 41
1
 50
0
 71
0
 42
3.5
  3
italic
  4

  0
ENDTAB
  0
TABLE
  2
VIEW
 70
0
  0
ENDTAB
  0
ENDSEC
  0
SECTION
  2
BLOCKS
  0
ENDSEC
  0
SECTION
  2
ENTITIES
  0
LINE
  8
1
 62
7
 10
0
 20
-39.75
 30
0
 11
1.800000000000068
 21
-39.75
 31
0
  0
LINE
  8
1
 62
3
  6
DASHDOT
 10
0
 20
0
 30
0
 11
-2.911284433142583
 21
0
 31
0
  0
LINE
  8
1
 62
3
  6
DASHDOT
 10
23.20000000000002
 20
0
 30
0
 11
26.0977217002948
 21
0
 31
0
  0
LINE
  8
1
 62
7
 10
19.2
 20
33
 30
0
 11
8.298845533996655
 21
33.00000000000006
 31
0
  0
LINE
  8
1
 62
7
 10
8.600000000000023
 20
54.74310680686226
 30
0
 11
8.600000000000023
 21
33
 31
0
  0
LINE
  8
1
 62
7
 10
7.662634133332517
 20
56.24212162590165
 30
0
 11
7.662634133332517
 21
54.74310680686226
 31
0
  0
LINE
  8
1
 62
7
 10
7.982917036592198
 20
56.21300499833255
 30
0
 11
7.982917036592198
 21
54.74310680686226
 31
0
  0
LINE
  8
1
 62
7
 10
8.244966684713745
 20
56.18388837076346
 30
0
 11
8.244966684713745
 21
54.74310680686226
 31
0
  0
LINE
  8
1
 62
7
 10
7.40058448521097
 20
56.21300499833255
 30
0
 11
7.40058448521097
 21
54.74310680686226
 31
0
  0
LINE
  8
1
 62
7
 10
19.2
 20
33
 30
0
 11
19.2
 21
-33.00000000000003
 31
0
  0
LINE
  8
1
 62
7
 10
19.2
 20
-18.10000000000003
 30
0
 11
4.571209194599533
 21
-18.10000000000003
 31
0
  0
LINE
  8
1
 62
7
 10
4.571209194599533
 20
18.09999999999999
 30
0
 11
19.2
 21
18.09999999999999
 31
0
  0
LINE
  8
1
 62
3
  6
DASHDOT
 10
-1.333303659230864
 20
-37.5
 30
0
 11
3.45701982299056
 21
-37.5
 31
0
  0
LINE
  8
1
 62
7
 10
0
 20
-42.5
 30
0
 11
1.800000000000068
 21
-42.5
 31
0
  0
LINE
  8
1
 62
7
 10
0
 20
31
 30
0
 11
1.800000000000068
 21
31
 31
0
  0
LINE
  8
1
 62
7
 10
0
 20
31
 30
0
 11
0
 21
-42.5
 31
0
  0
LINE
  8
1
 62
7
 10
0
 20
17.5
 30
0
 11
1.800000000000068
 21
17.5
 31
0
  0
LINE
  8
1
 62
7
 10
0
 20
-17.50000000000003
 30
0
 11
1.800000000000068
 21
-17.50000000000003
 31
0
  0
LINE
  8
1
 62
7
 10
0
 20
-35.25
 30
0
 11
1.800000000000068
 21
-35.25
 31
0
  0
LINE
  8
1
 62
7
 10
8.298845533996655
 20
-33.00000000000006
 30
0
 11
19.2
 21
-33.00000000000003
 31
0
  0
LINE
  8
1
 62
7
 10
24.1
 20
26
 30
0
 11
24.40000000000001
 21
26.3
 31
0
  0
LINE
  8
1
 62
7
 10
24.1
 20
32
 30
0
 11
24.40000000000001
 21
31.7
 31
0
  0
LINE
  8
1
 62
7
 10
22.80000000000002
 20
32
 30
0
 11
24.1
 21
32
 31
0
  0
LINE
  8
1
 62
7
 10
23.30000000000002
 20
26
 30
0
 11
23.30000000000002
 21
32
 31
0
  0
LINE
  8
1
 62
7
 10
22.80000000000002
 20
26
 30
0
 11
24.1
 21
26
 31
0
  0
LINE
  8
1
 62
7
 10
24.40000000000001
 20
31.7
 30
0
 11
24.40000000000001
 21
26.3
 31
0
  0
LINE
  8
1
 62
7
 10
19.40000000000001
 20
-17.5
 30
0
 11
22.80000000000002
 21
-17.5
 31
0
  0
LINE
  8
1
 62
7
 10
19.40000000000001
 20
-33.5
 30
0
 11
22.40000000000001
 21
-33.5
 31
0
  0
LINE
  8
1
 62
7
 10
19.40000000000001
 20
17.5
 30
0
 11
22.80000000000002
 21
17.5
 31
0
  0
LINE
  8
1
 62
7
 10
19.40000000000001
 20
33.5
 30
0
 11
19.40000000000001
 21
-33.5
 31
0
  0
LINE
  8
1
 62
7
 10
22.80000000000002
 20
23
 30
0
 11
22.80000000000002
 21
-32.75
 31
0
  0
LINE
  8
1
 62
7
 10
22.40000000000001
 20
23
 30
0
 11
22.80000000000002
 21
23
 31
0
  0
LINE
  8
1
 62
7
 10
19.40000000000001
 20
33.5
 30
0
 11
22.40000000000001
 21
33.5
 31
0
  0
LINE
  8
1
 62
7
 10
22.40000000000001
 20
32.75
 30
0
 11
22.80000000000002
 21
32.75
 31
0
  0
LINE
  8
1
 62
7
 10
22.40000000000001
 20
32.75
 30
0
 11
22.80000000000002
 21
32.75
 31
0
  0
LINE
  8
1
 62
7
 10
22.40000000000001
 20
32.75
 30
0
 11
22.80000000000002
 21
32.75
 31
0
  0
LINE
  8
1
 62
7
 10
22.80000000000002
 20
32.75
 30
0
 11
22.80000000000002
 21
24.54548132206253
 31
0
  0
LINE
  8
1
 62
7
 10
22.80000000000002
 20
24.54548132206253
 30
0
 11
23.20000000000002
 21
23.10352761804101
 31
0
  0
LINE
  8
1
 62
7
 10
22.80000000000002
 20
24.54548132206253
 30
0
 11
23.20000000000002
 21
23.10352761804101
 31
0
  0
LINE
  8
1
 62
7
 10
23.20000000000002
 20
-21.5
 30
0
 11
23.20000000000002
 21
23.10352761804101
 31
0
  0
LINE
  8
1
 62
7
 10
23.20000000000002
 20
18
 30
0
 11
22.80000000000002
 21
18
 31
0
  0
LINE
  8
1
 62
7
 10
22.80000000000002
 20
23
 30
0
 11
22.40000000000001
 21
24.49282032302754
 31
0
  0
LINE
  8
1
 62
7
 10
22.40000000000001
 20
25.25
 30
0
 11
22.80000000000002
 21
25.25
 31
0
  0
LINE
  8
1
 62
7
 10
19.40000000000001
 20
-19.75
 30
0
 11
22.80000000000002
 21
-19.75
 31
0
  0
LINE
  8
1
 62
7
 10
19.40000000000001
 20
-26.25
 30
0
 11
22.40000000000001
 21
-26.25
 31
0
  0
LINE
  8
1
 62
7
 10
22.80000000000002
 20
-32.75
 30
0
 11
23.20000000000002
 21
-32.75
 31
0
  0
LINE
  8
1
 62
7
 10
23.20000000000002
 20
-24.5
 30
0
 11
23.20000000000002
 21
-32.75
 31
0
  0
LINE
  8
1
 62
7
 10
22.80000000000002
 20
-18
 30
0
 11
23.20000000000002
 21
-18
 31
0
  0
LINE
  8
1
 62
3
  6
DASHDOT
 10
18.91137160241076
 20
-23
 30
0
 11
31.21331757590311
 21
-23
 31
0
  0
LINE
  8
1
 62
7
 10
24.5
 20
-24.5
 30
0
 11
24.5
 21
-26.5
 31
0
  0
LINE
  8
1
 62
7
 10
23.20000000000002
 20
-26.5
 30
0
 11
24.5
 21
-26.5
 31
0
  0
LINE
  8
1
 62
7
 10
23.20000000000002
 20
-19.5
 30
0
 11
24.5
 21
-19.5
 31
0
  0
LINE
  8
1
 62
7
 10
24.5
 20
-19.5
 30
0
 11
24.5
 21
-21.5
 31
0
  0
LINE
  8
1
 62
3
  6
DASHDOT
 10
-61.04532905798808
 20
-23.00000000000001
 30
0
 11
-50.93137251731064
 21
-23.00000000000001
 31
0
  0
LINE
  8
1
 62
3
  6
DASHDOT
 10
-58.94469009321375
 20
-7.105427357601002e-015
 30
0
 11
-55.79587713141763
 21
-7.105427357601002e-015
 31
0
  0
LINE
  8
1
 62
3
  6
DASHDOT
 10
-82.14453562721042
 20
-7.105427357601002e-015
 30
0
 11
-85.46251588750245
 21
-7.105427357601002e-015
 31
0
  0
LINE
  8
1
 62
7
 10
-58.94469009321375
 20
-19.50000000000001
 30
0
 11
-57.64469009321375
 21
-19.50000000000001
 31
0
  0
LINE
  8
1
 62
7
 10
-58.94469009321375
 20
-26.50000000000001
 30
0
 11
-57.64469009321375
 21
-26.50000000000001
 31
0
  0
LINE
  8
1
 62
7
 10
-59.34469009321376
 20
-32.75000000000001
 30
0
 11
-58.94469009321375
 21
-32.75000000000001
 31
0
  0
LINE
  8
1
 62
7
 10
-52.34469009321376
 20
-24.50000000000001
 30
0
 11
-52.34469009321376
 21
-21.50000000000001
 31
0
  0
LINE
  8
1
 62
7
 10
-52.34469009321376
 20
-21.50000000000001
 30
0
 11
-57.64469009321375
 21
-21.50000000000001
 31
0
  0
LINE
  8
1
 62
7
 10
-51.84469009321376
 20
-22.00000000000001
 30
0
 11
-52.34469009321376
 21
-21.50000000000001
 31
0
  0
LINE
  8
1
 62
7
 10
-51.84469009321376
 20
-24.00000000000001
 30
0
 11
-51.84469009321376
 21
-22.00000000000001
 31
0
  0
LINE
  8
1
 62
7
 10
-52.34469009321376
 20
-24.50000000000001
 30
0
 11
-51.84469009321376
 21
-24.00000000000001
 31
0
  0
LINE
  8
1
 62
7
 10
-52.34469009321376
 20
-24.50000000000001
 30
0
 11
-57.64469009321375
 21
-24.50000000000001
 31
0
  0
LINE
  8
1
 62
3
 10
-51.84469009321376
 20
-24.00000000000001
 30
0
 11
-57.64469009321375
 21
-24.00000000000001
 31
0
  0
LINE
  8
1
 62
3
 10
-51.84469009321376
 20
-22.00000000000001
 30
0
 11
-57.64469009321375
 21
-22.00000000000001
 31
0
  0
LINE
  8
1
 62
7
 10
-59.34469009321376
 20
23
 30
0
 11
-59.74469009321378
 21
24.49282032302754
 31
0
  0
LINE
  8
1
 62
7
 10
-58.94469009321375
 20
-32.75000000000001
 30
0
 11
-58.94469009321374
 21
23.10352761804101
 31
0
  0
LINE
  8
1
 62
7
 10
-59.34469009321376
 20
24.54548132206253
 30
0
 11
-58.94469009321374
 21
23.10352761804101
 31
0
  0
LINE
  8
1
 62
7
 10
-59.34469009321376
 20
24.54548132206253
 30
0
 11
-58.94469009321374
 21
23.10352761804101
 31
0
  0
LINE
  8
1
 62
7
 10
-62.74469009321378
 20
33.5
 30
0
 11
-59.74469009321378
 21
33.5
 31
0
  0
LINE
  8
1
 62
7
 10
-59.34469009321376
 20
23
 30
0
 11
-59.34469009321376
 21
-32.75000000000001
 31
0
  0
LINE
  8
1
 62
7
 10
-62.74469009321378
 20
33.5
 30
0
 11
-62.74469009321378
 21
-33.50000000000001
 31
0
  0
LINE
  8
1
 62
7
 10
-62.74469009321378
 20
-33.50000000000001
 30
0
 11
-59.74469009321378
 21
-33.50000000000001
 31
0
  0
LINE
  8
1
 62
7
 10
-57.74469009321378
 20
31.7
 30
0
 11
-57.74469009321378
 21
26.3
 31
0
  0
LINE
  8
1
 62
7
 10
-59.34469009321376
 20
26
 30
0
 11
-58.04469009321375
 21
26
 31
0
  0
LINE
  8
1
 62
7
 10
-58.84469009321376
 20
26
 30
0
 11
-58.84469009321376
 21
32
 31
0
  0
LINE
  8
1
 62
7
 10
-59.34469009321376
 20
32
 30
0
 11
-58.04469009321375
 21
32
 31
0
  0
LINE
  8
1
 62
7
 10
-58.04469009321375
 20
32
 30
0
 11
-57.74469009321378
 21
31.7
 31
0
  0
LINE
  8
1
 62
7
 10
-58.04469009321375
 20
26
 30
0
 11
-57.74469009321378
 21
26.3
 31
0
  0
LINE
  8
1
 62
7
 10
-73.84569009321376
 20
-33.00000000000004
 30
0
 11
-62.94469009321378
 21
-33.00000000000004
 31
0
  0
LINE
  8
1
 62
7
 10
-82.14453562721042
 20
31
 30
0
 11
-82.14453562721042
 21
-42.50000000000001
 31
0
  0
LINE
  8
1
 62
7
 10
-82.14453562721042
 20
31
 30
0
 11
-80.34453562721035
 21
31
 31
0
  0
LINE
  8
1
 62
7
 10
-82.14453562721042
 20
-42.50000000000001
 30
0
 11
-80.34453562721035
 21
-42.50000000000001
 31
0
  0
LINE
  8
1
 62
7
 10
-62.94469009321378
 20
33
 30
0
 11
-62.94469009321378
 21
-33.00000000000004
 31
0
  0
LINE
  8
1
 62
7
 10
-74.74395114199943
 20
56.21300499833255
 30
0
 11
-74.74395114199943
 21
54.74310680686226
 31
0
  0
LINE
  8
1
 62
7
 10
-73.89956894249667
 20
56.18388837076346
 30
0
 11
-73.89956894249667
 21
54.74310680686226
 31
0
  0
LINE
  8
1
 62
7
 10
-74.16161859061822
 20
56.21300499833255
 30
0
 11
-74.16161859061822
 21
54.74310680686226
 31
0
  0
LINE
  8
1
 62
7
 10
-74.4819014938779
 20
56.24212162590165
 30
0
 11
-74.4819014938779
 21
54.74310680686226
 31
0
  0
LINE
  8
1
 62
3
  6
DASHDOT
 10
108.1346192901349
 20
-18.35752389894095
 30
0
 11
108.1346192901349
 21
-28.12504116737905
 31
0
  0
LINE
  8
1
 62
3
  6
DASHDOT
 10
108.1346192901349
 20
4.51365584138312
 30
0
 11
108.1346192901349
 21
-4.513655841383141
 31
0
  0
LINE
  8
1
 62
3
  6
DASHDOT
 10
112.648275131518
 20
-7.105427357601002e-015
 30
0
 11
103.6209634487517
 21
-7.105427357601002e-015
 31
0
  0
LINE
  8
1
 62
7
 10
109.575206880095
 20
54.74310680686226
 30
0
 11
109.575206880095
 21
56.56802242797515
 31
0
  0
LINE
  8
1
 62
7
 10
106.811837485602
 20
54.74310680686226
 30
0
 11
106.811837485602
 21
56.58181561420736
 31
0
  0
LINE
  8
1
 62
7
 10
106.5346192901348
 20
54.74310680686226
 30
0
 11
106.5346192901348
 21
33.46176922997347
 31
0
  0
LINE
  8
1
 62
7
 10
106.5346192901348
 20
54.74310680686226
 30
0
 11
109.7346192901349
 21
54.74310680686226
 31
0
  0
LINE
  8
1
 62
7
 10
109.7346192901349
 20
54.74310680686226
 30
0
 11
109.7346192901349
 21
33.46176922997347
 31
0
  0
LINE
  8
1
 62
7
 10
77.13461929013491
 20
-29.07318352021328
 30
0
 11
77.13461929013491
 21
-12.6984250992003
 31
0
  0
LINE
  8
1
 62
7
 10
137.2078028103481
 20
-31.00000000000001
 30
0
 11
120.6744564719709
 21
-31.00000000000001
 31
0
  0
LINE
  8
1
 62
7
 10
139.1346192901349
 20
29.07318352021326
 30
0
 11
139.1346192901349
 21
12.69842509920029
 31
0
  0
LINE
  8
1
 62
7
 10
79.06143576992162
 20
31
 30
0
 11
95.43619419093463
 21
31
 31
0
  0
LINE
  8
1
 62
3
  6
DASHDOT
 10
123.7230765582547
 20
8.999999999999986
 30
0
 11
132.7890399846317
 21
14.23423642468202
 31
0
  0
LINE
  8
1
 62
3
  6
DASHDOT
 10
84.21013986836232
 20
13.81280463438206
 30
0
 11
92.54616202201501
 21
8.999999999999986
 31
0
  0
LINE
  8
1
 62
7
 10
107.7437427816816
 20
56.58181561420736
 30
0
 11
107.7437427816816
 21
54.74310680686226
 31
0
  0
LINE
  8
1
 62
7
 10
107.2584656555305
 20
56.54946380579726
 30
0
 11
107.2584656555305
 21
54.74310680686226
 31
0
  0
LINE
  8
1
 62
7
 10
108.6172416087534
 20
56.54946380579726
 30
0
 11
108.6172416087534
 21
54.74310680686226
 31
0
  0
LINE
  8
1
 62
7
 10
109.1348705433145
 20
56.54946380579726
 30
0
 11
109.1348705433145
 21
54.74310680686226
 31
0
  0
LINE
  8
1
 62
3
  6
DASHDOT
 10
132.3420182512026
 20
24.20739896106771
 30
0
 11
137.4357988480269
 21
29.301179557892
 31
0
  0
LINE
  8
1
 62
3
  6
DASHDOT
 10
132.3542335374107
 20
-24.21961424727583
 30
0
 11
137.3103443883748
 21
-29.17572509824
 31
0
  0
LINE
  8
1
 62
3
  6
DASHDOT
 10
79.13266147626743
 20
-29.00195781386743
 30
0
 11
83.8822677084415
 21
-24.25235158169338
 31
0
  0
LINE
  8
1
 62
3
  6
DASHDOT
 10
79.1448767624756
 20
28.98974252765932
 30
0
 11
84.10098761343983
 21
24.03363167669508
 31
0
  0
LINE
  8
1
 62
3
  6
DASHDOT
 10
-83.17673865163309
 20
-37.5
 30
0
 11
-79.24291614192558
 21
-37.5
 31
0
  0
LINE
  8
1
 62
7
 10
120.8330443893352
 20
31
 30
0
 11
137.2078028103481
 21
31
 31
0
  0
LINE
  8
1
 62
7
 10
77.13461929013491
 20
12.69842509920029
 30
0
 11
77.13461929013491
 21
29.07318352021326
 31
0
  0
LINE
  8
1
 62
7
 10
95.43619419093463
 20
-31.00000000000001
 30
0
 11
79.06143576992162
 21
-31.00000000000001
 31
0
  0
LINE
  8
1
 62
7
 10
139.1346192901348
 20
-12.69842509920048
 30
0
 11
139.1346192901349
 21
-29.07318352021328
 31
0
  0
LINE
  8
1
 62
7
 10
108.1346192901349
 20
54.74310680686226
 30
0
 11
108.1346192901349
 21
33.49999999999999
 31
0
  0
LINE
  8
1
 62
7
 10
1.800000000000068
 20
31
 30
0
 11
1.800000000000068
 21
-42.5
 31
0
  0
LINE
  8
1
 62
7
 10
22.40000000000001
 20
-26.25
 30
0
 11
22.40000000000001
 21
-33.5
 31
0
  0
LINE
  8
1
 62
7
 10
22.40000000000001
 20
23
 30
0
 11
22.40000000000001
 21
33.5
 31
0
  0
LINE
  8
1
 62
7
 10
8.600000000000023
 20
54.74310680686226
 30
0
 11
7
 21
54.74310680686226
 31
0
  0
LINE
  8
1
 62
7
 10
7
 20
32.8866772150146
 30
0
 11
7
 21
54.74310680686226
 31
0
  0
LINE
  8
1
 62
7
 10
22.80000000000002
 20
-25.75
 30
0
 11
22.30000000000002
 21
-25.75
 31
0
  0
LINE
  8
1
 62
7
 10
22.30000000000002
 20
-20.25
 30
0
 11
22.80000000000002
 21
-20.25
 31
0
  0
LINE
  8
1
 62
7
 10
22.30000000000002
 20
-20.25
 30
0
 11
21.90000000000002
 21
-20.25
 31
0
  0
LINE
  8
1
 62
7
 10
21.90000000000002
 20
-20.25
 30
0
 11
21.90000000000002
 21
-25.75
 31
0
  0
LINE
  8
1
 62
7
 10
21.90000000000002
 20
-25.75
 30
0
 11
22.30000000000002
 21
-25.75
 31
0
  0
LINE
  8
1
 62
7
 10
22.30000000000002
 20
-25.75
 30
0
 11
22.30000000000002
 21
-20.25
 31
0
  0
LINE
  8
1
 62
7
 10
20.15000000000002
 20
-21.5
 30
0
 11
20.15000000000002
 21
-24.5
 31
0
  0
LINE
  8
1
 62
7
 10
22.80000000000002
 20
-21.5
 30
0
 11
29.70000000000002
 21
-21.5
 31
0
  0
LINE
  8
1
 62
7
 10
29.70000000000002
 20
-21.5
 30
0
 11
30.30000000000002
 21
-22.1
 31
0
  0
LINE
  8
1
 62
7
 10
30.30000000000002
 20
-22.1
 30
0
 11
30.30000000000002
 21
-23.9
 31
0
  0
LINE
  8
1
 62
7
 10
30.30000000000002
 20
-23.9
 30
0
 11
29.70000000000002
 21
-24.5
 31
0
  0
LINE
  8
1
 62
7
 10
29.70000000000002
 20
-24.5
 30
0
 11
22.80000000000002
 21
-24.5
 31
0
  0
LINE
  8
1
 62
7
 10
29.70000000000002
 20
-21.5
 30
0
 11
29.70000000000002
 21
-24.5
 31
0
  0
LINE
  8
1
 62
3
 10
30.30000000000002
 20
-22.1
 30
0
 11
23.83923048454135
 21
-22.1
 31
0
  0
LINE
  8
1
 62
3
 10
23.83923048454135
 20
-22.1
 30
0
 11
22.80000000000002
 21
-21.5
 31
0
  0
LINE
  8
1
 62
3
 10
30.30000000000002
 20
-23.9
 30
0
 11
23.83923048454135
 21
-23.9
 31
0
  0
LINE
  8
1
 62
3
 10
23.83923048454135
 20
-23.9
 30
0
 11
22.80000000000002
 21
-24.5
 31
0
  0
LINE
  8
1
 62
3
 10
23.83923048454135
 20
-21.5
 30
0
 11
23.83923048454135
 21
-24.5
 31
0
  0
LINE
  8
1
 62
7
 10
-73.54453562721038
 20
54.74310680686226
 30
0
 11
-75.14453562721042
 21
54.74310680686226
 31
0
  0
LINE
  8
1
 62
7
 10
-73.54453562721038
 20
33
 30
0
 11
-73.54453562721038
 21
54.74310680686226
 31
0
  0
LINE
  8
1
 62
7
 10
-75.14453562721042
 20
32.8090846567433
 30
0
 11
-75.14453562721042
 21
54.74310680686226
 31
0
  0
LINE
  8
1
 62
7
 10
-80.34453562721035
 20
-42.50000000000001
 30
0
 11
-80.34453562721035
 21
31
 31
0
  0
LINE
  8
1
 62
7
 10
-57.64469009321375
 20
-19.50000000000001
 30
0
 11
-57.64469009321375
 21
-26.50000000000001
 31
0
  0
LINE
  8
1
 62
7
 10
-59.74469009321378
 20
-33.50000000000001
 30
0
 11
-59.74469009321378
 21
33.5
 31
0
  0
LINE
  8
1
 62
7
 10
-59.34469009321376
 20
23
 30
0
 11
-59.74469009321378
 21
23
 31
0
  0
LINE
  8
1
 62
7
 10
-59.34469009321376
 20
32.75
 30
0
 11
-59.74469009321378
 21
32.74999999999999
 31
0
  0
LINE
  8
1
 62
7
 10
-59.34469009321376
 20
32.75
 30
0
 11
-59.34469009321376
 21
24.54548132206253
 31
0
  0
LINE
  8
1
 62
7
 10
-73.54453562721038
 20
33
 30
0
 11
-62.94469009321378
 21
33
 31
0
  0
ARC
  8
1
 62
3
  6
DASHDOT
 10
108.1346192901349
 20
-7.105427357601002e-015
 30
0
 40
22.99999999999999
 50
15.17664213011792
 51
43.22076237263818
  0
ARC
  8
1
 62
7
 10
99.25961929013491
 20
15.37195091717378
 30
0
 40
15.00000000000001
 50
120
 51
175.5879275866446
  0
ARC
  8
1
 62
7
 10
100.8444542751078
 20
15.63380932638221
 30
0
 40
7.999999999999991
 50
114.9999999999998
 51
212.8220018628984
  0
ARC
  8
1
 62
7
 10
108.1346192901349
 20
-7.105427357601002e-015
 30
0
 40
42.49999999999996
 50
313.1628971402916
 51
316.8371028597083
  0
ARC
  8
1
 62
7
 10
108.1346192901349
 20
-7.105427357601002e-015
 30
0
 40
42.5
 50
43.16289714029167
 51
46.83710285970841
  0
ARC
  8
1
 62
7
 10
108.1346192901349
 20
-7.105427357601002e-015
 30
0
 40
42.50000000000003
 50
133.1628971402917
 51
136.8371028597083
  0
ARC
  8
1
 62
7
 10
108.1346192901349
 20
-7.105427357601002e-015
 30
0
 40
42.50000000000001
 50
223.1628971402917
 51
226.8371028597083
  0
ARC
  8
1
 62
7
 10
90.95026074805233
 20
-1.503436562397106
 30
0
 40
7.999999999999992
 50
87.1779981371018
 51
185.0000000000001
  0
ARC
  8
1
 62
7
 10
118.0288128171904
 20
-14.13037276398511
 30
0
 40
7.999999999999981
 50
207.1779981371018
 51
305.0000000000003
  0
ARC
  8
1
 62
7
 10
117.0096192901349
 20
-15.37195091717381
 30
0
 40
15.00000000000001
 50
244.4120724133554
 51
299.9999999999999
  0
ARC
  8
1
 62
7
 10
98.24042576307932
 20
-14.13037276398511
 30
0
 40
7.99999999999996
 50
235.0000000000005
 51
332.822001862898
  0
ARC
  8
1
 62
7
 10
99.25961929013491
 20
-15.37195091717378
 30
0
 40
15.00000000000001
 50
239.9999999999999
 51
295.5879275866442
  0
ARC
  8
1
 62
7
 10
115.424784305162
 20
15.63380932638222
 30
0
 40
7.999999999999989
 50
327.1779981371017
 51
65.00000000000003
  0
ARC
  8
1
 62
7
 10
125.3189778322175
 20
-1.50343656239712
 30
0
 40
7.999999999999931
 50
354.9999999999998
 51
92.82200186289823
  0
ARC
  8
1
 62
7
 10
125.8846192901349
 20
0
 30
0
 40
15
 50
359.9999999999998
 51
55.5879275866445
  0
ARC
  8
1
 62
7
 10
117.0096192901349
 20
15.37195091717381
 30
0
 40
14.99999999999997
 50
4.412072413355404
 51
59.99999999999994
  0
ARC
  8
1
 62
7
 10
108.1346192901349
 20
-7.105427357601002e-015
 30
0
 40
32.75
 50
60.00000000000001
 51
120
  0
ARC
  8
1
 62
7
 10
108.1346192901349
 20
-7.105427357601002e-015
 30
0
 40
25.25000000000001
 50
64.99999999999996
 51
115
  0
ARC
  8
1
 62
7
 10
108.1346192901349
 20
-7.105427357601002e-015
 30
0
 40
25.24999999999996
 50
185
 51
235
  0
ARC
  8
1
 62
7
 10
108.1346192901349
 20
-7.105427357601002e-015
 30
0
 40
25.24999999999996
 50
305
 51
354.9999999999999
  0
ARC
  8
1
 62
7
 10
108.1346192901349
 20
-7.105427357601002e-015
 30
0
 40
32.75000000000001
 50
180
 51
240
  0
ARC
  8
1
 62
7
 10
108.1346192901349
 20
-7.105427357601002e-015
 30
0
 40
32.75000000000004
 50
299.9999999999999
 51
359.9999999999999
  0
ARC
  8
1
 62
7
 10
108.1346192901349
 20
-7.105427357601002e-015
 30
0
 40
18.00000000000001
 50
141.1236096126173
 51
158.8763903873828
  0
ARC
  8
1
 62
7
 10
108.1346192901349
 20
-7.105427357601002e-015
 30
0
 40
18.00000000000001
 50
261.1236096126169
 51
278.8763903873827
  0
ARC
  8
1
 62
7
 10
108.1346192901349
 20
-7.105427357601002e-015
 30
0
 40
17.99999999999994
 50
21.12360961261695
 51
38.87639038738282
  0
ARC
  8
1
 62
7
 10
108.1346192901349
 20
-35.32713703891357
 30
0
 40
6.858664189549438
 50
69.5480691665325
 51
110.4519308334684
  0
ARC
  8
1
 62
7
 10
138.7288174088082
 20
17.66356851945676
 30
0
 40
6.858664189549466
 50
189.5480691665321
 51
230.4519308334678
  0
ARC
  8
1
 62
7
 10
90.38461929013491
 20
-1.4210854715202e-014
 30
0
 40
15.00000000000001
 50
124.4120724133555
 51
180.0000000000001
  0
ARC
  8
1
 62
7
 10
77.54042117146153
 20
17.66356851945677
 30
0
 40
6.858664189549493
 50
309.5480691665327
 51
350.4519308334677
  0
ARC
  8
1
 62
7
 10
90.38461929013491
 20
-1.4210854715202e-014
 30
0
 40
15.00000000000001
 50
124.4120724133555
 51
180.0000000000001
  0
ARC
  8
1
 62
3
  6
DASHDOT
 10
108.1346192901349
 20
-7.105427357601002e-015
 30
0
 40
37.50000000000004
 50
126.2492675313012
 51
143.5837302353993
  0
ARC
  8
1
 62
3
  6
DASHDOT
 10
108.1346192901349
 20
-7.105427357601002e-015
 30
0
 40
37.50000000000005
 50
217.6284581497313
 51
232.2886149291685
  0
ARC
  8
1
 62
3
  6
DASHDOT
 10
108.1346192901349
 20
-7.105427357601002e-015
 30
0
 40
37.5
 50
307.1825371100609
 51
322.2032419599133
  0
ARC
  8
1
 62
3
  6
DASHDOT
 10
108.1346192901349
 20
-7.105427357601002e-015
 30
0
 40
37.49999999999996
 50
37.55627180849745
 51
52.73283636466108
  0
ARC
  8
1
 62
7
 10
108.1346192901349
 20
-7.105427357601002e-015
 30
0
 40
22.99999999999998
 50
48.94804198091638
 51
131.0519580190836
  0
ARC
  8
1
 62
7
 10
108.1346192901349
 20
-7.105427357601002e-015
 30
0
 40
22.99999999999999
 50
288.9480419809162
 51
11.05195801908346
  0
ARC
  8
1
 62
3
  6
DASHDOT
 10
108.1346192901349
 20
-7.105427357601002e-015
 30
0
 40
23.00000000000003
 50
137.2349719537654
 51
163.3428958660064
  0
ARC
  8
1
 62
3
  6
DASHDOT
 10
108.1346192901349
 20
-7.105427357601002e-015
 30
0
 40
22.99999999999999
 50
15.17664213011792
 51
43.22076237263818
  0
ARC
  8
1
 62
7
 10
108.1346192901349
 20
-7.105427357601002e-015
 30
0
 40
23.00000000000001
 50
168.9480419809164
 51
251.0519580190835
  0
ARC
  8
1
 62
3
  6
DASHDOT
 10
108.1346192901349
 20
-7.105427357601002e-015
 30
0
 40
23.00000000000003
 50
257.0084616912066
 51
283.1065098856963
  0
ARC
  8
1
 62
7
 10
7.298845533996655
 20
-24.00000000000003
 30
0
 40
6.499999999999979
 50
114.8116315025706
 51
147.776682830806
  0
ARC
  8
1
 62
7
 10
8.298845533996655
 20
-25.50000000000006
 30
0
 40
7.499999999999949
 50
209.9441084016518
 51
270
  0
ARC
  8
1
 62
7
 10
7.298845533996655
 20
24
 30
0
 40
6.49999999999996
 50
212.2233171691943
 51
245.1883684974295
  0
ARC
  8
1
 62
7
 10
-73.54453562721034
 20
26.2
 30
0
 40
6.800000000000001
 50
90
 51
180
  0
ARC
  8
1
 62
7
 10
-73.84569009321376
 20
-25.50000000000005
 30
0
 40
7.499999999999949
 50
209.9441084016518
 51
270
  0
ARC
  8
1
 62
7
 10
8.298845533996655
 20
25.50000000000006
 30
0
 40
7.499999999999996
 50
90
 51
150.0558915983482
  0
ARC
  8
1
 62
7
 10
22.65285611788652
 20
-23.1539985650411
 30
0
 40
2.999999999999984
 50
104.5338561083931
 51
146.5414994755557
  0
ARC
  8
1
 62
7
 10
22.65285611788652
 20
-22.8460014349589
 30
0
 40
2.999999999999985
 50
213.4585005244443
 51
255.4661438916069
  0
CIRCLE
  8
1
 62
7
 10
88.21603500309283
 20
11.49999999999999
 30
0
 40
1.5
  0
CIRCLE
  8
1
 62
7
 10
88.21603500309283
 20
11.49999999999999
 30
0
 40
1.100000000000009
  0
CIRCLE
  8
1
 62
7
 10
128.0532035771769
 20
11.49999999999999
 30
0
 40
1.5
  0
CIRCLE
  8
1
 62
7
 10
128.0532035771769
 20
11.49999999999999
 30
0
 40
1.099999999999909
  0
CIRCLE
  8
1
 62
7
 10
133.2493559998836
 20
-14.50000000000001
 30
0
 40
3
  0
CIRCLE
  8
1
 62
7
 10
108.1346192901349
 20
-23.00000000000001
 30
0
 40
1.099999999999994
  0
CIRCLE
  8
1
 62
7
 10
108.1346192901349
 20
-23.00000000000001
 30
0
 40
1.5
  0
CIRCLE
  8
1
 62
7
 10
83.01988258038611
 20
-14.5
 30
0
 40
3
  0
CIRCLE
  8
1
 62
7
 10
108.1346192901349
 20
28.99999999999999
 30
0
 40
3
  0
CIRCLE
  8
1
 62
7
 10
134.6511235846304
 20
-26.51650429449555
 30
0
 40
2.25
  0
CIRCLE
  8
1
 62
7
 10
81.61811499563933
 20
-26.51650429449555
 30
0
 40
2.25
  0
CIRCLE
  8
1
 62
7
 10
81.61811499563933
 20
26.51650429449552
 30
0
 40
2.25
  0
CIRCLE
  8
1
 62
7
 10
134.6511235846304
 20
26.51650429449552
 30
0
 40
2.25
  0
CIRCLE
  8
1
 62
7
 10
108.1346192901349
 20
-7.105427357601002e-015
 30
0
 40
17.5
  0
CIRCLE
  8
1
 62
7
 10
128.0532035771769
 20
11.49999999999999
 30
0
 40
3.5
  0
CIRCLE
  8
1
 62
7
 10
128.0532035771769
 20
11.49999999999999
 30
0
 40
3.5
  0
CIRCLE
  8
1
 62
7
 10
88.21603500309283
 20
11.49999999999999
 30
0
 40
3.5
  0
CIRCLE
  8
1
 62
7
 10
108.1346192901349
 20
-23.00000000000001
 30
0
 40
3.5
  0
CIRCLE
  8
1
 62
7
 10
108.1346192901349
 20
-7.105427357601002e-015
 30
0
 40
33.5
  0
TEXT
  8
1
 62
7
 10
-85.65695806535831
 20
76.04127494753516
 30
0
 40
3
  1
TMB 0.6
 41
0.9
  7
SIMPLEX
  0
TEXT
  8
1
 62
7
 10
-85.65695806535831
 20
70.79127494753516
 30
0
 40
3
  1
DC1601
 41
0.9
  7
SIMPLEX
  0
ENDSEC
  0
EOF
