  0
SECTION
  2
HEADER
  9
$ACADVER
  1
AC1009
  9
$INSBASE
 10
0
 20
0
  9
$EXTMIN
 10
-104.7404381529499
 20
-55
  9
$EXTMAX
 10
178.7590618733631
 20
105.3335444936368
  9
$LIMMIN
 10
-104.7404381529499
 20
-55
  9
$LIMMAX
 10
178.7590618733631
 20
105.3335444936368
  9
$VIEWCTR
 10
10
 20
10
  9
$VIEWSIZE
 40
10
  9
$SNAPMODE
 70
0
  9
$SNAPUNIT
 10
1
 20
1
  9
$SNAPBASE
 10
0
 20
0
  9
$SNAPANG
 50
0
  9
$SNAPSTYLE
 70
0
  9
$SNAPISOPAIR
 70
0
  9
$GRIDMODE
 70
0
  9
$GRIDUNIT
 10
0
 20
0
  9
$ORTHOMODE
 70
0
  9
$REGENMODE
 70
1
  9
$FILLMODE
 70
1
  9
$QTEXTMODE
 70
0
  9
$DRAGMODE
 70
2
  9
$LTSCALE
 40
1
  9
$OSMODE
 70
0
  9
$ATTMODE
 70
1
  9
$TEXTSIZE
 40
3.5
  9
$TRACEWID
 40
0.5
  9
$TEXTSTYLE
  7
STANDARD
  9
$CLAYER
  8
0
  9
$CELTYPE
  6
BYLAYER
  9
$CECOLOR
 62
256
  9
$DIMSCALE
 40
1
  9
$DIMASZ
 40
0.18
  9
$DIMEXO
 40
0.0625
  9
$DIMDLI
 40
0.38
  9
$DIMRND
 40
0
  9
$DIMDLE
 40
0
  9
$DIMEXE
 40
0.18
  9
$DIMTP
 40
0
  9
$DIMTM
 40
0
  9
$DIMTXT
 40
0.18
  9
$DIMCEN
 40
0.09
  9
$DIMTSZ
 40
0
  9
$DIMTOL
 70
0
  9
$DIMLIM
 70
0
  9
$DIMTIH
 70
1
  9
$DIMTOH
 70
1
  9
$DIMSE1
 70
0
  9
$DIMSE2
 70
0
  9
$DIMTAD
 70
0
  9
$DIMZIN
 70
0
  9
$DIMBLK
  1

  9
$DIMASO
 70
1
  9
$DIMSHO
 70
1
  9
$DIMPOST
  1

  9
$DIMAPOST
  1

  9
$DIMALT
 70
0
  9
$DIMALTD
 70
2
  9
$DIMALTF
 40
25.4
  9
$DIMLFAC
 40
1
  9
$DIMTOFL
 70
0
  9
$DIMTVP
 40
0
  9
$DIMTIX
 70
0
  9
$DIMSOXD
 70
0
  9
$DIMSAH
 70
0
  9
$DIMBLK1
  1

  9
$DIMBLK2
  1

  9
$DIMSTYLE
  2
*UNNAMED
  9
$DIMCLRD
 70
0
  9
$DIMCLRE
 70
0
  9
$DIMCLRT
 70
0
  9
$DIMTFAC
 40
1
  9
$DIMGAP
 40
0.09
  9
$LUNITS
 70
2
  9
$LUPREC
 70
4
  9
$AXISMODE
 70
0
  9
$AXISUNIT
 10
0
 20
0
  9
$SKETCHINC
 40
0.1
  9
$FILLETRAD
 40
2
  9
$AUNITS
 70
0
  9
$AUPREC
 70
0
  9
$MENU
  1
ACAD
  9
$ELEVATION
 40
0
  9
$THICKNESS
 40
0
  9
$VIEWDIR
 10
0
 20
0
 30
1
  9
$LIMCHECK
 70
0
  9
$BLIPMODE
 70
1
  9
$CHAMFERA
 40
0
  9
$CHAMFERB
 40
0
  9
$FASTZOOM
 70
1
  9
$SKPOLY
 70
0
  9
$ANGBASE
 50
0
  9
$ANGDIR
 70
0
  9
$PDMODE
 70
0
  9
$PDSIZE
 40
0
  9
$PLINEWID
 40
0
  9
$COORDS
 70
2
  0
ENDSEC
  0
SECTION
  2
TABLES
  0
TABLE
  2
DIMSTYLE
 70
0
  0
ENDTAB
  0
TABLE
  2
LTYPE
 70
9
  0
LTYPE
  2
CONTINUOUS
 70
64
  3
Solid line
 72
65
 73
0
 40
0
  0
LTYPE
  2
BORDER
 70
64
  3
__ __ . __ __ .
 72
65
 73
6
 40
13.05589802752757
 49
3.730256579293592
 49
-1.865128289646796
 49
3.730256579293592
 49
-1.865128289646796
 49
0
 49
-1.865128289646796
  0
LTYPE
  2
CENTER
 70
64
  3
____ _ ____ _
 72
65
 73
4
 40
14.92102631717437
 49
9.325641448233981
 49
-1.865128289646796
 49
1.865128289646796
 49
-1.865128289646796
  0
LTYPE
  2
DASHDOT
 70
64
  3
__ . __ . __ .
 72
65
 73
4
 40
7.460513158587184
 49
3.730256579293592
 49
-1.865128289646796
 49
0
 49
-1.865128289646796
  0
LTYPE
  2
DASHED
 70
64
  3
__ __ __ __ __
 72
65
 73
2
 40
5.595384868940388
 49
3.730256579293592
 49
-1.865128289646796
  0
LTYPE
  2
DIVIDE
 70
64
  3
__ . . __ . . 
 72
65
 73
6
 40
9.325641448233981
 49
3.730256579293592
 49
-1.865128289646796
 49
0
 49
-1.865128289646796
 49
0
 49
-1.865128289646796
  0
LTYPE
  2
DOT
 70
64
  3
..............
 72
65
 73
4
 40
3.730256579293592
 49
0
 49
-1.865128289646796
 49
0
 49
-1.865128289646796
  0
LTYPE
  2
HIDDEN
 70
64
  3
_ _ _ _ _ _ _
 72
65
 73
2
 40
2.797692434470194
 49
1.865128289646796
 49
-0.932564144823398
  0
LTYPE
  2
PHANTOM
 70
64
  3
_____ _ _ _____ _ _ 
 72
65
 73
6
 40
18.65128289646796
 49
9.325641448233981
 49
-1.865128289646796
 49
1.865128289646796
 49
-1.865128289646796
 49
1.865128289646796
 49
-1.865128289646796
  0
ENDTAB
  0
TABLE
  2
LAYER
 70
3
  0
LAYER
  2
1
 70
0
 62
7
  6
CONTINUOUS
  0
LAYER
  2
0
 70
0
 62
7
  6
CONTINUOUS
  0
ENDTAB
  0
TABLE
  2
STYLE
 70
4
  0
STYLE
  2
STANDARD
 70
0
 40
0
 41
1
 50
0
 71
0
 42
3.5
  3
txt
  4

  0
STYLE
  2
SIMPLEX
 70
0
 40
0
 41
1
 50
0
 71
0
 42
3.5
  3
simplex
  4

  0
STYLE
  2
COMPLEX
 70
0
 40
0
 41
1
 50
0
 71
0
 42
3.5
  3
complex
  4

  0
STYLE
  2
ITALIC
 70
0
 40
0
 41
1
 50
0
 71
0
 42
3.5
  3
italic
  4

  0
ENDTAB
  0
TABLE
  2
VIEW
 70
0
  0
ENDTAB
  0
ENDSEC
  0
SECTION
  2
BLOCKS
  0
ENDSEC
  0
SECTION
  2
ENTITIES
  0
LINE
  8
1
 62
7
 10
-76.68617499483413
 20
29.99999999999999
 30
0
 11
-77.18617499483413
 21
29.99999999999999
 31
0
  0
LINE
  8
1
 62
7
 10
-77.18617499483413
 20
-34.25000000000002
 30
0
 11
-77.18617499483413
 21
42.99999999999999
 31
0
  0
LINE
  8
1
 62
7
 10
-99.58617499483411
 20
-55
 30
0
 11
-99.58617499483411
 21
41
 31
0
  0
LINE
  8
1
 62
7
 10
-101.6861749948341
 20
41
 30
0
 11
-101.6861749948341
 21
-55
 31
0
  0
LINE
  8
1
 62
3
 10
26.03923048454132
 20
-28.00000000000002
 30
0
 11
26.03923048454132
 21
-32.00000000000002
 31
0
  0
LINE
  8
1
 62
3
 10
26.03923048454132
 20
-31.40000000000002
 30
0
 11
24.99999999999999
 21
-32.00000000000002
 31
0
  0
LINE
  8
1
 62
3
 10
34.49999999999999
 20
-31.40000000000002
 30
0
 11
26.03923048454132
 21
-31.40000000000002
 31
0
  0
LINE
  8
1
 62
3
 10
26.03923048454132
 20
-28.60000000000002
 30
0
 11
24.99999999999999
 21
-28.00000000000002
 31
0
  0
LINE
  8
1
 62
3
 10
34.49999999999999
 20
-28.60000000000002
 30
0
 11
26.03923048454132
 21
-28.60000000000002
 31
0
  0
LINE
  8
1
 62
7
 10
33.89999999999999
 20
-28.00000000000002
 30
0
 11
33.89999999999999
 21
-32.00000000000002
 31
0
  0
LINE
  8
1
 62
7
 10
33.89999999999999
 20
-32.00000000000002
 30
0
 11
24.99999999999999
 21
-32.00000000000002
 31
0
  0
LINE
  8
1
 62
7
 10
34.49999999999999
 20
-31.40000000000002
 30
0
 11
33.89999999999999
 21
-32.00000000000002
 31
0
  0
LINE
  8
1
 62
7
 10
34.49999999999999
 20
-28.60000000000002
 30
0
 11
34.49999999999999
 21
-31.40000000000002
 31
0
  0
LINE
  8
1
 62
7
 10
33.89999999999999
 20
-28.00000000000002
 30
0
 11
34.49999999999999
 21
-28.60000000000002
 31
0
  0
LINE
  8
1
 62
7
 10
24.99999999999999
 20
-28.00000000000002
 30
0
 11
33.89999999999999
 21
-28.00000000000002
 31
0
  0
LINE
  8
1
 62
7
 10
21.74999999999999
 20
-28.00000000000002
 30
0
 11
21.74999999999999
 21
-32.00000000000002
 31
0
  0
LINE
  8
1
 62
7
 10
24.49999999999999
 20
-33.75000000000002
 30
0
 11
24.49999999999999
 21
-26.25000000000002
 31
0
  0
LINE
  8
1
 62
7
 10
24.09999999999999
 20
-33.75000000000002
 30
0
 11
24.49999999999999
 21
-33.75000000000002
 31
0
  0
LINE
  8
1
 62
7
 10
24.09999999999999
 20
-26.25000000000002
 30
0
 11
24.09999999999999
 21
-33.75000000000002
 31
0
  0
LINE
  8
1
 62
7
 10
24.49999999999999
 20
-26.25000000000002
 30
0
 11
24.09999999999999
 21
-26.25000000000002
 31
0
  0
LINE
  8
1
 62
7
 10
24.49999999999999
 20
-26.50000000000002
 30
0
 11
24.99999999999999
 21
-26.50000000000002
 31
0
  0
LINE
  8
1
 62
7
 10
24.99999999999999
 20
-33.50000000000002
 30
0
 11
24.49999999999999
 21
-33.50000000000002
 31
0
  0
LINE
  8
1
 62
7
 10
24.49999999999999
 20
42.99999999999999
 30
0
 11
24.49999999999999
 21
29.99999999999999
 31
0
  0
LINE
  8
1
 62
7
 10
2.099999999999991
 20
41
 30
0
 11
2.099999999999991
 21
-55
 31
0
  0
LINE
  8
1
 62
3
  6
DASHDOT
 10
-102.6938673660495
 20
-49
 30
0
 11
-98.39134597841672
 21
-49
 31
0
  0
LINE
  8
1
 62
7
 10
8.455104373335601
 20
70.92711124288152
 30
0
 11
8.455104373335601
 21
74.27736577882311
 31
0
  0
LINE
  8
1
 62
7
 10
8.709419488942672
 20
70.92711124288152
 30
0
 11
8.709419488942672
 21
74.27736577882311
 31
0
  0
LINE
  8
1
 62
7
 10
9.744895626664441
 20
74.27736577882311
 30
0
 11
9.744895626664441
 21
70.92711124288152
 31
0
  0
LINE
  8
1
 62
7
 10
9.49058051105737
 20
74.27736577882311
 30
0
 11
9.49058051105737
 21
70.92711124288152
 31
0
  0
LINE
  8
1
 62
7
 10
7.850000000000019
 20
70.92711124288152
 30
0
 11
10.35000000000002
 21
70.92711124288152
 31
0
  0
LINE
  8
1
 62
7
 10
10.35000000000002
 20
70.92711124288152
 30
0
 11
10.35000000000002
 21
42.5
 31
0
  0
LINE
  8
1
 62
7
 10
7.850000000000019
 20
70.92711124288152
 30
0
 11
7.850000000000019
 21
42.5
 31
0
  0
LINE
  8
1
 62
3
  6
DASHDOT
 10
-1.188878415873599
 20
-49
 30
0
 11
3.84690582067509
 21
-49
 31
0
  0
LINE
  8
1
 62
7
 10
0
 20
-55
 30
0
 11
2.099999999999991
 21
-55
 31
0
  0
LINE
  8
1
 62
7
 10
0
 20
-51.75
 30
0
 11
2.099999999999991
 21
-51.75
 31
0
  0
LINE
  8
1
 62
7
 10
0
 20
-46.25
 30
0
 11
2.099999999999991
 21
-46.25
 31
0
  0
LINE
  8
1
 62
7
 10
2.099999999999991
 20
-22.5
 30
0
 11
0
 21
-22.5
 31
0
  0
LINE
  8
1
 62
7
 10
0
 20
22.5
 30
0
 11
2.099999999999991
 21
22.5
 31
0
  0
LINE
  8
1
 62
7
 10
0
 20
41
 30
0
 11
0
 21
-55
 31
0
  0
LINE
  8
1
 62
7
 10
0
 20
41
 30
0
 11
2.099999999999991
 21
41
 31
0
  0
LINE
  8
1
 62
7
 10
21.10000000000002
 20
42.5
 30
0
 11
21.10000000000002
 21
-42.5
 31
0
  0
LINE
  8
1
 62
7
 10
21.10000000000002
 20
23.10000000000002
 30
0
 11
7.100000000000019
 21
23.10000000000002
 31
0
  0
LINE
  8
1
 62
7
 10
7.100000000000019
 20
-23.10000000000002
 30
0
 11
21.10000000000002
 21
-23.10000000000002
 31
0
  0
LINE
  8
1
 62
7
 10
21.10000000000002
 20
-42.5
 30
0
 11
8.100000000000019
 21
-42.5
 31
0
  0
LINE
  8
1
 62
7
 10
7.850000000000019
 20
42.5
 30
0
 11
21.10000000000002
 21
42.5
 31
0
  0
LINE
  8
1
 62
3
  6
DASHDOT
 10
156.3271652132433
 20
11.875
 30
0
 11
167.8020018133872
 21
18.5
 31
0
  0
LINE
  8
1
 62
3
  6
DASHDOT
 10
104.2399293389177
 20
18.19757965338543
 30
0
 11
115.1909585334825
 21
11.875
 31
0
  0
LINE
  8
1
 62
7
 10
135.1895077999061
 20
71.23073203382272
 30
0
 11
135.1895077999061
 21
74.80601760292592
 31
0
  0
LINE
  8
1
 62
7
 10
134.6230951312245
 20
71.23073203382272
 30
0
 11
134.6230951312245
 21
74.74308286196131
 31
0
  0
LINE
  8
1
 62
7
 10
134.0566824625429
 20
71.23073203382272
 30
0
 11
134.0566824625429
 21
74.68014812099671
 31
0
  0
LINE
  8
1
 62
7
 10
137.461441284183
 20
74.68014812099671
 30
0
 11
137.461441284183
 21
71.23073203382272
 31
0
  0
LINE
  8
1
 62
7
 10
136.8950286155014
 20
74.74308286196131
 30
0
 11
136.8950286155014
 21
71.23073203382272
 31
0
  0
LINE
  8
1
 62
7
 10
136.3286159468198
 20
74.80601760292592
 30
0
 11
136.3286159468198
 21
71.23073203382272
 31
0
  0
LINE
  8
1
 62
7
 10
24.99999999999999
 20
-23.75000000000001
 30
0
 11
25.49999999999999
 21
-23.75000000000001
 31
0
  0
LINE
  8
1
 62
7
 10
24.99999999999999
 20
-37.00000000000002
 30
0
 11
25.49999999999999
 21
-37.00000000000002
 31
0
  0
LINE
  8
1
 62
7
 10
24.49999999999999
 20
-43.00000000000002
 30
0
 11
24.49999999999999
 21
-34.25000000000002
 31
0
  0
LINE
  8
1
 62
3
  6
DASHDOT
 10
20.62499999999999
 20
-30.00000000000002
 30
0
 11
36.00071442151287
 21
-30.00000000000002
 31
0
  0
LINE
  8
1
 62
7
 10
25.49999999999999
 20
-34.50000000000002
 30
0
 11
27.49999999999999
 21
-34.50000000000002
 31
0
  0
LINE
  8
1
 62
7
 10
27.49999999999999
 20
-32.00000000000002
 30
0
 11
27.49999999999999
 21
-34.50000000000002
 31
0
  0
LINE
  8
1
 62
7
 10
27.49999999999999
 20
-25.50000000000002
 30
0
 11
27.49999999999999
 21
-28.00000000000002
 31
0
  0
LINE
  8
1
 62
7
 10
25.49999999999999
 20
-25.50000000000002
 30
0
 11
27.49999999999999
 21
-25.50000000000002
 31
0
  0
LINE
  8
1
 62
7
 10
25.49999999999999
 20
-32.00000000000001
 30
0
 11
25.49999999999999
 21
-42.00000000000001
 31
0
  0
LINE
  8
1
 62
7
 10
21.29999999999999
 20
-34.25000000000002
 30
0
 11
24.49999999999999
 21
-34.25000000000002
 31
0
  0
LINE
  8
1
 62
7
 10
21.29999999999999
 20
-25.75000000000002
 30
0
 11
24.99999999999999
 21
-25.75000000000002
 31
0
  0
LINE
  8
1
 62
7
 10
24.99999999999999
 20
-42.00000000000001
 30
0
 11
25.49999999999999
 21
-42.00000000000001
 31
0
  0
LINE
  8
1
 62
7
 10
26.4
 20
33.89999999999999
 30
0
 11
26.9
 21
34.39999999999999
 31
0
  0
LINE
  8
1
 62
7
 10
26.9
 20
40.59999999999998
 30
0
 11
26.4
 21
41.09999999999998
 31
0
  0
LINE
  8
1
 62
7
 10
25.49999999999999
 20
41.09999999999998
 30
0
 11
25.49999999999999
 21
33.89999999999999
 31
0
  0
LINE
  8
1
 62
7
 10
24.99999999999999
 20
33.89999999999999
 30
0
 11
26.4
 21
33.89999999999999
 31
0
  0
LINE
  8
1
 62
7
 10
26.9
 20
40.59999999999998
 30
0
 11
26.9
 21
34.39999999999999
 31
0
  0
LINE
  8
1
 62
7
 10
24.99999999999999
 20
41.09999999999998
 30
0
 11
26.4
 21
41.09999999999998
 31
0
  0
LINE
  8
1
 62
7
 10
24.49999999999999
 20
32.99999999999999
 30
0
 11
24.99999999999999
 21
32.99999999999999
 31
0
  0
LINE
  8
1
 62
7
 10
24.49999999999999
 20
31.86602540378442
 30
0
 11
24.99999999999999
 21
29.99999999999999
 31
0
  0
LINE
  8
1
 62
7
 10
25.49999999999999
 20
30.06582624879367
 30
0
 11
25.49999999999999
 21
-28.00000000000001
 31
0
  0
LINE
  8
1
 62
7
 10
24.99999999999999
 20
31.93185165257812
 30
0
 11
25.49999999999999
 21
30.06582624879367
 31
0
  0
LINE
  8
1
 62
7
 10
24.99999999999999
 20
41.99999999999999
 30
0
 11
24.99999999999999
 21
31.93185165257812
 31
0
  0
LINE
  8
1
 62
7
 10
24.49999999999999
 20
41.99999999999999
 30
0
 11
24.99999999999999
 21
41.99999999999999
 31
0
  0
LINE
  8
1
 62
7
 10
24.49999999999999
 20
-43.00000000000002
 30
0
 11
21.29999999999999
 21
-43.00000000000002
 31
0
  0
LINE
  8
1
 62
7
 10
24.99999999999999
 20
-22.50000000000002
 30
0
 11
21.29999999999999
 21
-22.50000000000002
 31
0
  0
LINE
  8
1
 62
7
 10
21.29999999999999
 20
22.49999999999999
 30
0
 11
24.99999999999999
 21
22.49999999999999
 31
0
  0
LINE
  8
1
 62
7
 10
24.99999999999999
 20
29.99999999999999
 30
0
 11
24.99999999999999
 21
-42.00000000000001
 31
0
  0
LINE
  8
1
 62
7
 10
24.49999999999999
 20
29.99999999999999
 30
0
 11
24.99999999999999
 21
29.99999999999999
 31
0
  0
LINE
  8
1
 62
7
 10
21.29999999999999
 20
42.99999999999999
 30
0
 11
24.49999999999999
 21
42.99999999999999
 31
0
  0
LINE
  8
1
 62
7
 10
21.29999999999999
 20
42.99999999999999
 30
0
 11
21.29999999999999
 21
-43.00000000000002
 31
0
  0
LINE
  8
1
 62
7
 10
138.259061873363
 20
71.23073203382272
 30
0
 11
138.259061873363
 21
42.98190602703716
 31
0
  0
LINE
  8
1
 62
7
 10
133.259061873363
 20
71.23073203382272
 30
0
 11
133.259061873363
 21
42.9151527998666
 31
0
  0
LINE
  8
1
 62
7
 10
133.259061873363
 20
71.23073203382272
 30
0
 11
138.259061873363
 21
71.23073203382272
 31
0
  0
LINE
  8
1
 62
3
  6
DASHDOT
 10
173.8258209631661
 20
38.06675908980316
 30
0
 11
167.180544474298
 21
31.42148260093506
 31
0
  0
LINE
  8
1
 62
3
  6
DASHDOT
 10
173.8258209631661
 20
-38.06675908980313
 30
0
 11
167.180544474298
 21
-31.42148260093505
 31
0
  0
LINE
  8
1
 62
3
  6
DASHDOT
 10
97.69230278355977
 20
-38.06675908980314
 30
0
 11
104.3375792724279
 21
-31.42148260093506
 31
0
  0
LINE
  8
1
 62
3
  6
DASHDOT
 10
97.69230278355977
 20
38.06675908980316
 30
0
 11
104.3375792724278
 21
31.42148260093506
 31
0
  0
LINE
  8
1
 62
7
 10
148.7205432701787
 20
41
 30
0
 11
172.4196674330096
 21
41
 31
0
  0
LINE
  8
1
 62
7
 10
99.09845631371617
 20
41
 30
0
 11
122.7975804765472
 21
41
 31
0
  0
LINE
  8
1
 62
7
 10
94.75906187336287
 20
36.66060555964674
 30
0
 11
94.75906187336287
 21
12.96148139681573
 31
0
  0
LINE
  8
1
 62
7
 10
94.75906187336287
 20
-12.96148139681571
 30
0
 11
94.75906187336287
 21
-36.6606055596467
 31
0
  0
LINE
  8
1
 62
7
 10
99.09845631371617
 20
-40.99999999999999
 30
0
 11
122.7975804765472
 21
-40.99999999999999
 31
0
  0
LINE
  8
1
 62
7
 10
148.7205432701787
 20
-40.99999999999999
 30
0
 11
172.4196674330096
 21
-40.99999999999999
 31
0
  0
LINE
  8
1
 62
7
 10
176.759061873363
 20
-12.96148139681571
 30
0
 11
176.759061873363
 21
-36.6606055596467
 31
0
  0
LINE
  8
1
 62
7
 10
176.759061873363
 20
36.66060555964674
 30
0
 11
176.759061873363
 21
12.96148139681573
 31
0
  0
LINE
  8
1
 62
3
  6
DASHDOT
 10
135.7590618733629
 20
-37
 30
0
 11
135.7590618733629
 21
-23.74999999999999
 31
0
  0
LINE
  8
1
 62
3
  6
DASHDOT
 10
140.390266791824
 20
7.105427357601002e-015
 30
0
 11
131.1278569549019
 21
7.105427357601002e-015
 31
0
  0
LINE
  8
1
 62
3
  6
DASHDOT
 10
135.759061873363
 20
4.631204918461052
 30
0
 11
135.759061873363
 21
-4.63120491846103
 31
0
  0
LINE
  8
1
 62
7
 10
135.688908533156
 20
71.23073203382272
 30
0
 11
135.688908533156
 21
42.99994277332074
 31
0
  0
LINE
  8
1
 62
3
  6
DASHDOT
 10
25.49999999999999
 20
0
 30
0
 11
28.64179825725737
 21
0
 31
0
  0
LINE
  8
1
 62
3
  6
DASHDOT
 10
0
 20
0
 30
0
 11
-3.054263158115729
 21
0
 31
0
  0
LINE
  8
1
 62
7
 10
-93.23107062149852
 20
70.92711124288152
 30
0
 11
-93.23107062149852
 21
74.27736577882311
 31
0
  0
LINE
  8
1
 62
7
 10
-92.97675550589142
 20
70.92711124288152
 30
0
 11
-92.97675550589142
 21
74.27736577882311
 31
0
  0
LINE
  8
1
 62
7
 10
-91.94127936816972
 20
74.27736577882311
 30
0
 11
-91.94127936816972
 21
70.92711124288152
 31
0
  0
LINE
  8
1
 62
7
 10
-92.19559448377672
 20
74.27736577882311
 30
0
 11
-92.19559448377672
 21
70.92711124288152
 31
0
  0
LINE
  8
1
 62
7
 10
-93.83617499483411
 20
70.92711124288152
 30
0
 11
-91.33617499483411
 21
70.92711124288152
 31
0
  0
LINE
  8
1
 62
7
 10
-91.33617499483411
 20
70.92711124288152
 30
0
 11
-91.33617499483411
 21
42.5
 31
0
  0
LINE
  8
1
 62
7
 10
-93.83617499483411
 20
70.92711124288152
 30
0
 11
-93.83617499483411
 21
42.5
 31
0
  0
LINE
  8
1
 62
7
 10
-101.6861749948341
 20
-55
 30
0
 11
-99.58617499483411
 21
-55
 31
0
  0
LINE
  8
1
 62
7
 10
-101.6861749948341
 20
41
 30
0
 11
-99.58617499483411
 21
41
 31
0
  0
LINE
  8
1
 62
7
 10
-80.58617499483411
 20
42.5
 30
0
 11
-80.58617499483411
 21
-42.5
 31
0
  0
LINE
  8
1
 62
7
 10
-80.58617499483411
 20
-42.5
 30
0
 11
-93.58617499483411
 21
-42.5
 31
0
  0
LINE
  8
1
 62
7
 10
-93.83617499483411
 20
42.5
 30
0
 11
-80.58617499483411
 21
42.5
 31
0
  0
LINE
  8
1
 62
7
 10
-77.18617499483413
 20
-43.00000000000002
 30
0
 11
-77.18617499483413
 21
-34.25000000000002
 31
0
  0
LINE
  8
1
 62
3
 10
-67.18617499483413
 20
-28.70000000000002
 30
0
 11
-74.18617499483413
 21
-28.70000000000002
 31
0
  0
LINE
  8
1
 62
3
  6
DASHDOT
 10
-77.18617499483413
 20
-30.00000000000002
 30
0
 11
-65.68546057332128
 21
-30.00000000000002
 31
0
  0
LINE
  8
1
 62
7
 10
-76.18617499483413
 20
-34.50000000000002
 30
0
 11
-74.18617499483413
 21
-34.50000000000002
 31
0
  0
LINE
  8
1
 62
7
 10
-74.18617499483413
 20
-25.50000000000002
 30
0
 11
-74.18617499483413
 21
-34.50000000000002
 31
0
  0
LINE
  8
1
 62
7
 10
-76.18617499483413
 20
30.06582624879367
 30
0
 11
-76.18617499483413
 21
-42.00000000000001
 31
0
  0
LINE
  8
1
 62
7
 10
-76.18617499483413
 20
-25.50000000000002
 30
0
 11
-74.18617499483413
 21
-25.50000000000002
 31
0
  0
LINE
  8
1
 62
7
 10
-67.88617499483415
 20
-32.00000000000002
 30
0
 11
-67.88617499483415
 21
-28.00000000000002
 31
0
  0
LINE
  8
1
 62
7
 10
-67.18617499483413
 20
-28.70000000000002
 30
0
 11
-67.88617499483415
 21
-28.00000000000002
 31
0
  0
LINE
  8
1
 62
7
 10
-67.18617499483413
 20
-31.30000000000002
 30
0
 11
-67.18617499483413
 21
-28.70000000000002
 31
0
  0
LINE
  8
1
 62
7
 10
-67.88617499483415
 20
-32.00000000000002
 30
0
 11
-67.18617499483413
 21
-31.30000000000002
 31
0
  0
LINE
  8
1
 62
7
 10
-67.88617499483415
 20
-32.00000000000002
 30
0
 11
-74.18617499483413
 21
-32.00000000000002
 31
0
  0
LINE
  8
1
 62
7
 10
-76.68617499483413
 20
-42.00000000000001
 30
0
 11
-76.18617499483413
 21
-42.00000000000001
 31
0
  0
LINE
  8
1
 62
7
 10
-75.28617499483413
 20
33.89999999999999
 30
0
 11
-74.78617499483413
 21
34.39999999999999
 31
0
  0
LINE
  8
1
 62
7
 10
-74.78617499483413
 20
40.59999999999998
 30
0
 11
-75.28617499483413
 21
41.09999999999998
 31
0
  0
LINE
  8
1
 62
7
 10
-76.18617499483413
 20
41.09999999999998
 30
0
 11
-76.18617499483413
 21
33.89999999999999
 31
0
  0
LINE
  8
1
 62
7
 10
-76.68617499483413
 20
33.89999999999999
 30
0
 11
-75.28617499483413
 21
33.89999999999999
 31
0
  0
LINE
  8
1
 62
7
 10
-74.78617499483413
 20
40.59999999999998
 30
0
 11
-74.78617499483413
 21
34.39999999999999
 31
0
  0
LINE
  8
1
 62
7
 10
-76.68617499483413
 20
41.09999999999998
 30
0
 11
-75.28617499483413
 21
41.09999999999998
 31
0
  0
LINE
  8
1
 62
7
 10
-77.18617499483413
 20
31.86602540378442
 30
0
 11
-76.68617499483413
 21
29.99999999999999
 31
0
  0
LINE
  8
1
 62
7
 10
-76.68617499483413
 20
31.93185165257812
 30
0
 11
-76.18617499483413
 21
30.06582624879367
 31
0
  0
LINE
  8
1
 62
7
 10
-76.68617499483413
 20
41.99999999999999
 30
0
 11
-76.68617499483413
 21
31.93185165257812
 31
0
  0
LINE
  8
1
 62
7
 10
-77.18617499483413
 20
41.99999999999999
 30
0
 11
-76.68617499483413
 21
41.99999999999999
 31
0
  0
LINE
  8
1
 62
7
 10
-77.18617499483413
 20
-43.00000000000002
 30
0
 11
-80.38617499483415
 21
-43.00000000000002
 31
0
  0
LINE
  8
1
 62
7
 10
-76.68617499483413
 20
29.99999999999999
 30
0
 11
-76.68617499483413
 21
-42.00000000000001
 31
0
  0
LINE
  8
1
 62
7
 10
-80.38617499483415
 20
42.99999999999999
 30
0
 11
-77.18617499483413
 21
42.99999999999999
 31
0
  0
LINE
  8
1
 62
7
 10
-80.38617499483415
 20
42.99999999999999
 30
0
 11
-80.38617499483415
 21
-43.00000000000002
 31
0
  0
LINE
  8
1
 62
3
  6
DASHDOT
 10
-76.18617499483413
 20
0
 30
0
 11
-73.04437673757677
 21
0
 31
0
  0
LINE
  8
1
 62
3
  6
DASHDOT
 10
-101.6861749948341
 20
0
 30
0
 11
-104.7404381529499
 21
0
 31
0
  0
LINE
  8
1
 62
7
 10
-74.18617499483413
 20
-28.00000000000002
 30
0
 11
-67.88617499483415
 21
-28.00000000000002
 31
0
  0
LINE
  8
1
 62
3
 10
-74.18617499483413
 20
-31.30000000000002
 30
0
 11
-67.18617499483413
 21
-31.30000000000002
 31
0
  0
LINE
  8
1
 62
7
 10
-92.59446116662711
 20
70.92711124288152
 30
0
 11
-92.59446116662711
 21
74.24813990699582
 31
0
  0
LINE
  8
1
 62
7
 10
9.08352987950347
 20
70.92711124288152
 30
0
 11
9.08352987950347
 21
74.25673021942981
 31
0
  0
ARC
  8
1
 62
7
 10
25.21212774770102
 20
-29.80371416737293
 30
0
 40
4.099999999999987
 50
212.3900032281657
 51
254.2612974326879
  0
ARC
  8
1
 62
7
 10
25.21212774770102
 20
-30.19628583262712
 30
0
 40
4.09999999999999
 50
105.7387025673121
 51
147.6099967718343
  0
ARC
  8
1
 62
7
 10
124.759061873363
 20
-19.05255888325763
 30
0
 40
20.0000000000001
 50
239.9999999999998
 51
291.1403903382367
  0
ARC
  8
1
 62
7
 10
124.759061873363
 20
19.05255888325766
 30
0
 40
20.00000000000002
 50
120
 51
171.140390338237
  0
ARC
  8
1
 62
7
 10
135.759061873363
 20
-47.49999999999994
 30
0
 40
10.50011321438853
 50
68.85960966176484
 51
111.1403903382374
  0
ARC
  8
1
 62
7
 10
94.62285519360221
 20
23.74999999999997
 30
0
 40
10.50011321438851
 50
308.8596096617649
 51
351.140390338237
  0
ARC
  8
1
 62
7
 10
146.759061873363
 20
-19.05255888325766
 30
0
 40
20.00000000000003
 50
248.859609661762
 51
299.9999999999999
  0
ARC
  8
1
 62
7
 10
113.759061873363
 20
1.4210854715202e-014
 30
0
 40
20.00000000000004
 50
128.8596096617621
 51
180.0000000000001
  0
ARC
  8
1
 62
7
 10
157.759061873363
 20
-1.4210854715202e-014
 30
0
 40
20
 50
359.9999999999997
 51
51.14039033823709
  0
ARC
  8
1
 62
7
 10
176.8952685531238
 20
23.75
 30
0
 40
10.50011321438854
 50
188.8596096617649
 51
231.1403903382369
  0
ARC
  8
1
 62
7
 10
8.100000000000019
 20
36.50521059585913
 30
0
 40
5.999999999999968
 50
92.3880154632688
 51
180
  0
ARC
  8
1
 62
7
 10
8.100000000000019
 20
-36.5
 30
0
 40
5.999999999999998
 50
180
 51
270
  0
ARC
  8
1
 62
7
 10
-93.58617499483411
 20
36.50521059585913
 30
0
 40
5.999999999999968
 50
92.3880154632688
 51
180
  0
ARC
  8
1
 62
7
 10
-93.58617499483411
 20
-36.5
 30
0
 40
6
 50
180
 51
270
  0
ARC
  8
1
 62
3
  6
DASHDOT
 10
135.759061873363
 20
7.105427357601002e-015
 30
0
 40
29.99999999999995
 50
15.5461629770432
 51
45.22429551156711
  0
ARC
  8
1
 62
3
  6
DASHDOT
 10
135.759061873363
 20
7.105427357601002e-015
 30
0
 40
29.99999999999997
 50
254.3359526277402
 51
284.7617330819114
  0
ARC
  8
1
 62
3
  6
DASHDOT
 10
135.759061873363
 20
7.105427357601002e-015
 30
0
 40
30.00000000000008
 50
135.113321434143
 51
165.8639647400645
  0
ARC
  8
1
 62
7
 10
7.809791017545141
 20
28.77202871994916
 30
0
 40
5.716267408765629
 50
182.7276516887386
 51
262.8671519877295
  0
ARC
  8
1
 62
7
 10
7.809791017545141
 20
-28.77202871994922
 30
0
 40
5.716267408765645
 50
97.1328480122704
 51
177.2723483112609
  0
ARC
  8
1
 62
3
  6
DASHDOT
 10
135.759061873363
 20
7.105427357601002e-015
 30
0
 40
48.99999999999999
 50
38.38412170900127
 51
51.81112932888615
  0
ARC
  8
1
 62
3
  6
DASHDOT
 10
135.759061873363
 20
7.105427357601002e-015
 30
0
 40
48.99999999999989
 50
308.384121709001
 51
321.811129328886
  0
ARC
  8
1
 62
3
  6
DASHDOT
 10
135.759061873363
 20
7.105427357601002e-015
 30
0
 40
49.00000000000011
 50
218.3841217090011
 51
231.8111293288859
  0
ARC
  8
1
 62
3
  6
DASHDOT
 10
135.759061873363
 20
7.105427357601002e-015
 30
0
 40
49.00000000000006
 50
128.3841217090013
 51
141.8111293288861
  0
ARC
  8
1
 62
7
 10
135.759061873363
 20
7.105427357601002e-015
 30
0
 40
55.00000000000009
 50
221.8018441931409
 51
228.1981558068588
  0
ARC
  8
1
 62
7
 10
135.759061873363
 20
7.105427357601002e-015
 30
0
 40
54.99999999999992
 50
311.801844193141
 51
318.198155806859
  0
ARC
  8
1
 62
7
 10
135.759061873363
 20
7.105427357601002e-015
 30
0
 40
55.00000000000001
 50
41.80184419314109
 51
48.19815580685903
  0
ARC
  8
1
 62
7
 10
135.759061873363
 20
7.105427357601002e-015
 30
0
 40
55.00000000000008
 50
131.8018441931412
 51
138.198155806859
  0
ARC
  8
1
 62
7
 10
135.759061873363
 20
7.105427357601002e-015
 30
0
 40
30.00000000000008
 50
169.3746472082035
 51
250.6253527917963
  0
ARC
  8
1
 62
7
  6
DASHDOT
 10
135.759061873363
 20
7.105427357601002e-015
 30
0
 40
29.99999999999996
 50
289.3746472082032
 51
290.6056188518252
  0
ARC
  8
1
 62
7
 10
135.759061873363
 20
7.105427357601002e-015
 30
0
 40
29.99999999999993
 50
49.37464720820351
 51
130.6253527917968
  0
ARC
  8
1
 62
7
 10
135.759061873363
 20
7.105427357601002e-015
 30
0
 40
29.99999999999997
 50
290.6056188518252
 51
10.62535279179662
  0
ARC
  8
1
 62
7
 10
146.759061873363
 20
19.05255888325766
 30
0
 40
20.00000000000003
 50
8.859609661762065
 51
60.00000000000003
  0
ARC
  8
1
 62
7
 10
145.479281893399
 20
20.84507910184294
 30
0
 40
10
 50
326.8845333183475
 51
64.99999999999994
  0
ARC
  8
1
 62
7
 10
135.759061873363
 20
7.105427357601002e-015
 30
0
 40
23.74999999999991
 50
19.63499375823048
 51
40.36500624176973
  0
ARC
  8
1
 62
7
 10
158.6715399294731
 20
-2.004582083196148
 30
0
 40
9.999999999999938
 50
354.9999999999998
 51
93.11546668165273
  0
ARC
  8
1
 62
7
 10
135.759061873363
 20
7.105427357601002e-015
 30
0
 40
42.00000000000006
 50
299.9999999999999
 51
359.9999999999999
  0
ARC
  8
1
 62
7
 10
135.759061873363
 20
7.105427357601002e-015
 30
0
 40
32.99999999999994
 50
304.9999999999999
 51
354.9999999999999
  0
ARC
  8
1
 62
7
 10
148.951319909437
 20
-18.8404970186468
 30
0
 40
9.999999999999996
 50
206.8845333183477
 51
305.0000000000003
  0
ARC
  8
1
 62
7
 10
135.759061873363
 20
7.105427357601002e-015
 30
0
 40
23.75000000000001
 50
259.6349937582301
 51
280.3650062417694
  0
ARC
  8
1
 62
7
 10
122.5668038372888
 20
-18.8404970186468
 30
0
 40
9.999999999999949
 50
235.0000000000003
 51
333.1154666816526
  0
ARC
  8
1
 62
7
 10
135.759061873363
 20
7.105427357601002e-015
 30
0
 40
42.00000000000006
 50
180
 51
239.9999999999999
  0
ARC
  8
1
 62
7
 10
135.759061873363
 20
7.105427357601002e-015
 30
0
 40
33
 50
185
 51
234.9999999999999
  0
ARC
  8
1
 62
7
 10
112.8465838172528
 20
-2.004582083196134
 30
0
 40
9.999999999999996
 50
86.88453331834741
 51
185
  0
ARC
  8
1
 62
7
 10
135.759061873363
 20
7.105427357601002e-015
 30
0
 40
23.7500000000001
 50
139.6349937582305
 51
160.3650062417696
  0
ARC
  8
1
 62
7
 10
135.759061873363
 20
7.105427357601002e-015
 30
0
 40
32.99999999999995
 50
65.00000000000014
 51
115
  0
ARC
  8
1
 62
7
 10
135.759061873363
 20
7.105427357601002e-015
 30
0
 40
42.00000000000002
 50
60.00000000000002
 51
120
  0
ARC
  8
1
 62
7
 10
126.0388418533269
 20
20.84507910184297
 30
0
 40
10.00000000000001
 50
115
 51
213.1154666816522
  0
CIRCLE
  8
1
 62
7
 10
168.2350145152794
 20
-18.75000000000001
 30
0
 40
3.599999999999994
  0
CIRCLE
  8
1
 62
7
 10
103.2831092314465
 20
-18.74999999999998
 30
0
 40
3.599999999999994
  0
CIRCLE
  8
1
 62
7
 10
135.759061873363
 20
7.105427357601002e-015
 30
0
 40
43.00000000000009
  0
CIRCLE
  8
1
 62
7
 10
135.759061873363
 20
37.5
 30
0
 40
3.599999999999881
  0
CIRCLE
  8
1
 62
7
 10
170.4072941515038
 20
34.64823227814082
 30
0
 40
2.75
  0
CIRCLE
  8
1
 62
7
 10
170.4072941515038
 20
-34.64823227814082
 30
0
 40
2.75
  0
CIRCLE
  8
1
 62
7
 10
101.1108295952221
 20
-34.64823227814082
 30
0
 40
2.75
  0
CIRCLE
  8
1
 62
7
 10
101.1108295952221
 20
34.64823227814082
 30
0
 40
2.75
  0
CIRCLE
  8
1
 62
7
 10
161.7398239868961
 20
15
 30
0
 40
5.5
  0
CIRCLE
  8
1
 62
7
 10
161.7398239868961
 20
15
 30
0
 40
1.5
  0
CIRCLE
  8
1
 62
7
 10
161.7398239868961
 20
15
 30
0
 40
2
  0
CIRCLE
  8
1
 62
7
 10
135.7590618733629
 20
-29.99999999999999
 30
0
 40
2
  0
CIRCLE
  8
1
 62
7
 10
135.7590618733629
 20
-29.99999999999999
 30
0
 40
1.5
  0
CIRCLE
  8
1
 62
7
 10
135.7590618733629
 20
-29.99999999999999
 30
0
 40
1.5
  0
CIRCLE
  8
1
 62
7
 10
135.7590618733629
 20
-29.99999999999999
 30
0
 40
5.5
  0
CIRCLE
  8
1
 62
7
 10
109.7782997598298
 20
15
 30
0
 40
1.5
  0
CIRCLE
  8
1
 62
7
 10
109.7782997598298
 20
15
 30
0
 40
2
  0
CIRCLE
  8
1
 62
7
 10
109.7782997598298
 20
15
 30
0
 40
5.5
  0
CIRCLE
  8
1
 62
7
 10
135.759061873363
 20
7.105427357601002e-015
 30
0
 40
22.5
  0
TEXT
  8
1
 62
7
 10
-103.7923715096101
 20
94.51013657219913
 30
0
 40
4
  1
DC1602
 41
0.9
  7
SIMPLEX
  0
TEXT
  8
1
 62
7
 10
-103.7923715096101
 20
101.3335444936368
 30
0
 40
4
  1
TMB 1.2
 41
0.9
  7
SIMPLEX
  0
ENDSEC
  0
EOF
