  0
SECTION
  2
HEADER
  9
$ACADVER
  1
AC1009
  9
$INSBASE
 10
0
 20
0
  9
$EXTMIN
 10
-117.0288541025619
 20
-82.50000000000001
  9
$EXTMAX
 10
246.1875049242345
 20
126.6880023414651
  9
$LIMMIN
 10
-117.0288541025619
 20
-82.50000000000001
  9
$LIMMAX
 10
246.1875049242345
 20
126.6880023414651
  9
$VIEWCTR
 10
10
 20
10
  9
$VIEWSIZE
 40
10
  9
$SNAPMODE
 70
0
  9
$SNAPUNIT
 10
1
 20
1
  9
$SNAPBASE
 10
0
 20
0
  9
$SNAPANG
 50
0
  9
$SNAPSTYLE
 70
0
  9
$SNAPISOPAIR
 70
0
  9
$GRIDMODE
 70
0
  9
$GRIDUNIT
 10
0
 20
0
  9
$ORTHOMODE
 70
0
  9
$REGENMODE
 70
1
  9
$FILLMODE
 70
1
  9
$QTEXTMODE
 70
0
  9
$DRAGMODE
 70
2
  9
$LTSCALE
 40
1
  9
$OSMODE
 70
0
  9
$ATTMODE
 70
1
  9
$TEXTSIZE
 40
3.5
  9
$TRACEWID
 40
0.5
  9
$TEXTSTYLE
  7
STANDARD
  9
$CLAYER
  8
0
  9
$CELTYPE
  6
BYLAYER
  9
$CECOLOR
 62
256
  9
$DIMSCALE
 40
1
  9
$DIMASZ
 40
0.18
  9
$DIMEXO
 40
0.0625
  9
$DIMDLI
 40
0.38
  9
$DIMRND
 40
0
  9
$DIMDLE
 40
0
  9
$DIMEXE
 40
0.18
  9
$DIMTP
 40
0
  9
$DIMTM
 40
0
  9
$DIMTXT
 40
0.18
  9
$DIMCEN
 40
0.09
  9
$DIMTSZ
 40
0
  9
$DIMTOL
 70
0
  9
$DIMLIM
 70
0
  9
$DIMTIH
 70
1
  9
$DIMTOH
 70
1
  9
$DIMSE1
 70
0
  9
$DIMSE2
 70
0
  9
$DIMTAD
 70
0
  9
$DIMZIN
 70
0
  9
$DIMBLK
  1

  9
$DIMASO
 70
1
  9
$DIMSHO
 70
1
  9
$DIMPOST
  1

  9
$DIMAPOST
  1

  9
$DIMALT
 70
0
  9
$DIMALTD
 70
2
  9
$DIMALTF
 40
25.4
  9
$DIMLFAC
 40
1
  9
$DIMTOFL
 70
0
  9
$DIMTVP
 40
0
  9
$DIMTIX
 70
0
  9
$DIMSOXD
 70
0
  9
$DIMSAH
 70
0
  9
$DIMBLK1
  1

  9
$DIMBLK2
  1

  9
$DIMSTYLE
  2
*UNNAMED
  9
$DIMCLRD
 70
0
  9
$DIMCLRE
 70
0
  9
$DIMCLRT
 70
0
  9
$DIMTFAC
 40
1
  9
$DIMGAP
 40
0.09
  9
$LUNITS
 70
2
  9
$LUPREC
 70
4
  9
$AXISMODE
 70
0
  9
$AXISUNIT
 10
0
 20
0
  9
$SKETCHINC
 40
0.1
  9
$FILLETRAD
 40
2
  9
$AUNITS
 70
0
  9
$AUPREC
 70
0
  9
$MENU
  1
ACAD
  9
$ELEVATION
 40
0
  9
$THICKNESS
 40
0
  9
$VIEWDIR
 10
0
 20
0
 30
1
  9
$LIMCHECK
 70
0
  9
$BLIPMODE
 70
1
  9
$CHAMFERA
 40
0
  9
$CHAMFERB
 40
0
  9
$FASTZOOM
 70
1
  9
$SKPOLY
 70
0
  9
$ANGBASE
 50
0
  9
$ANGDIR
 70
0
  9
$PDMODE
 70
0
  9
$PDSIZE
 40
0
  9
$PLINEWID
 40
0
  9
$COORDS
 70
2
  0
ENDSEC
  0
SECTION
  2
TABLES
  0
TABLE
  2
DIMSTYLE
 70
0
  0
ENDTAB
  0
TABLE
  2
LTYPE
 70
9
  0
LTYPE
  2
CONTINUOUS
 70
64
  3
Solid line
 72
65
 73
0
 40
0
  0
LTYPE
  2
BORDER
 70
64
  3
__ __ . __ __ .
 72
65
 73
6
 40
16.72706916570773
 49
4.779162618773637
 49
-2.389581309386819
 49
4.779162618773637
 49
-2.389581309386819
 49
0
 49
-2.389581309386819
  0
LTYPE
  2
CENTER
 70
64
  3
____ _ ____ _
 72
65
 73
4
 40
19.11665047509455
 49
11.94790654693409
 49
-2.389581309386819
 49
2.389581309386819
 49
-2.389581309386819
  0
LTYPE
  2
DASHDOT
 70
64
  3
__ . __ . __ .
 72
65
 73
4
 40
9.558325237547274
 49
4.779162618773637
 49
-2.389581309386819
 49
0
 49
-2.389581309386819
  0
LTYPE
  2
DASHED
 70
64
  3
__ __ __ __ __
 72
65
 73
2
 40
7.168743928160456
 49
4.779162618773637
 49
-2.389581309386819
  0
LTYPE
  2
DIVIDE
 70
64
  3
__ . . __ . . 
 72
65
 73
6
 40
11.94790654693409
 49
4.779162618773637
 49
-2.389581309386819
 49
0
 49
-2.389581309386819
 49
0
 49
-2.389581309386819
  0
LTYPE
  2
DOT
 70
64
  3
..............
 72
65
 73
4
 40
4.779162618773637
 49
0
 49
-2.389581309386819
 49
0
 49
-2.389581309386819
  0
LTYPE
  2
HIDDEN
 70
64
  3
_ _ _ _ _ _ _
 72
65
 73
2
 40
3.584371964080228
 49
2.389581309386819
 49
-1.194790654693409
  0
LTYPE
  2
PHANTOM
 70
64
  3
_____ _ _ _____ _ _ 
 72
65
 73
6
 40
23.89581309386819
 49
11.94790654693409
 49
-2.389581309386819
 49
2.389581309386819
 49
-2.389581309386819
 49
2.389581309386819
 49
-2.389581309386819
  0
ENDTAB
  0
TABLE
  2
LAYER
 70
3
  0
LAYER
  2
1
 70
0
 62
7
  6
CONTINUOUS
  0
LAYER
  2
0
 70
0
 62
7
  6
CONTINUOUS
  0
ENDTAB
  0
TABLE
  2
STYLE
 70
4
  0
STYLE
  2
STANDARD
 70
0
 40
0
 41
1
 50
0
 71
0
 42
3.5
  3
txt
  4

  0
STYLE
  2
SIMPLEX
 70
0
 40
0
 41
1
 50
0
 71
0
 42
3.5
  3
simplex
  4

  0
STYLE
  2
COMPLEX
 70
0
 40
0
 41
1
 50
0
 71
0
 42
3.5
  3
complex
  4

  0
STYLE
  2
ITALIC
 70
0
 40
0
 41
1
 50
0
 71
0
 42
3.5
  3
italic
  4

  0
ENDTAB
  0
TABLE
  2
VIEW
 70
0
  0
ENDTAB
  0
ENDSEC
  0
SECTION
  2
BLOCKS
  0
ENDSEC
  0
SECTION
  2
ENTITIES
  0
LINE
  8
1
 62
7
 10
-82.57368707897878
 20
47.50000000000001
 30
0
 11
-83.37368707897879
 21
47.5
 31
0
  0
LINE
  8
1
 62
7
 10
-83.37368707897879
 20
-68
 30
0
 11
-83.37368707897879
 21
68
 31
0
  0
LINE
  8
1
 62
7
 10
-78.67368707897877
 20
-40.99999999999999
 30
0
 11
-78.67368707897877
 21
-53.99999999999999
 31
0
  0
LINE
  8
1
 62
7
 10
-81.57368707897878
 20
-65.77328821041905
 30
0
 11
-81.57368707897878
 21
47.63165249758738
 31
0
  0
LINE
  8
1
 62
7
 10
-113.6736870789789
 20
-82.50000000000001
 30
0
 11
-113.6736870789789
 21
62.50000000000001
 31
0
  0
LINE
  8
1
 62
7
 10
-111.2736870789789
 20
64.26696164036753
 30
0
 11
-111.2736870789789
 21
-82.50000000000001
 31
0
  0
LINE
  8
1
 62
7
 10
10.23046916720625
 20
94.03376807458507
 30
0
 11
10.23046916720625
 21
67.5
 31
0
  0
LINE
  8
1
 62
7
 10
31.10000000000005
 20
-44.49999999999999
 30
0
 11
44.80000000000005
 21
-44.49999999999999
 31
0
  0
LINE
  8
1
 62
3
 10
31.93923048454138
 20
-44.49999999999999
 30
0
 11
31.93923048454138
 21
-50.49999999999999
 31
0
  0
LINE
  8
1
 62
3
 10
31.93923048454138
 20
-49.89999999999999
 30
0
 11
31.10000000000005
 21
-50.38452994616207
 31
0
  0
LINE
  8
1
 62
3
 10
45.40000000000005
 20
-49.89999999999999
 30
0
 11
31.93923048454138
 21
-49.89999999999999
 31
0
  0
LINE
  8
1
 62
3
 10
31.93923048454138
 20
-45.09999999999999
 30
0
 11
31.10000000000005
 21
-44.61547005383792
 31
0
  0
LINE
  8
1
 62
3
 10
45.40000000000005
 20
-45.09999999999999
 30
0
 11
31.93923048454138
 21
-45.09999999999999
 31
0
  0
LINE
  8
1
 62
7
 10
44.80000000000005
 20
-44.49999999999999
 30
0
 11
44.80000000000005
 21
-50.49999999999999
 31
0
  0
LINE
  8
1
 62
7
 10
44.80000000000005
 20
-50.49999999999999
 30
0
 11
31.10000000000005
 21
-50.49999999999999
 31
0
  0
LINE
  8
1
 62
7
 10
45.40000000000005
 20
-49.89999999999999
 30
0
 11
44.80000000000005
 21
-50.49999999999999
 31
0
  0
LINE
  8
1
 62
7
 10
45.40000000000005
 20
-45.09999999999999
 30
0
 11
45.40000000000005
 21
-49.89999999999999
 31
0
  0
LINE
  8
1
 62
7
 10
44.80000000000005
 20
-44.49999999999999
 30
0
 11
45.40000000000005
 21
-45.09999999999999
 31
0
  0
LINE
  8
1
 62
7
 10
26.20000000000005
 20
-44.49999999999999
 30
0
 11
26.20000000000005
 21
-50.49999999999999
 31
0
  0
LINE
  8
1
 62
7
 10
30.40000000000005
 20
-52.74999999999999
 30
0
 11
30.40000000000005
 21
-42.24999999999999
 31
0
  0
LINE
  8
1
 62
7
 10
29.90000000000005
 20
-52.74999999999999
 30
0
 11
30.40000000000005
 21
-52.74999999999999
 31
0
  0
LINE
  8
1
 62
7
 10
29.90000000000005
 20
-42.24999999999999
 30
0
 11
29.90000000000005
 21
-52.74999999999999
 31
0
  0
LINE
  8
1
 62
7
 10
30.40000000000005
 20
-42.24999999999999
 30
0
 11
29.90000000000005
 21
-42.24999999999999
 31
0
  0
LINE
  8
1
 62
7
 10
30.40000000000005
 20
-42.49999999999999
 30
0
 11
31.10000000000005
 21
-42.49999999999999
 31
0
  0
LINE
  8
1
 62
7
 10
31.10000000000005
 20
-52.49999999999999
 30
0
 11
30.40000000000005
 21
-52.49999999999999
 31
0
  0
LINE
  8
1
 62
7
 10
31.30000000000006
 20
66.5
 30
0
 11
31.30000000000006
 21
50.61729314364247
 31
0
  0
LINE
  8
1
 62
7
 10
30.30000000000005
 20
47.50000000000001
 30
0
 11
30.30000000000005
 21
68
 31
0
  0
LINE
  8
1
 62
7
 10
2.399999999999977
 20
64.26696164036753
 30
0
 11
2.399999999999977
 21
-82.50000000000001
 31
0
  0
LINE
  8
1
 62
7
 10
180.6875049242345
 20
94.03376807458507
 30
0
 11
175.6875049242345
 21
94.03376807458507
 31
0
  0
LINE
  8
1
 62
7
 10
35.00000000000004
 20
-50.49999999999999
 30
0
 11
35.00000000000004
 21
-53.99999999999999
 31
0
  0
LINE
  8
1
 62
7
 10
35.00000000000004
 20
-40.99999999999999
 30
0
 11
35.00000000000004
 21
-44.49999999999999
 31
0
  0
LINE
  8
1
 62
7
 10
0
 20
-82.50000000000001
 30
0
 11
2.399999999999977
 21
-82.50000000000001
 31
0
  0
LINE
  8
1
 62
7
 10
0
 20
-71.75000000000001
 30
0
 11
2.399999999999977
 21
-71.75000000000001
 31
0
  0
LINE
  8
1
 62
3
  6
DASHDOT
 10
-1.263097449525731
 20
-75.00000000000001
 30
0
 11
4.125746379388374
 21
-75
 31
0
  0
LINE
  8
1
 62
7
 10
0
 20
-78.25000000000001
 30
0
 11
2.400000000000091
 21
-78.25
 31
0
  0
LINE
  8
1
 62
7
 10
2.399999999999977
 20
-32.49999999999999
 30
0
 11
0
 21
-32.49999999999999
 31
0
  0
LINE
  8
1
 62
7
 10
0
 20
32.5
 30
0
 11
2.399999999999977
 21
32.5
 31
0
  0
LINE
  8
1
 62
7
 10
0
 20
62.50000000000001
 30
0
 11
0
 21
-82.50000000000001
 31
0
  0
LINE
  8
1
 62
7
 10
0
 20
62.50000000000001
 30
0
 11
2.399999999999977
 21
62.50000000000006
 31
0
  0
LINE
  8
1
 62
7
 10
25.20000000000005
 20
67.5
 30
0
 11
8.299999999999955
 21
67.5
 31
0
  0
LINE
  8
1
 62
7
 10
25.20000000000005
 20
33.5
 30
0
 11
8.299999999999955
 21
33.5
 31
0
  0
LINE
  8
1
 62
7
 10
25.20000000000005
 20
67.5
 30
0
 11
25.20000000000005
 21
-67.50000000000001
 31
0
  0
LINE
  8
1
 62
7
 10
8.299999999999955
 20
-33.49999999999999
 30
0
 11
25.20000000000005
 21
-33.49999999999999
 31
0
  0
LINE
  8
1
 62
7
 10
8.299999999999955
 20
-67.50000000000001
 30
0
 11
25.20000000000005
 21
-67.50000000000001
 31
0
  0
LINE
  8
1
 62
7
 10
12.83046916720627
 20
94.03376807458507
 30
0
 11
12.83046916720627
 21
67.5
 31
0
  0
LINE
  8
1
 62
7
 10
10.23046916720625
 20
94.03376807458507
 30
0
 11
12.83046916720627
 21
94.03376807458507
 31
0
  0
LINE
  8
1
 62
7
 10
11.770074716046
 20
99.03376807458507
 30
0
 11
11.770074716046
 21
94.03376807458507
 31
0
  0
LINE
  8
1
 62
7
 10
12.17778317319585
 20
99.03376807458507
 30
0
 11
12.17778317319585
 21
94.03376807458507
 31
0
  0
LINE
  8
1
 62
7
 10
11.29086361836664
 20
94.03376807458507
 30
0
 11
11.29086361836664
 21
99.03376807458507
 31
0
  0
LINE
  8
1
 62
7
 10
10.88315516121679
 20
94.03376807458507
 30
0
 11
10.88315516121679
 21
99.03376807458507
 31
0
  0
LINE
  8
1
 62
7
 10
177.4860260599884
 20
94.03376807458507
 30
0
 11
177.4860260599884
 21
99.03376807458507
 31
0
  0
LINE
  8
1
 62
7
 10
176.9589476044097
 20
94.03376807458507
 30
0
 11
176.9589476044097
 21
99.03376807458507
 31
0
  0
LINE
  8
1
 62
7
 10
176.3264534577152
 20
94.03376807458507
 30
0
 11
176.3264534577152
 21
99.03376807458507
 31
0
  0
LINE
  8
1
 62
7
 10
180.0485563907539
 20
99.03376807458507
 30
0
 11
180.0485563907539
 21
94.03376807458507
 31
0
  0
LINE
  8
1
 62
7
 10
179.4160622440594
 20
99.03376807458507
 30
0
 11
179.4160622440594
 21
94.03376807458507
 31
0
  0
LINE
  8
1
 62
7
 10
178.8889837884807
 20
99.03376807458507
 30
0
 11
178.8889837884807
 21
94.03376807458507
 31
0
  0
LINE
  8
1
 62
3
  6
DASHDOT
 10
128.8649157987295
 20
28.47641010873961
 30
0
 11
144.8455268785336
 21
19.24999999999999
 31
0
  0
LINE
  8
1
 62
3
  6
DASHDOT
 10
212.8664958180754
 20
20.02192472778357
 30
0
 11
227.3873594120255
 21
28.40554923261652
 31
0
  0
LINE
  8
1
 62
7
 10
124.3358568528895
 20
62.49999999999999
 30
0
 11
150.6875337847495
 21
62.49999999999999
 31
0
  0
LINE
  8
1
 62
7
 10
204.9783615734722
 20
62.49999999999999
 30
0
 11
232.0391529955796
 21
62.49999999999999
 31
0
  0
LINE
  8
1
 62
7
 10
124.3358568528895
 20
-62.5
 30
0
 11
151.3966482749969
 21
-62.5
 31
0
  0
LINE
  8
1
 62
7
 10
206.4846502244088
 20
-62.5
 30
0
 11
232.0391529955796
 21
-62.5
 31
0
  0
LINE
  8
1
 62
7
 10
240.6875049242345
 20
53.85164807134505
 30
0
 11
240.6875049242345
 21
26.79085664923764
 31
0
  0
LINE
  8
1
 62
7
 10
240.6875049242345
 20
-26.79085664923765
 30
0
 11
240.6875049242345
 21
-53.85164807134505
 31
0
  0
LINE
  8
1
 62
7
 10
115.6875049242345
 20
-26.79085664923762
 30
0
 11
115.6875049242345
 21
-53.85164807134504
 31
0
  0
LINE
  8
1
 62
7
 10
115.6875049242345
 20
53.85164807134502
 30
0
 11
115.6875049242345
 21
26.7908566492376
 31
0
  0
LINE
  8
1
 62
7
 10
175.6875049242345
 20
94.03376807458507
 30
0
 11
175.6875049242345
 21
67.9540285781498
 31
0
  0
LINE
  8
1
 62
7
 10
180.6875049242345
 20
94.03376807458507
 30
0
 11
180.6875049242345
 21
67.9540285781498
 31
0
  0
LINE
  8
1
 62
7
 10
25.40000000000004
 20
68
 30
0
 11
30.30000000000005
 21
68
 31
0
  0
LINE
  8
1
 62
7
 10
30.30000000000005
 20
47.50000000000001
 30
0
 11
31.10000000000005
 21
47.50000000000001
 31
0
  0
LINE
  8
1
 62
7
 10
31.10000000000005
 20
47.50000000000001
 30
0
 11
31.10000000000005
 21
-66.53672573724259
 31
0
  0
LINE
  8
1
 62
7
 10
25.40000000000004
 20
32.99999999999999
 30
0
 11
31.10000000000005
 21
32.99999999999999
 31
0
  0
LINE
  8
1
 62
7
 10
31.10000000000005
 20
-32.99999999999999
 30
0
 11
25.40000000000004
 21
-32.99999999999999
 31
0
  0
LINE
  8
1
 62
7
 10
30.30000000000005
 20
-68
 30
0
 11
25.40000000000004
 21
-68
 31
0
  0
LINE
  8
1
 62
7
 10
25.40000000000004
 20
68
 30
0
 11
25.40000000000004
 21
-68
 31
0
  0
LINE
  8
1
 62
7
 10
34.10000000000007
 20
65
 30
0
 11
34.10000000000007
 21
56.00000000000001
 31
0
  0
LINE
  8
1
 62
7
 10
31.30000000000006
 20
55.50000000000001
 30
0
 11
33.60000000000007
 21
55.50000000000001
 31
0
  0
LINE
  8
1
 62
7
 10
31.30000000000006
 20
65.5
 30
0
 11
33.60000000000007
 21
65.5
 31
0
  0
LINE
  8
1
 62
7
 10
30.30000000000005
 20
66.5
 30
0
 11
31.30000000000006
 21
66.5
 31
0
  0
LINE
  8
1
 62
7
 10
32.00000000000005
 20
65.5
 30
0
 11
32.00000000000005
 21
55.50000000000001
 31
0
  0
LINE
  8
1
 62
7
 10
33.60000000000007
 20
65.5
 30
0
 11
34.10000000000007
 21
65
 31
0
  0
LINE
  8
1
 62
7
 10
33.60000000000007
 20
55.50000000000001
 30
0
 11
34.10000000000007
 21
56.00000000000001
 31
0
  0
LINE
  8
1
 62
7
 10
30.30000000000005
 20
54.50000000000001
 30
0
 11
31.30000000000006
 21
54.50000000000001
 31
0
  0
LINE
  8
1
 62
7
 10
30.30000000000005
 20
50.4856406460551
 30
0
 11
31.10000000000005
 21
47.50000000000001
 31
0
  0
LINE
  8
1
 62
7
 10
31.30000000000006
 20
50.61729314364247
 30
0
 11
32.10000000000005
 21
47.63165249758738
 31
0
  0
LINE
  8
1
 62
7
 10
32.10000000000005
 20
47.63165249758738
 30
0
 11
32.10000000000005
 21
-44.49999999999999
 31
0
  0
LINE
  8
1
 62
7
 10
31.10000000000005
 20
-66.53672573724259
 30
0
 11
32.10000000000005
 21
-66.53672573724259
 31
0
  0
LINE
  8
1
 62
3
  6
DASHDOT
 10
25.40000000000004
 20
-47.49999999999999
 30
0
 11
46.3551636445685
 21
-47.49999999999999
 31
0
  0
LINE
  8
1
 62
7
 10
31.10000000000001
 20
-38.49999999999999
 30
0
 11
32.10000000000001
 21
-38.49999999999999
 31
0
  0
LINE
  8
1
 62
7
 10
25.40000000000004
 20
-41.49999999999999
 30
0
 11
31.10000000000005
 21
-41.49999999999999
 31
0
  0
LINE
  8
1
 62
7
 10
25.40000000000004
 20
-53.49999999999999
 30
0
 11
30.30000000000005
 21
-53.49999999999999
 31
0
  0
LINE
  8
1
 62
7
 10
30.30000000000005
 20
-53.49999999999999
 30
0
 11
30.30000000000005
 21
-68
 31
0
  0
LINE
  8
1
 62
7
 10
32.10000000000005
 20
-40.99999999999999
 30
0
 11
35.00000000000004
 21
-40.99999999999999
 31
0
  0
LINE
  8
1
 62
7
 10
32.10000000000005
 20
-53.99999999999999
 30
0
 11
35.00000000000004
 21
-53.99999999999999
 31
0
  0
LINE
  8
1
 62
7
 10
32.10000000000005
 20
-50.49999999999999
 30
0
 11
32.10000000000005
 21
-66.53672573724259
 31
0
  0
LINE
  8
1
 62
7
 10
31.10000000000001
 20
-58.28122618943675
 30
0
 11
32.10000000000001
 21
-58.28122618943675
 31
0
  0
LINE
  8
1
 62
3
  6
DASHDOT
 10
184.217442023338
 20
0
 30
0
 11
172.1575678251311
 21
0
 31
0
  0
LINE
  8
1
 62
3
  6
DASHDOT
 10
178.1875049242345
 20
6.029937099103478
 30
0
 11
178.1875049242345
 21
-6.029937099103476
 31
0
  0
LINE
  8
1
 62
3
  6
DASHDOT
 10
178.1875049242345
 20
-38.50000000000001
 30
0
 11
178.1875049242345
 21
-56.64698894945839
 31
0
  0
LINE
  8
1
 62
3
  6
DASHDOT
 10
121.2058443233016
 20
56.98166060093286
 30
0
 11
129.141713451819
 21
49.04579147241552
 31
0
  0
LINE
  8
1
 62
3
  6
DASHDOT
 10
121.2058443233017
 20
-56.98166060093287
 30
0
 11
129.141713451819
 21
-49.04579147241552
 31
0
  0
LINE
  8
1
 62
3
  6
DASHDOT
 10
227.5191769048904
 20
49.33167198065588
 30
0
 11
234.7897780797159
 21
56.60227315548132
 31
0
  0
LINE
  8
1
 62
3
  6
DASHDOT
 10
227.6740279083374
 20
-49.48652298410288
 30
0
 11
234.827355555484
 21
-56.63985063124949
 31
0
  0
LINE
  8
1
 62
7
 10
178.1730768966772
 20
94.03376807458507
 30
0
 11
178.1730768966772
 21
67.99999846935309
 31
0
  0
LINE
  8
1
 62
3
  6
DASHDOT
 10
0
 20
0
 30
0
 11
-3.355167023583007
 21
0
 31
0
  0
LINE
  8
1
 62
3
 10
-68.2736870789788
 20
-45.49999999999999
 30
0
 11
-78.67368707897877
 21
-45.49999999999999
 31
0
  0
LINE
  8
1
 62
7
 10
-69.2736870789788
 20
-44.49999999999999
 30
0
 11
-78.67368707897877
 21
-44.49999999999999
 31
0
  0
LINE
  8
1
 62
7
 10
-69.2736870789788
 20
-50.49999999999999
 30
0
 11
-78.67368707897877
 21
-50.49999999999999
 31
0
  0
LINE
  8
1
 62
3
 10
-68.2736870789788
 20
-49.49999999999999
 30
0
 11
-78.67368707897877
 21
-49.49999999999999
 31
0
  0
LINE
  8
1
 62
7
 10
-113.6736870789789
 20
-82.50000000000001
 30
0
 11
-111.2736870789789
 21
-82.50000000000001
 31
0
  0
LINE
  8
1
 62
7
 10
-113.6736870789789
 20
62.50000000000001
 30
0
 11
-111.2736870789789
 21
62.50000000000006
 31
0
  0
LINE
  8
1
 62
7
 10
-88.47368707897878
 20
67.5
 30
0
 11
-105.3736870789789
 21
67.5
 31
0
  0
LINE
  8
1
 62
7
 10
-88.47368707897878
 20
67.5
 30
0
 11
-88.47368707897878
 21
-67.50000000000001
 31
0
  0
LINE
  8
1
 62
7
 10
-105.3736870789789
 20
-67.50000000000001
 30
0
 11
-88.47368707897878
 21
-67.50000000000001
 31
0
  0
LINE
  8
1
 62
7
 10
-103.4432179117726
 20
94.03376807458507
 30
0
 11
-103.4432179117726
 21
67.5
 31
0
  0
LINE
  8
1
 62
7
 10
-100.8432179117726
 20
94.03376807458507
 30
0
 11
-100.8432179117726
 21
67.5
 31
0
  0
LINE
  8
1
 62
7
 10
-103.4432179117726
 20
94.03376807458507
 30
0
 11
-100.8432179117726
 21
94.03376807458507
 31
0
  0
LINE
  8
1
 62
7
 10
-101.9036123629329
 20
99.03376807458507
 30
0
 11
-101.9036123629329
 21
94.03376807458507
 31
0
  0
LINE
  8
1
 62
7
 10
-101.495903905783
 20
99.03376807458507
 30
0
 11
-101.495903905783
 21
94.03376807458507
 31
0
  0
LINE
  8
1
 62
7
 10
-102.3828234606122
 20
94.03376807458507
 30
0
 11
-102.3828234606122
 21
99.03376807458507
 31
0
  0
LINE
  8
1
 62
7
 10
-102.7905319177621
 20
94.03376807458507
 30
0
 11
-102.7905319177621
 21
99.03376807458507
 31
0
  0
LINE
  8
1
 62
7
 10
-88.2736870789788
 20
68
 30
0
 11
-88.2736870789788
 21
-68
 31
0
  0
LINE
  8
1
 62
7
 10
-88.2736870789788
 20
68
 30
0
 11
-83.37368707897879
 21
68
 31
0
  0
LINE
  8
1
 62
7
 10
-82.57368707897878
 20
47.50000000000001
 30
0
 11
-82.57368707897878
 21
-66.53672573724259
 31
0
  0
LINE
  8
1
 62
7
 10
-83.37368707897879
 20
-68
 30
0
 11
-88.2736870789788
 21
-68
 31
0
  0
LINE
  8
1
 62
7
 10
-79.57368707897878
 20
65
 30
0
 11
-79.57368707897878
 21
56.00000000000001
 31
0
  0
LINE
  8
1
 62
7
 10
-82.37368707897879
 20
55.50000000000001
 30
0
 11
-80.07368707897878
 21
55.50000000000001
 31
0
  0
LINE
  8
1
 62
7
 10
-82.37368707897879
 20
65.5
 30
0
 11
-80.07368707897878
 21
65.5
 31
0
  0
LINE
  8
1
 62
7
 10
-83.37368707897879
 20
66.5
 30
0
 11
-82.37368707897879
 21
66.5
 31
0
  0
LINE
  8
1
 62
7
 10
-81.6736870789788
 20
65.5
 30
0
 11
-81.6736870789788
 21
55.50000000000001
 31
0
  0
LINE
  8
1
 62
7
 10
-80.07368707897878
 20
65.5
 30
0
 11
-79.57368707897878
 21
65
 31
0
  0
LINE
  8
1
 62
7
 10
-80.07368707897878
 20
55.50000000000001
 30
0
 11
-79.57368707897878
 21
56.00000000000001
 31
0
  0
LINE
  8
1
 62
7
 10
-82.37368707897879
 20
66.5
 30
0
 11
-82.37368707897879
 21
50.61729314364247
 31
0
  0
LINE
  8
1
 62
7
 10
-83.37368707897879
 20
50.4856406460551
 30
0
 11
-82.57368707897878
 21
47.50000000000001
 31
0
  0
LINE
  8
1
 62
7
 10
-82.37368707897879
 20
50.61729314364247
 30
0
 11
-81.57368707897878
 21
47.63165249758738
 31
0
  0
LINE
  8
1
 62
7
 10
-81.57368707897878
 20
-65.77328821041905
 30
0
 11
-81.57368707897878
 21
-66.53672573724259
 31
0
  0
LINE
  8
1
 62
7
 10
-82.57368707897878
 20
-66.53672573724259
 30
0
 11
-81.57368707897878
 21
-66.53672573724259
 31
0
  0
LINE
  8
1
 62
7
 10
-69.2736870789788
 20
-50.49999999999999
 30
0
 11
-68.2736870789788
 21
-49.49999999999999
 31
0
  0
LINE
  8
1
 62
7
 10
-68.2736870789788
 20
-49.49999999999999
 30
0
 11
-68.2736870789788
 21
-45.49999999999999
 31
0
  0
LINE
  8
1
 62
7
 10
-68.2736870789788
 20
-45.49999999999999
 30
0
 11
-69.2736870789788
 21
-44.49999999999999
 31
0
  0
LINE
  8
1
 62
7
 10
-69.2736870789788
 20
-50.49999999999999
 30
0
 11
-69.2736870789788
 21
-44.49999999999999
 31
0
  0
LINE
  8
1
 62
7
 10
-81.57368707897878
 20
-40.99999999999999
 30
0
 11
-78.67368707897877
 21
-40.99999999999999
 31
0
  0
LINE
  8
1
 62
7
 10
-81.57368707897878
 20
-53.99999999999999
 30
0
 11
-78.67368707897877
 21
-53.99999999999999
 31
0
  0
LINE
  8
1
 62
3
  6
DASHDOT
 10
-113.6736870789789
 20
0
 30
0
 11
-117.0288541025619
 21
0
 31
0
  0
LINE
  8
1
 62
3
  6
DASHDOT
 10
-81.57368707897878
 20
-3.552713678800501e-015
 30
0
 11
-78.90943004966418
 21
-3.552713678800501e-015
 31
0
  0
LINE
  8
1
 62
3
  6
DASHDOT
 10
32.10000000000005
 20
0
 30
0
 11
35.8655382035749
 21
0
 31
0
  0
LINE
  8
1
 62
3
  6
DASHDOT
 10
-84.17205565076789
 20
-47.49999999999999
 30
0
 11
-67.21852343441039
 21
-47.49999999999999
 31
0
  0
LINE
  8
1
 62
3
  6
DASHDOT
 10
-114.5744900269079
 20
-75
 30
0
 11
-110.1680738274559
 21
-75
 31
0
  0
ARC
  8
1
 62
7
 10
30.73336471440395
 20
-47.21235580298025
 30
0
 40
5.599999999999997
 50
215.9500207261706
 51
261.4417322826474
  0
ARC
  8
1
 62
7
 10
30.73336471440396
 20
-47.78764419701975
 30
0
 40
5.600000000000012
 50
98.55826771735273
 51
144.0499792738293
  0
ARC
  8
1
 62
7
 10
8.299999999999955
 20
40.49999999999999
 30
0
 40
7.00000000000001
 50
212.5569318374548
 51
270
  0
ARC
  8
1
 62
7
 10
8.299999999999955
 20
60.50000000000001
 30
0
 40
6.999999999999993
 50
90
 51
147.4430681625453
  0
ARC
  8
1
 62
7
 10
8.299999999999955
 20
-60.5
 30
0
 40
6.999999999999956
 50
212.5569318374541
 51
270
  0
ARC
  8
1
 62
7
 10
8.299999999999955
 20
-40.49999999999999
 30
0
 40
7
 50
90
 51
147.443068162546
  0
ARC
  8
1
 62
7
 10
-105.3736870789789
 20
60.50000000000001
 30
0
 40
6.999999999999993
 50
90
 51
147.4430681625453
  0
ARC
  8
1
 62
7
 10
-105.3736870789789
 20
-60.5
 30
0
 40
6.999999999999967
 50
212.556931837454
 51
270
  0
ARC
  8
1
 62
7
 10
162.9732475015693
 20
32.6270803333194
 30
0
 40
18
 50
114.9999999999996
 51
211.1014122552603
  0
ARC
  8
1
 62
7
 10
159.6875049242345
 20
32.04293994002423
 30
0
 40
30.00000000000001
 50
119.9999999999998
 51
175.6197874655644
  0
ARC
  8
1
 62
7
 10
178.1875049242345
 20
-3.552713678800501e-015
 30
0
 40
54.00000000000001
 50
64.99999999999996
 51
114.9999999999999
  0
ARC
  8
1
 62
7
 10
178.1875049242345
 20
-3.552713678800501e-015
 30
0
 40
38.50000000000004
 50
142.702718084652
 51
157.297281915348
  0
ARC
  8
1
 62
7
 10
111.0705361309405
 20
38.74999999999999
 30
0
 40
19.21877381056327
 50
313.2832916861447
 51
346.7167083138552
  0
ARC
  8
1
 62
7
 10
141.1875049242345
 20
-3.197442310920451e-014
 30
0
 40
30
 50
124.3802125344356
 51
180.0000000000001
  0
ARC
  8
1
 62
7
 10
142.3244957929317
 20
-3.137606738915716
 30
0
 40
17.99999999999999
 50
88.89858774473973
 51
185.0000000000001
  0
ARC
  8
1
 62
7
 10
198.8362566328722
 20
-29.48947359440371
 30
0
 40
17.99999999999998
 50
208.8985877447398
 51
304.9999999999999
  0
ARC
  8
1
 62
7
 10
196.6875049242345
 20
-32.04293994002423
 30
0
 40
29.99999999999999
 50
244.3802125344357
 51
300.0000000000002
  0
ARC
  8
1
 62
7
 10
178.1875049242345
 20
-3.552713678800501e-015
 30
0
 40
38.49999999999996
 50
262.7027180846519
 51
277.2972819153481
  0
ARC
  8
1
 62
7
 10
178.1875049242345
 20
-3.552713678800501e-015
 30
0
 40
53.99999999999995
 50
185.0000000000001
 51
235
  0
ARC
  8
1
 62
7
 10
178.1875049242345
 20
-3.552713678800501e-015
 30
0
 40
67
 50
180.0000000000001
 51
240
  0
ARC
  8
1
 62
7
 10
178.1875049242345
 20
-77.50000000000001
 30
0
 40
19.21877381056327
 50
73.28329168614471
 51
106.7167083138553
  0
ARC
  8
1
 62
7
 10
159.6875049242345
 20
-32.04293994002423
 30
0
 40
29.99999999999998
 50
240
 51
295.6197874655643
  0
ARC
  8
1
 62
7
 10
157.5387532155968
 20
-29.48947359440371
 30
0
 40
17.99999999999999
 50
235
 51
331.1014122552604
  0
ARC
  8
1
 62
7
 10
193.4017623468997
 20
32.62708033331937
 30
0
 40
18
 50
328.8985877447396
 51
64.99999999999994
  0
ARC
  8
1
 62
7
 10
196.6875049242345
 20
32.04293994002421
 30
0
 40
29.99999999999999
 50
4.380212534435584
 51
60.00000000000001
  0
ARC
  8
1
 62
7
 10
178.1875049242345
 20
-3.552713678800501e-015
 30
0
 40
66.99999999999999
 50
59.99999999999999
 51
119.9999999999999
  0
ARC
  8
1
 62
7
 10
178.1875049242345
 20
-3.552713678800501e-015
 30
0
 40
38.50000000000004
 50
22.70271808465185
 51
37.29728191534793
  0
ARC
  8
1
 62
7
 10
178.1875049242345
 20
-3.552713678800501e-015
 30
0
 40
54.00000000000003
 50
305
 51
354.9999999999999
  0
ARC
  8
1
 62
7
 10
178.1875049242345
 20
-3.552713678800501e-015
 30
0
 40
67.00000000000001
 50
300.0000000000001
 51
359.9999999999999
  0
ARC
  8
1
 62
7
 10
245.3044737175285
 20
38.74999999999996
 30
0
 40
19.21877381056326
 50
193.2832916861447
 51
226.7167083138557
  0
ARC
  8
1
 62
7
 10
215.1875049242345
 20
-5.684341886080801e-014
 30
0
 40
30
 50
359.9999999999999
 51
55.61978746556412
  0
ARC
  8
1
 62
7
 10
214.0505140555374
 20
-3.137606738915746
 30
0
 40
17.99999999999996
 50
354.9999999999999
 51
91.10141225526027
  0
ARC
  8
1
 62
7
 10
178.1875049242345
 20
-3.552713678800501e-015
 30
0
 40
47.5
 50
45.72286046805808
 51
134.2771395319418
  0
ARC
  8
1
 62
7
 10
178.1875049242345
 20
-3.552713678800501e-015
 30
0
 40
47.49999999999999
 50
285.7228604680582
 51
14.27713953194179
  0
ARC
  8
1
 62
7
 10
178.1875049242345
 20
-3.552713678800501e-015
 30
0
 40
47.49999999999999
 50
165.7228604680581
 51
254.2771395319419
  0
ARC
  8
1
 62
7
 10
178.1875049242345
 20
-3.552713678800501e-015
 30
0
 40
82.49999999999996
 50
130.7490543774703
 51
139.2509456225296
  0
ARC
  8
1
 62
7
 10
178.1875049242345
 20
-3.552713678800501e-015
 30
0
 40
82.5
 50
40.7490543774704
 51
49.25094562252959
  0
ARC
  8
1
 62
7
 10
178.1875049242345
 20
-3.552713678800501e-015
 30
0
 40
82.50000000000004
 50
310.7490543774704
 51
319.2509456225296
  0
ARC
  8
1
 62
7
 10
178.1875049242345
 20
-3.552713678800501e-015
 30
0
 40
82.5
 50
220.7490543774704
 51
229.2509456225297
  0
ARC
  8
1
 62
3
  6
DASHDOT
 10
178.1875049242345
 20
-3.552713678800501e-015
 30
0
 40
74.99999999999994
 50
129.6332135999826
 51
140.1306447068699
  0
ARC
  8
1
 62
3
  6
DASHDOT
 10
178.1875049242345
 20
-3.552713678800501e-015
 30
0
 40
74.99999999999999
 50
219.6332135999826
 51
230.1306447068699
  0
ARC
  8
1
 62
3
  6
DASHDOT
 10
178.1875049242345
 20
-3.552713678800501e-015
 30
0
 40
75.00000000000004
 50
39.43134464471154
 51
50.13788976541066
  0
ARC
  8
1
 62
3
  6
DASHDOT
 10
178.1875049242345
 20
-3.552713678800501e-015
 30
0
 40
75.00000000000003
 50
310.2802165747631
 51
319.3131317486746
  0
ARC
  8
1
 62
3
  6
DASHDOT
 10
178.1875049242345
 20
-3.552713678800501e-015
 30
0
 40
47.5
 50
138.2539741184839
 51
162.6544398025083
  0
ARC
  8
1
 62
3
  6
DASHDOT
 10
178.1875049242345
 20
-3.552713678800501e-015
 30
0
 40
47.49999999999999
 50
257.9624353906709
 51
281.4630259018227
  0
ARC
  8
1
 62
3
  6
DASHDOT
 10
178.1875049242345
 20
-3.552713678800501e-015
 30
0
 40
47.50000000000004
 50
18.67534388287428
 51
41.8031511458019
  0
CIRCLE
  8
1
 62
7
 10
178.1875049242345
 20
60.49999999999999
 30
0
 40
5
  0
CIRCLE
  8
1
 62
7
 10
137.0512982444737
 20
23.74999999999999
 30
0
 40
6.5
  0
CIRCLE
  8
1
 62
7
 10
137.0512982444737
 20
23.74999999999999
 30
0
 40
3
  0
CIRCLE
  8
1
 62
7
 10
137.0512982444737
 20
23.74999999999999
 30
0
 40
2.5
  0
CIRCLE
  8
1
 62
7
 10
125.792967995276
 20
-30.24999999999999
 30
0
 40
5
  0
CIRCLE
  8
1
 62
7
 10
230.5820418531931
 20
-30.25000000000006
 30
0
 40
5
  0
CIRCLE
  8
1
 62
7
 10
178.1875049242345
 20
-47.50000000000001
 30
0
 40
6.5
  0
CIRCLE
  8
1
 62
7
 10
219.3237116039954
 20
23.74999999999996
 30
0
 40
6.5
  0
CIRCLE
  8
1
 62
7
 10
178.1875049242345
 20
-47.50000000000001
 30
0
 40
3
  0
CIRCLE
  8
1
 62
7
 10
219.3237116039954
 20
23.74999999999996
 30
0
 40
3
  0
CIRCLE
  8
1
 62
7
 10
178.1875049242345
 20
-47.50000000000001
 30
0
 40
2.5
  0
CIRCLE
  8
1
 62
7
 10
219.3237116039954
 20
23.74999999999996
 30
0
 40
2.5
  0
CIRCLE
  8
1
 62
7
 10
178.1875049242345
 20
-3.552713678800501e-015
 30
0
 40
68
  0
CIRCLE
  8
1
 62
7
 10
178.1875049242345
 20
-3.552713678800501e-015
 30
0
 40
33
  0
CIRCLE
  8
1
 62
7
 10
125.1544963352435
 20
53.03300858899107
 30
0
 40
3.25
  0
CIRCLE
  8
1
 62
7
 10
125.1544963352435
 20
-53.03300858899107
 30
0
 40
3.25
  0
CIRCLE
  8
1
 62
7
 10
231.2205135132256
 20
53.03300858899107
 30
0
 40
3.25
  0
CIRCLE
  8
1
 62
7
 10
231.2205135132256
 20
-53.03300858899107
 30
0
 40
3.25
  0
TEXT
  8
1
 62
7
 10
-111.8410513451689
 20
111.6000044210271
 30
0
 40
5
  1
DC1604
 41
0.9
  7
SIMPLEX
  0
TEXT
  8
1
 62
7
 10
-111.8410513451689
 20
121.6880023414651
 30
0
 40
5
  1
TMB 5
 41
0.9
  7
SIMPLEX
  0
ENDSEC
  0
EOF
